ISO-10303-21;
HEADER;
FILE_DESCRIPTION (( 'STEP AP214' ),
    '1' );
FILE_NAME ('81937.STEP',
    '2023-06-30T22:37:38',
    ( '' ),
    ( '' ),
    'SwSTEP 2.0',
    'SolidWorks 2023',
    '' );
FILE_SCHEMA (( 'AUTOMOTIVE_DESIGN' ));
ENDSEC;

DATA;
#1 = PLANE ( 'NONE',  #187 ) ;
#2 = CARTESIAN_POINT ( 'NONE',  ( 4.592425496802572986E-17, 1.625000000000000000, 0.3749999999999998335 ) ) ;
#3 = CIRCLE ( 'NONE', #268, 0.3750000000000001110 ) ;
#4 = CIRCLE ( 'NONE', #125, 0.3749999999999998335 ) ;
#5 = CARTESIAN_POINT ( 'NONE',  ( 0.000000000000000000, 0.3750000000000001665, 0.000000000000000000 ) ) ;
#6 = DIMENSIONAL_EXPONENTS ( 1.000000000000000000, 0.000000000000000000, 0.000000000000000000, 0.000000000000000000, 0.000000000000000000, 0.000000000000000000, 0.000000000000000000 ) ;
#7 = ORIENTED_EDGE ( 'NONE', *, *, #273, .T. ) ;
#8 = AXIS2_PLACEMENT_3D ( 'NONE', #263, #38, #90 ) ;
#9 = PRODUCT_DEFINITION_FORMATION_WITH_SPECIFIED_SOURCE ( 'ANY', '', #310, .NOT_KNOWN. ) ;
#10 = ORIENTED_EDGE ( 'NONE', *, *, #91, .F. ) ;
#11 = ADVANCED_FACE ( 'NONE', ( #286 ), #264, .T. ) ;
#12 = FILL_AREA_STYLE_COLOUR ( '', #109 ) ;
#13 = DIRECTION ( 'NONE',  ( 0.000000000000000000, 1.000000000000000000, 0.000000000000000000 ) ) ;
#14 =( NAMED_UNIT ( * ) SI_UNIT ( $, .STERADIAN. ) SOLID_ANGLE_UNIT ( ) );
#15 =( NAMED_UNIT ( * ) SI_UNIT ( $, .STERADIAN. ) SOLID_ANGLE_UNIT ( ) );
#16 = ORIENTED_EDGE ( 'NONE', *, *, #91, .T. ) ;
#17 = CARTESIAN_POINT ( 'NONE',  ( 0.3749999999999998335, 4.000000000000000000, 4.592425496802572986E-17 ) ) ;
#18 = CYLINDRICAL_SURFACE ( 'NONE', #306, 0.3749999999999999445 ) ;
#19 = CARTESIAN_POINT ( 'NONE',  ( -0.3750000000000001110, 0.3750000000000001665, 4.592425496802576068E-17 ) ) ;
#20 = SURFACE_STYLE_FILL_AREA ( #195 ) ;
#21 = DIRECTION ( 'NONE',  ( -1.000000000000000000, 0.000000000000000000, 0.000000000000000000 ) ) ;
#22 = FACE_OUTER_BOUND ( 'NONE', #257, .T. ) ;
#23 = CARTESIAN_POINT ( 'NONE',  ( -2.296212748401288034E-17, 0.000000000000000000, 0.000000000000000000 ) ) ;
#24 = CYLINDRICAL_SURFACE ( 'NONE', #365, 0.3749999999999998335 ) ;
#25 = PRESENTATION_STYLE_ASSIGNMENT (( #282 ) ) ;
#26 = PRESENTATION_LAYER_ASSIGNMENT (  '', '', ( #224 ) ) ;
#27 = AXIS2_PLACEMENT_3D ( 'NONE', #53, #226, #146 ) ;
#28 = APPLICATION_CONTEXT ( 'automotive_design' ) ;
#29 = VERTEX_POINT ( 'NONE', #69 ) ;
#30 = PRESENTATION_LAYER_ASSIGNMENT (  '', '', ( #194 ) ) ;
#31 =( GEOMETRIC_REPRESENTATION_CONTEXT ( 3 ) GLOBAL_UNCERTAINTY_ASSIGNED_CONTEXT ( ( #208 ) ) GLOBAL_UNIT_ASSIGNED_CONTEXT ( ( #298, #296, #77 ) ) REPRESENTATION_CONTEXT ( 'NONE', 'WORKASPACE' ) );
#32 = EDGE_LOOP ( 'NONE', ( #41, #239 ) ) ;
#33 = EDGE_CURVE ( 'NONE', #95, #292, #3, .T. ) ;
#34 = PRESENTATION_STYLE_ASSIGNMENT (( #114 ) ) ;
#35 = AXIS2_PLACEMENT_3D ( 'NONE', #344, #258, #37 ) ;
#36 = DIRECTION ( 'NONE',  ( 0.000000000000000000, 0.000000000000000000, -1.000000000000000000 ) ) ;
#37 = DIRECTION ( 'NONE',  ( 0.000000000000000000, 0.000000000000000000, -1.000000000000000000 ) ) ;
#38 = DIRECTION ( 'NONE',  ( -0.000000000000000000, -1.000000000000000000, -0.000000000000000000 ) ) ;
#39 = ORIENTED_EDGE ( 'NONE', *, *, #361, .F. ) ;
#40 = FILL_AREA_STYLE_COLOUR ( '', #86 ) ;
#41 = ORIENTED_EDGE ( 'NONE', *, *, #47, .F. ) ;
#42 = MECHANICAL_DESIGN_GEOMETRIC_PRESENTATION_REPRESENTATION (  '', ( #228 ), #223 ) ;
#43 = FILL_AREA_STYLE_COLOUR ( '', #99 ) ;
#44 = SURFACE_SIDE_STYLE ('',( #20 ) ) ;
#45 = CARTESIAN_POINT ( 'NONE',  ( -1.224646799147352714E-16, 4.000000000000000000, 0.000000000000000000 ) ) ;
#46 =( LENGTH_UNIT ( ) NAMED_UNIT ( * ) SI_UNIT ( $, .METRE. ) );
#47 = EDGE_CURVE ( 'NONE', #70, #96, #104, .T. ) ;
#48 = STYLED_ITEM ( 'NONE', ( #272 ), #64 ) ;
#49 = VECTOR ( 'NONE', #278, 39.37007874015748143 ) ;
#50 = LENGTH_MEASURE_WITH_UNIT ( LENGTH_MEASURE( 0.02539999999999999897 ), #221 );
#51 = CARTESIAN_POINT ( 'NONE',  ( 1.683889348827610752E-16, 1.625000000000000000, 0.000000000000000000 ) ) ;
#52 = CARTESIAN_POINT ( 'NONE',  ( 0.000000000000000000, 0.000000000000000000, 0.000000000000000000 ) ) ;
#53 = CARTESIAN_POINT ( 'NONE',  ( 1.683889348827610999E-16, 1.625000000000000000, 0.000000000000000000 ) ) ;
#54 = CARTESIAN_POINT ( 'NONE',  ( 0.000000000000000000, 1.625000000000000000, 0.000000000000000000 ) ) ;
#55 = CIRCLE ( 'NONE', #180, 0.3750000000000001110 ) ;
#56 = ORIENTED_EDGE ( 'NONE', *, *, #205, .T. ) ;
#57 = EDGE_LOOP ( 'NONE', ( #182, #242, #142, #362, #39 ) ) ;
#58 = DIRECTION ( 'NONE',  ( 0.000000000000000000, 0.000000000000000000, -1.000000000000000000 ) ) ;
#59 = PRODUCT_DEFINITION ( 'UNKNOWN', '', #9, #111 ) ;
#60 = DIRECTION ( 'NONE',  ( -0.000000000000000000, -1.000000000000000000, -0.000000000000000000 ) ) ;
#61 = AXIS2_PLACEMENT_3D ( 'NONE', #238, #355, #323 ) ;
#62 =( GEOMETRIC_REPRESENTATION_CONTEXT ( 3 ) GLOBAL_UNCERTAINTY_ASSIGNED_CONTEXT ( ( #119 ) ) GLOBAL_UNIT_ASSIGNED_CONTEXT ( ( #172, #252, #202 ) ) REPRESENTATION_CONTEXT ( 'NONE', 'WORKASPACE' ) );
#63 = AXIS2_PLACEMENT_3D ( 'NONE', #5, #360, #234 ) ;
#64 = ADVANCED_FACE ( 'NONE', ( #22 ), #18, .T. ) ;
#65 = LENGTH_MEASURE_WITH_UNIT ( LENGTH_MEASURE( 0.02539999999999999897 ), #157 );
#66 =( LENGTH_UNIT ( ) NAMED_UNIT ( * ) SI_UNIT ( $, .METRE. ) );
#67 = VERTEX_POINT ( 'NONE', #363 ) ;
#68 =( GEOMETRIC_REPRESENTATION_CONTEXT ( 3 ) GLOBAL_UNCERTAINTY_ASSIGNED_CONTEXT ( ( #88 ) ) GLOBAL_UNIT_ASSIGNED_CONTEXT ( ( #134, #160, #215 ) ) REPRESENTATION_CONTEXT ( 'NONE', 'WORKASPACE' ) );
#69 = CARTESIAN_POINT ( 'NONE',  ( -0.3750000000000001110, 4.000000000000000000, 0.000000000000000000 ) ) ;
#70 = VERTEX_POINT ( 'NONE', #98 ) ;
#71 = UNCERTAINTY_MEASURE_WITH_UNIT (LENGTH_MEASURE( 1.000000000000000082E-05 ), #342, 'distance_accuracy_value', 'NONE');
#72 = CARTESIAN_POINT ( 'NONE',  ( 0.3749999999999996669, 4.000000000000000000, 4.592425496802572370E-17 ) ) ;
#73 = SURFACE_SIDE_STYLE ('',( #122 ) ) ;
#74 = CIRCLE ( 'NONE', #259, 0.3749999999999999445 ) ;
#75 = PRESENTATION_STYLE_ASSIGNMENT (( #129 ) ) ;
#76 = ADVANCED_FACE ( 'NONE', ( #168 ), #24, .T. ) ;
#77 =( NAMED_UNIT ( * ) SI_UNIT ( $, .STERADIAN. ) SOLID_ANGLE_UNIT ( ) );
#78 = FACE_OUTER_BOUND ( 'NONE', #340, .T. ) ;
#79 = DIRECTION ( 'NONE',  ( -1.000000000000000000, 0.000000000000000000, 0.000000000000000000 ) ) ;
#80 = LINE ( 'NONE', #225, #246 ) ;
#81 = CARTESIAN_POINT ( 'NONE',  ( 0.000000000000000000, 0.000000000000000000, 0.000000000000000000 ) ) ;
#82 = DIRECTION ( 'NONE',  ( -1.224646799147353207E-16, 1.000000000000000000, -0.000000000000000000 ) ) ;
#83 = EDGE_CURVE ( 'NONE', #325, #67, #274, .T. ) ;
#84 = ORIENTED_EDGE ( 'NONE', *, *, #219, .F. ) ;
#85 = FILL_AREA_STYLE_COLOUR ( '', #290 ) ;
#86 = COLOUR_RGB ( '',1.000000000000000000, 0.000000000000000000, 0.000000000000000000 ) ;
#87 = ORIENTED_EDGE ( 'NONE', *, *, #205, .F. ) ;
#88 = UNCERTAINTY_MEASURE_WITH_UNIT (LENGTH_MEASURE( 1.000000000000000082E-05 ), #134, 'distance_accuracy_value', 'NONE');
#89 = VERTEX_POINT ( 'NONE', #249 ) ;
#90 = DIRECTION ( 'NONE',  ( 0.000000000000000000, 0.000000000000000000, -1.000000000000000000 ) ) ;
#91 = EDGE_CURVE ( 'NONE', #305, #29, #74, .T. ) ;
#92 = FACE_OUTER_BOUND ( 'NONE', #283, .T. ) ;
#93 = ORIENTED_EDGE ( 'NONE', *, *, #162, .F. ) ;
#94 =( NAMED_UNIT ( * ) PLANE_ANGLE_UNIT ( ) SI_UNIT ( $, .RADIAN. ) );
#95 = VERTEX_POINT ( 'NONE', #19 ) ;
#96 = VERTEX_POINT ( 'NONE', #135 ) ;
#97 = LINE ( 'NONE', #72, #49 ) ;
#98 = CARTESIAN_POINT ( 'NONE',  ( -0.3749999999999995559, 1.625000000000000000, 0.000000000000000000 ) ) ;
#99 = COLOUR_RGB ( '',0.7921568627450980005, 0.8196078431372548767, 0.9333333333333333481 ) ;
#100 = SURFACE_STYLE_FILL_AREA ( #101 ) ;
#101 = FILL_AREA_STYLE ('',( #191 ) ) ;
#102 = FACE_OUTER_BOUND ( 'NONE', #57, .T. ) ;
#103 = DIRECTION ( 'NONE',  ( 1.224646799147353207E-16, -0.000000000000000000, 1.000000000000000000 ) ) ;
#104 = CIRCLE ( 'NONE', #372, 0.3749999999999996669 ) ;
#105 = VECTOR ( 'NONE', #107, 39.37007874015748143 ) ;
#106 = CIRCLE ( 'NONE', #35, 0.3750000000000000555 ) ;
#107 = DIRECTION ( 'NONE',  ( -0.000000000000000000, -1.000000000000000000, -0.000000000000000000 ) ) ;
#108 = ADVANCED_FACE ( 'NONE', ( #250 ), #245, .T. ) ;
#109 = COLOUR_RGB ( '',1.000000000000000000, 0.000000000000000000, 0.000000000000000000 ) ;
#110 = PRESENTATION_LAYER_ASSIGNMENT (  '', '', ( #334 ) ) ;
#111 = PRODUCT_DEFINITION_CONTEXT ( 'detailed design', #28, 'design' ) ;
#112 = ORIENTED_EDGE ( 'NONE', *, *, #47, .T. ) ;
#113 = DIRECTION ( 'NONE',  ( -0.000000000000000000, -1.000000000000000000, -0.000000000000000000 ) ) ;
#114 = SURFACE_STYLE_USAGE ( .BOTH. , #73 ) ;
#115 = CIRCLE ( 'NONE', #204, 0.3750000000000000555 ) ;
#116 = CARTESIAN_POINT ( 'NONE',  ( 0.000000000000000000, 0.000000000000000000, 0.000000000000000000 ) ) ;
#117 =( NAMED_UNIT ( * ) PLANE_ANGLE_UNIT ( ) SI_UNIT ( $, .RADIAN. ) );
#118 = ORIENTED_EDGE ( 'NONE', *, *, #33, .T. ) ;
#119 = UNCERTAINTY_MEASURE_WITH_UNIT (LENGTH_MEASURE( 1.000000000000000082E-05 ), #172, 'distance_accuracy_value', 'NONE');
#120 =( NAMED_UNIT ( * ) SI_UNIT ( $, .STERADIAN. ) SOLID_ANGLE_UNIT ( ) );
#121 = FILL_AREA_STYLE ('',( #40 ) ) ;
#122 = SURFACE_STYLE_FILL_AREA ( #350 ) ;
#123 = PRESENTATION_STYLE_ASSIGNMENT (( #288 ) ) ;
#124 = VERTEX_POINT ( 'NONE', #366 ) ;
#125 = AXIS2_PLACEMENT_3D ( 'NONE', #54, #60, #138 ) ;
#126 = ORIENTED_EDGE ( 'NONE', *, *, #289, .F. ) ;
#127 = SURFACE_SIDE_STYLE ('',( #222 ) ) ;
#128 = DIRECTION ( 'NONE',  ( -0.000000000000000000, -1.000000000000000000, -0.000000000000000000 ) ) ;
#129 = SURFACE_STYLE_USAGE ( .BOTH. , #44 ) ;
#130 = DIRECTION ( 'NONE',  ( -1.224646799147353207E-16, 1.000000000000000000, -0.000000000000000000 ) ) ;
#131 = CLOSED_SHELL ( 'NONE', ( #193, #64, #192, #316, #11 ) ) ;
#132 = AXIS2_PLACEMENT_3D ( 'NONE', #373, #130, #164 ) ;
#133 = CARTESIAN_POINT ( 'NONE',  ( 0.3749999999999998335, 4.000000000000000000, 0.000000000000000000 ) ) ;
#134 =( CONVERSION_BASED_UNIT ( 'INCH', #243 ) LENGTH_UNIT ( ) NAMED_UNIT ( #337 ) );
#135 = CARTESIAN_POINT ( 'NONE',  ( 0.3749999999999998335, 1.625000000000000000, 4.592425496802572986E-17 ) ) ;
#136 = COLOUR_RGB ( '',1.000000000000000000, 0.000000000000000000, 0.000000000000000000 ) ;
#137 = CIRCLE ( 'NONE', #63, 0.3750000000000000555 ) ;
#138 = DIRECTION ( 'NONE',  ( 0.000000000000000000, 0.000000000000000000, -1.000000000000000000 ) ) ;
#139 = EDGE_CURVE ( 'NONE', #70, #29, #80, .T. ) ;
#140 = EDGE_LOOP ( 'NONE', ( #126, #270, #251, #10 ) ) ;
#141 = CARTESIAN_POINT ( 'NONE',  ( 0.000000000000000000, 0.3750000000000001665, 0.000000000000000000 ) ) ;
#142 = ORIENTED_EDGE ( 'NONE', *, *, #83, .T. ) ;
#143 = CIRCLE ( 'NONE', #27, 0.3749999999999996669 ) ;
#144 = DIMENSIONAL_EXPONENTS ( 1.000000000000000000, 0.000000000000000000, 0.000000000000000000, 0.000000000000000000, 0.000000000000000000, 0.000000000000000000, 0.000000000000000000 ) ;
#145 = ORIENTED_EDGE ( 'NONE', *, *, #33, .F. ) ;
#146 = DIRECTION ( 'NONE',  ( -1.000000000000000000, 0.000000000000000000, 0.000000000000000000 ) ) ;
#147 = SURFACE_STYLE_FILL_AREA ( #121 ) ;
#148 = ORIENTED_EDGE ( 'NONE', *, *, #83, .F. ) ;
#149 = PRESENTATION_LAYER_ASSIGNMENT (  '', '', ( #277 ) ) ;
#150 = AXIS2_PLACEMENT_3D ( 'NONE', #51, #167, #279 ) ;
#151 = ADVANCED_FACE ( 'NONE', ( #78 ), #331, .F. ) ;
#152 = DIRECTION ( 'NONE',  ( -1.000000000000000000, 0.000000000000000000, 0.000000000000000000 ) ) ;
#153 = ORIENTED_EDGE ( 'NONE', *, *, #162, .T. ) ;
#154 = DIRECTION ( 'NONE',  ( 0.000000000000000000, 0.000000000000000000, -1.000000000000000000 ) ) ;
#155 = EDGE_LOOP ( 'NONE', ( #145, #312, #153, #7 ) ) ;
#156 = APPLICATION_CONTEXT ( 'automotive_design' ) ;
#157 =( LENGTH_UNIT ( ) NAMED_UNIT ( * ) SI_UNIT ( $, .METRE. ) );
#158 = PRESENTATION_STYLE_ASSIGNMENT (( #322 ) ) ;
#159 =( CONVERSION_BASED_UNIT ( 'INCH', #295 ) LENGTH_UNIT ( ) NAMED_UNIT ( #232 ) );
#160 =( NAMED_UNIT ( * ) PLANE_ANGLE_UNIT ( ) SI_UNIT ( $, .RADIAN. ) );
#161 = DIRECTION ( 'NONE',  ( -1.224646799147353207E-16, 1.000000000000000000, -0.000000000000000000 ) ) ;
#162 = EDGE_CURVE ( 'NONE', #67, #124, #218, .T. ) ;
#163 = CARTESIAN_POINT ( 'NONE',  ( 0.000000000000000000, 1.625000000000000000, -0.3749999999999998335 ) ) ;
#164 = DIRECTION ( 'NONE',  ( -1.000000000000000000, 0.000000000000000000, 0.000000000000000000 ) ) ;
#165 = MANIFOLD_SOLID_BREP ( 'Revolve - Tool Body (Straight Shanked)', #179 ) ;
#166 = EDGE_CURVE ( 'NONE', #325, #183, #4, .T. ) ;
#167 = DIRECTION ( 'NONE',  ( -1.224646799147353207E-16, 1.000000000000000000, 0.000000000000000000 ) ) ;
#168 = FACE_OUTER_BOUND ( 'NONE', #319, .T. ) ;
#169 = CIRCLE ( 'NONE', #8, 0.3749999999999998335 ) ;
#170 = ORIENTED_EDGE ( 'NONE', *, *, #307, .T. ) ;
#171 = UNCERTAINTY_MEASURE_WITH_UNIT (LENGTH_MEASURE( 1.000000000000000082E-05 ), #287, 'distance_accuracy_value', 'NONE');
#172 =( CONVERSION_BASED_UNIT ( 'INCH', #311 ) LENGTH_UNIT ( ) NAMED_UNIT ( #345 ) );
#173 = PRESENTATION_LAYER_ASSIGNMENT (  '', '', ( #228 ) ) ;
#174 =( NAMED_UNIT ( * ) PLANE_ANGLE_UNIT ( ) SI_UNIT ( $, .RADIAN. ) );
#175 = DIRECTION ( 'NONE',  ( 0.000000000000000000, 0.000000000000000000, 1.000000000000000000 ) ) ;
#176 = DIRECTION ( 'NONE',  ( 1.000000000000000000, 0.000000000000000000, 0.000000000000000000 ) ) ;
#177 = PRODUCT_CONTEXT ( 'NONE', #156, 'mechanical' ) ;
#178 =( NAMED_UNIT ( * ) SI_UNIT ( $, .STERADIAN. ) SOLID_ANGLE_UNIT ( ) );
#179 = CLOSED_SHELL ( 'NONE', ( #76, #320, #108, #151 ) ) ;
#180 = AXIS2_PLACEMENT_3D ( 'NONE', #318, #154, #79 ) ;
#181 = CARTESIAN_POINT ( 'NONE',  ( -4.592425496802576068E-17, 0.3750000000000001110, 0.000000000000000000 ) ) ;
#182 = ORIENTED_EDGE ( 'NONE', *, *, #307, .F. ) ;
#183 = VERTEX_POINT ( 'NONE', #2 ) ;
#184 = FILL_AREA_STYLE ('',( #271 ) ) ;
#185 = CARTESIAN_POINT ( 'NONE',  ( 1.683889348827610999E-16, 1.625000000000000000, 0.000000000000000000 ) ) ;
#186 =( GEOMETRIC_REPRESENTATION_CONTEXT ( 3 ) GLOBAL_UNCERTAINTY_ASSIGNED_CONTEXT ( ( #262 ) ) GLOBAL_UNIT_ASSIGNED_CONTEXT ( ( #332, #369, #303 ) ) REPRESENTATION_CONTEXT ( 'NONE', 'WORKASPACE' ) );
#187 = AXIS2_PLACEMENT_3D ( 'NONE', #235, #13, #260 ) ;
#188 = SURFACE_STYLE_USAGE ( .BOTH. , #127 ) ;
#189 = CARTESIAN_POINT ( 'NONE',  ( 0.000000000000000000, 0.000000000000000000, -0.3749999999999999445 ) ) ;
#190 = FACE_OUTER_BOUND ( 'NONE', #32, .T. ) ;
#191 = FILL_AREA_STYLE_COLOUR ( '', #209 ) ;
#192 = ADVANCED_FACE ( 'NONE', ( #285 ), #1, .T. ) ;
#193 = ADVANCED_FACE ( 'NONE', ( #92 ), #314, .T. ) ;
#194 = STYLED_ITEM ( 'NONE', ( #302 ), #316 ) ;
#195 = FILL_AREA_STYLE ('',( #43 ) ) ;
#196 = DIRECTION ( 'NONE',  ( 1.000000000000000000, 0.000000000000000000, -1.224646799147353207E-16 ) ) ;
#197 = DIRECTION ( 'NONE',  ( 1.000000000000000000, 1.224646799147353207E-16, 0.000000000000000000 ) ) ;
#198 = MECHANICAL_DESIGN_GEOMETRIC_PRESENTATION_REPRESENTATION (  '', ( #277 ), #68 ) ;
#199 = ORIENTED_EDGE ( 'NONE', *, *, #289, .T. ) ;
#200 = FILL_AREA_STYLE ('',( #85 ) ) ;
#201 = ORIENTED_EDGE ( 'NONE', *, *, #166, .T. ) ;
#202 =( NAMED_UNIT ( * ) SI_UNIT ( $, .STERADIAN. ) SOLID_ANGLE_UNIT ( ) );
#203 = PRESENTATION_LAYER_ASSIGNMENT (  '', '', ( #48 ) ) ;
#204 = AXIS2_PLACEMENT_3D ( 'NONE', #256, #113, #36 ) ;
#205 = EDGE_CURVE ( 'NONE', #124, #89, #115, .T. ) ;
#206 = SHAPE_DEFINITION_REPRESENTATION ( #370, #309 ) ;
#207 = SURFACE_SIDE_STYLE ('',( #147 ) ) ;
#208 = UNCERTAINTY_MEASURE_WITH_UNIT (LENGTH_MEASURE( 1.000000000000000082E-05 ), #298, 'distance_accuracy_value', 'NONE');
#209 = COLOUR_RGB ( '',1.000000000000000000, 0.000000000000000000, 0.000000000000000000 ) ;
#210 = ORIENTED_EDGE ( 'NONE', *, *, #219, .T. ) ;
#211 = STYLED_ITEM ( 'NONE', ( #25 ), #165 ) ;
#212 = LENGTH_MEASURE_WITH_UNIT ( LENGTH_MEASURE( 0.02539999999999999897 ), #357 );
#213 = ORIENTED_EDGE ( 'NONE', *, *, #273, .F. ) ;
#214 = UNCERTAINTY_MEASURE_WITH_UNIT (LENGTH_MEASURE( 1.000000000000000082E-05 ), #159, 'distance_accuracy_value', 'NONE');
#215 =( NAMED_UNIT ( * ) SI_UNIT ( $, .STERADIAN. ) SOLID_ANGLE_UNIT ( ) );
#216 = EDGE_LOOP ( 'NONE', ( #339, #359 ) ) ;
#217 = SURFACE_STYLE_USAGE ( .BOTH. , #329 ) ;
#218 = CIRCLE ( 'NONE', #297, 0.3750000000000000555 ) ;
#219 = EDGE_CURVE ( 'NONE', #29, #305, #338, .T. ) ;
#220 = DIRECTION ( 'NONE',  ( -0.000000000000000000, -1.000000000000000000, -0.000000000000000000 ) ) ;
#221 =( LENGTH_UNIT ( ) NAMED_UNIT ( * ) SI_UNIT ( $, .METRE. ) );
#222 = SURFACE_STYLE_FILL_AREA ( #184 ) ;
#223 =( GEOMETRIC_REPRESENTATION_CONTEXT ( 3 ) GLOBAL_UNCERTAINTY_ASSIGNED_CONTEXT ( ( #214 ) ) GLOBAL_UNIT_ASSIGNED_CONTEXT ( ( #159, #261, #14 ) ) REPRESENTATION_CONTEXT ( 'NONE', 'WORKASPACE' ) );
#224 = STYLED_ITEM ( 'NONE', ( #123 ), #193 ) ;
#225 = CARTESIAN_POINT ( 'NONE',  ( -0.3749999999999999445, 4.000000000000000000, 0.000000000000000000 ) ) ;
#226 = DIRECTION ( 'NONE',  ( -1.224646799147353207E-16, 1.000000000000000000, -0.000000000000000000 ) ) ;
#227 = SURFACE_STYLE_FILL_AREA ( #200 ) ;
#228 = STYLED_ITEM ( 'NONE', ( #34 ), #11 ) ;
#229 =( GEOMETRIC_REPRESENTATION_CONTEXT ( 3 ) GLOBAL_UNCERTAINTY_ASSIGNED_CONTEXT ( ( #71 ) ) GLOBAL_UNIT_ASSIGNED_CONTEXT ( ( #342, #117, #178 ) ) REPRESENTATION_CONTEXT ( 'NONE', 'WORKASPACE' ) );
#230 = ORIENTED_EDGE ( 'NONE', *, *, #361, .T. ) ;
#231 = DIRECTION ( 'NONE',  ( -0.000000000000000000, -1.000000000000000000, -0.000000000000000000 ) ) ;
#232 = DIMENSIONAL_EXPONENTS ( 1.000000000000000000, 0.000000000000000000, 0.000000000000000000, 0.000000000000000000, 0.000000000000000000, 0.000000000000000000, 0.000000000000000000 ) ;
#233 = CARTESIAN_POINT ( 'NONE',  ( -1.224646799147352714E-16, 4.000000000000000000, 0.000000000000000000 ) ) ;
#234 = DIRECTION ( 'NONE',  ( 0.000000000000000000, 0.000000000000000000, -1.000000000000000000 ) ) ;
#235 = CARTESIAN_POINT ( 'NONE',  ( 0.000000000000000000, 1.625000000000000000, 0.000000000000000000 ) ) ;
#236 = ORIENTED_EDGE ( 'NONE', *, *, #139, .F. ) ;
#237 = FILL_AREA_STYLE_COLOUR ( '', #136 ) ;
#238 = CARTESIAN_POINT ( 'NONE',  ( -4.592425496802576068E-17, 0.3750000000000001110, 0.000000000000000000 ) ) ;
#239 = ORIENTED_EDGE ( 'NONE', *, *, #336, .F. ) ;
#240 = MECHANICAL_DESIGN_GEOMETRIC_PRESENTATION_REPRESENTATION (  '', ( #194 ), #31 ) ;
#241 = PLANE ( 'NONE',  #150 ) ;
#242 = ORIENTED_EDGE ( 'NONE', *, *, #247, .T. ) ;
#243 = LENGTH_MEASURE_WITH_UNIT ( LENGTH_MEASURE( 0.02539999999999999897 ), #275 );
#244 = DIRECTION ( 'NONE',  ( 0.000000000000000000, 0.000000000000000000, -1.000000000000000000 ) ) ;
#245 = CYLINDRICAL_SURFACE ( 'NONE', #132, 0.3749999999999998335 ) ;
#246 = VECTOR ( 'NONE', #335, 39.37007874015748143 ) ;
#247 = EDGE_CURVE ( 'NONE', #183, #325, #169, .T. ) ;
#248 = DIRECTION ( 'NONE',  ( 1.224646799147353207E-16, -1.000000000000000000, 0.000000000000000000 ) ) ;
#249 = CARTESIAN_POINT ( 'NONE',  ( 4.592425496802574219E-17, 0.3750000000000001665, 0.3750000000000000555 ) ) ;
#250 = FACE_OUTER_BOUND ( 'NONE', #140, .T. ) ;
#251 = ORIENTED_EDGE ( 'NONE', *, *, #139, .T. ) ;
#252 =( NAMED_UNIT ( * ) PLANE_ANGLE_UNIT ( ) SI_UNIT ( $, .RADIAN. ) );
#253 = DIMENSIONAL_EXPONENTS ( 1.000000000000000000, 0.000000000000000000, 0.000000000000000000, 0.000000000000000000, 0.000000000000000000, 0.000000000000000000, 0.000000000000000000 ) ;
#254 = MECHANICAL_DESIGN_GEOMETRIC_PRESENTATION_REPRESENTATION (  '', ( #48 ), #186 ) ;
#255 = MECHANICAL_DESIGN_GEOMETRIC_PRESENTATION_REPRESENTATION (  '', ( #211 ), #62 ) ;
#256 = CARTESIAN_POINT ( 'NONE',  ( 0.000000000000000000, 0.3750000000000001665, 0.000000000000000000 ) ) ;
#257 = EDGE_LOOP ( 'NONE', ( #201, #170, #87, #93, #148 ) ) ;
#258 = DIRECTION ( 'NONE',  ( -0.000000000000000000, -1.000000000000000000, -0.000000000000000000 ) ) ;
#259 = AXIS2_PLACEMENT_3D ( 'NONE', #45, #161, #280 ) ;
#260 = DIRECTION ( 'NONE',  ( 0.000000000000000000, -0.000000000000000000, 1.000000000000000000 ) ) ;
#261 =( NAMED_UNIT ( * ) PLANE_ANGLE_UNIT ( ) SI_UNIT ( $, .RADIAN. ) );
#262 = UNCERTAINTY_MEASURE_WITH_UNIT (LENGTH_MEASURE( 1.000000000000000082E-05 ), #332, 'distance_accuracy_value', 'NONE');
#263 = CARTESIAN_POINT ( 'NONE',  ( 0.000000000000000000, 1.625000000000000000, 0.000000000000000000 ) ) ;
#264 = SPHERICAL_SURFACE ( 'NONE', #61, 0.3750000000000001110 ) ;
#265 = FILL_AREA_STYLE ('',( #237 ) ) ;
#266 = APPLICATION_PROTOCOL_DEFINITION ( 'draft international standard', 'automotive_design', 1998, #156 ) ;
#267 = LENGTH_MEASURE_WITH_UNIT ( LENGTH_MEASURE( 0.02539999999999999897 ), #66 );
#268 = AXIS2_PLACEMENT_3D ( 'NONE', #326, #103, #196 ) ;
#269 = MECHANICAL_DESIGN_GEOMETRIC_PRESENTATION_REPRESENTATION (  '', ( #334 ), #343 ) ;
#270 = ORIENTED_EDGE ( 'NONE', *, *, #336, .T. ) ;
#271 = FILL_AREA_STYLE_COLOUR ( '', #356 ) ;
#272 = PRESENTATION_STYLE_ASSIGNMENT (( #217 ) ) ;
#273 = EDGE_CURVE ( 'NONE', #124, #292, #55, .T. ) ;
#274 = LINE ( 'NONE', #189, #105 ) ;
#275 =( LENGTH_UNIT ( ) NAMED_UNIT ( * ) SI_UNIT ( $, .METRE. ) );
#276 = DIRECTION ( 'NONE',  ( -1.224646799147353207E-16, 1.000000000000000000, -0.000000000000000000 ) ) ;
#277 = STYLED_ITEM ( 'NONE', ( #75 ), #291 ) ;
#278 = DIRECTION ( 'NONE',  ( -1.224646799147353207E-16, 1.000000000000000000, -0.000000000000000000 ) ) ;
#279 = DIRECTION ( 'NONE',  ( -1.000000000000000000, -1.224646799147353207E-16, 0.000000000000000000 ) ) ;
#280 = DIRECTION ( 'NONE',  ( -1.000000000000000000, 0.000000000000000000, 0.000000000000000000 ) ) ;
#281 = AXIS2_PLACEMENT_3D ( 'NONE', #181, #175, #176 ) ;
#282 = SURFACE_STYLE_USAGE ( .BOTH. , #304 ) ;
#283 = EDGE_LOOP ( 'NONE', ( #230, #118, #213, #56 ) ) ;
#284 = MECHANICAL_DESIGN_GEOMETRIC_PRESENTATION_REPRESENTATION (  '', ( #224 ), #229 ) ;
#285 = FACE_OUTER_BOUND ( 'NONE', #216, .T. ) ;
#286 = FACE_OUTER_BOUND ( 'NONE', #155, .T. ) ;
#287 =( CONVERSION_BASED_UNIT ( 'INCH', #65 ) LENGTH_UNIT ( ) NAMED_UNIT ( #6 ) );
#288 = SURFACE_STYLE_USAGE ( .BOTH. , #207 ) ;
#289 = EDGE_CURVE ( 'NONE', #96, #305, #97, .T. ) ;
#290 = COLOUR_RGB ( '',0.7921568627450980005, 0.8196078431372548767, 0.9333333333333333481 ) ;
#291 = MANIFOLD_SOLID_BREP ( 'Revolve - Cutting Edge', #131 ) ;
#292 = VERTEX_POINT ( 'NONE', #23 ) ;
#293 = PRODUCT_RELATED_PRODUCT_CATEGORY ( 'part', '', ( #310 ) ) ;
#294 = SURFACE_STYLE_FILL_AREA ( #265 ) ;
#295 = LENGTH_MEASURE_WITH_UNIT ( LENGTH_MEASURE( 0.02539999999999999897 ), #348 );
#296 =( NAMED_UNIT ( * ) PLANE_ANGLE_UNIT ( ) SI_UNIT ( $, .RADIAN. ) );
#297 = AXIS2_PLACEMENT_3D ( 'NONE', #141, #231, #58 ) ;
#298 =( CONVERSION_BASED_UNIT ( 'INCH', #333 ) LENGTH_UNIT ( ) NAMED_UNIT ( #144 ) );
#299 = CARTESIAN_POINT ( 'NONE',  ( -1.224646799147352714E-16, 4.000000000000000000, 0.000000000000000000 ) ) ;
#300 = DIRECTION ( 'NONE',  ( -1.000000000000000000, 0.000000000000000000, 0.000000000000000000 ) ) ;
#301 = VECTOR ( 'NONE', #371, 39.37007874015748143 ) ;
#302 = PRESENTATION_STYLE_ASSIGNMENT (( #188 ) ) ;
#303 =( NAMED_UNIT ( * ) SI_UNIT ( $, .STERADIAN. ) SOLID_ANGLE_UNIT ( ) );
#304 = SURFACE_SIDE_STYLE ('',( #227 ) ) ;
#305 = VERTEX_POINT ( 'NONE', #17 ) ;
#306 = AXIS2_PLACEMENT_3D ( 'NONE', #52, #128, #244 ) ;
#307 = EDGE_CURVE ( 'NONE', #183, #89, #368, .T. ) ;
#308 =( LENGTH_UNIT ( ) NAMED_UNIT ( * ) SI_UNIT ( $, .METRE. ) );
#309 = ADVANCED_BREP_SHAPE_REPRESENTATION ( '81937', ( #291, #165, #358 ), #346 ) ;
#310 = PRODUCT ( '81937', '81937', '', ( #177 ) ) ;
#311 = LENGTH_MEASURE_WITH_UNIT ( LENGTH_MEASURE( 0.02539999999999999897 ), #308 );
#312 = ORIENTED_EDGE ( 'NONE', *, *, #352, .T. ) ;
#313 = PRESENTATION_LAYER_ASSIGNMENT (  '', '', ( #211 ) ) ;
#314 = SPHERICAL_SURFACE ( 'NONE', #281, 0.3750000000000001110 ) ;
#315 = DIMENSIONAL_EXPONENTS ( 1.000000000000000000, 0.000000000000000000, 0.000000000000000000, 0.000000000000000000, 0.000000000000000000, 0.000000000000000000, 0.000000000000000000 ) ;
#316 = ADVANCED_FACE ( 'NONE', ( #102 ), #364, .T. ) ;
#317 = APPLICATION_PROTOCOL_DEFINITION ( 'draft international standard', 'automotive_design', 1998, #28 ) ;
#318 = CARTESIAN_POINT ( 'NONE',  ( -4.592425496802576068E-17, 0.3750000000000001110, 0.000000000000000000 ) ) ;
#319 = EDGE_LOOP ( 'NONE', ( #112, #199, #84, #236 ) ) ;
#320 = ADVANCED_FACE ( 'NONE', ( #190 ), #241, .F. ) ;
#321 = AXIS2_PLACEMENT_3D ( 'NONE', #233, #347, #152 ) ;
#322 = SURFACE_STYLE_USAGE ( .BOTH. , #354 ) ;
#323 = DIRECTION ( 'NONE',  ( 1.000000000000000000, 0.000000000000000000, 0.000000000000000000 ) ) ;
#324 =( CONVERSION_BASED_UNIT ( 'INCH', #267 ) LENGTH_UNIT ( ) NAMED_UNIT ( #253 ) );
#325 = VERTEX_POINT ( 'NONE', #163 ) ;
#326 = CARTESIAN_POINT ( 'NONE',  ( -4.592425496802576068E-17, 0.3750000000000001110, 0.000000000000000000 ) ) ;
#327 = CARTESIAN_POINT ( 'NONE',  ( 4.592425496802573602E-17, 0.000000000000000000, 0.3749999999999999445 ) ) ;
#328 = AXIS2_PLACEMENT_3D ( 'NONE', #133, #248, #197 ) ;
#329 = SURFACE_SIDE_STYLE ('',( #100 ) ) ;
#330 = DIRECTION ( 'NONE',  ( 0.000000000000000000, 0.000000000000000000, -1.000000000000000000 ) ) ;
#331 = PLANE ( 'NONE',  #328 ) ;
#332 =( CONVERSION_BASED_UNIT ( 'INCH', #50 ) LENGTH_UNIT ( ) NAMED_UNIT ( #315 ) );
#333 = LENGTH_MEASURE_WITH_UNIT ( LENGTH_MEASURE( 0.02539999999999999897 ), #46 );
#334 = STYLED_ITEM ( 'NONE', ( #158 ), #192 ) ;
#335 = DIRECTION ( 'NONE',  ( -1.224646799147353207E-16, 1.000000000000000000, -0.000000000000000000 ) ) ;
#336 = EDGE_CURVE ( 'NONE', #96, #70, #143, .T. ) ;
#337 = DIMENSIONAL_EXPONENTS ( 1.000000000000000000, 0.000000000000000000, 0.000000000000000000, 0.000000000000000000, 0.000000000000000000, 0.000000000000000000, 0.000000000000000000 ) ;
#338 = CIRCLE ( 'NONE', #321, 0.3749999999999999445 ) ;
#339 = ORIENTED_EDGE ( 'NONE', *, *, #166, .F. ) ;
#340 = EDGE_LOOP ( 'NONE', ( #210, #16 ) ) ;
#341 = DIMENSIONAL_EXPONENTS ( 1.000000000000000000, 0.000000000000000000, 0.000000000000000000, 0.000000000000000000, 0.000000000000000000, 0.000000000000000000, 0.000000000000000000 ) ;
#342 =( CONVERSION_BASED_UNIT ( 'INCH', #212 ) LENGTH_UNIT ( ) NAMED_UNIT ( #341 ) );
#343 =( GEOMETRIC_REPRESENTATION_CONTEXT ( 3 ) GLOBAL_UNCERTAINTY_ASSIGNED_CONTEXT ( ( #351 ) ) GLOBAL_UNIT_ASSIGNED_CONTEXT ( ( #324, #94, #15 ) ) REPRESENTATION_CONTEXT ( 'NONE', 'WORKASPACE' ) );
#344 = CARTESIAN_POINT ( 'NONE',  ( 0.000000000000000000, 0.3750000000000001665, 0.000000000000000000 ) ) ;
#345 = DIMENSIONAL_EXPONENTS ( 1.000000000000000000, 0.000000000000000000, 0.000000000000000000, 0.000000000000000000, 0.000000000000000000, 0.000000000000000000, 0.000000000000000000 ) ;
#346 =( GEOMETRIC_REPRESENTATION_CONTEXT ( 3 ) GLOBAL_UNCERTAINTY_ASSIGNED_CONTEXT ( ( #171 ) ) GLOBAL_UNIT_ASSIGNED_CONTEXT ( ( #287, #174, #120 ) ) REPRESENTATION_CONTEXT ( 'NONE', 'WORKASPACE' ) );
#347 = DIRECTION ( 'NONE',  ( -1.224646799147353207E-16, 1.000000000000000000, -0.000000000000000000 ) ) ;
#348 =( LENGTH_UNIT ( ) NAMED_UNIT ( * ) SI_UNIT ( $, .METRE. ) );
#349 = DIRECTION ( 'NONE',  ( 0.000000000000000000, 0.000000000000000000, 1.000000000000000000 ) ) ;
#350 = FILL_AREA_STYLE ('',( #12 ) ) ;
#351 = UNCERTAINTY_MEASURE_WITH_UNIT (LENGTH_MEASURE( 1.000000000000000082E-05 ), #324, 'distance_accuracy_value', 'NONE');
#352 = EDGE_CURVE ( 'NONE', #95, #67, #137, .T. ) ;
#353 = DIRECTION ( 'NONE',  ( 1.000000000000000000, 0.000000000000000000, 0.000000000000000000 ) ) ;
#354 = SURFACE_SIDE_STYLE ('',( #294 ) ) ;
#355 = DIRECTION ( 'NONE',  ( 0.000000000000000000, 0.000000000000000000, 1.000000000000000000 ) ) ;
#356 = COLOUR_RGB ( '',1.000000000000000000, 0.000000000000000000, 0.000000000000000000 ) ;
#357 =( LENGTH_UNIT ( ) NAMED_UNIT ( * ) SI_UNIT ( $, .METRE. ) );
#358 = AXIS2_PLACEMENT_3D ( 'NONE', #116, #349, #353 ) ;
#359 = ORIENTED_EDGE ( 'NONE', *, *, #247, .F. ) ;
#360 = DIRECTION ( 'NONE',  ( -0.000000000000000000, -1.000000000000000000, -0.000000000000000000 ) ) ;
#361 = EDGE_CURVE ( 'NONE', #89, #95, #106, .T. ) ;
#362 = ORIENTED_EDGE ( 'NONE', *, *, #352, .F. ) ;
#363 = CARTESIAN_POINT ( 'NONE',  ( 0.000000000000000000, 0.3750000000000001665, -0.3750000000000000555 ) ) ;
#364 = CYLINDRICAL_SURFACE ( 'NONE', #367, 0.3749999999999999445 ) ;
#365 = AXIS2_PLACEMENT_3D ( 'NONE', #299, #276, #21 ) ;
#366 = CARTESIAN_POINT ( 'NONE',  ( 0.3750000000000000555, 0.3750000000000001665, 0.000000000000000000 ) ) ;
#367 = AXIS2_PLACEMENT_3D ( 'NONE', #81, #220, #330 ) ;
#368 = LINE ( 'NONE', #327, #301 ) ;
#369 =( NAMED_UNIT ( * ) PLANE_ANGLE_UNIT ( ) SI_UNIT ( $, .RADIAN. ) );
#370 = PRODUCT_DEFINITION_SHAPE ( 'NONE', 'NONE',  #59 ) ;
#371 = DIRECTION ( 'NONE',  ( -0.000000000000000000, -1.000000000000000000, -0.000000000000000000 ) ) ;
#372 = AXIS2_PLACEMENT_3D ( 'NONE', #185, #82, #300 ) ;
#373 = CARTESIAN_POINT ( 'NONE',  ( -1.224646799147352714E-16, 4.000000000000000000, 0.000000000000000000 ) ) ;
ENDSEC;
END-ISO-10303-21;
