ISO-10303-21;
HEADER;
FILE_DESCRIPTION (( 'STEP AP214' ),
    '1' );
FILE_NAME ('26257.STEP',
    '2023-06-22T17:34:15',
    ( '' ),
    ( '' ),
    'SwSTEP 2.0',
    'SolidWorks 2023',
    '' );
FILE_SCHEMA (( 'AUTOMOTIVE_DESIGN' ));
ENDSEC;

DATA;
#1 = EDGE_LOOP ( 'NONE', ( #113, #280, #130, #239 ) ) ;
#2 = DIRECTION ( 'NONE',  ( 6.531449595452550356E-17, 1.000000000000000000, -0.000000000000000000 ) ) ;
#3 =( NAMED_UNIT ( * ) SI_UNIT ( $, .STERADIAN. ) SOLID_ANGLE_UNIT ( ) );
#4 = COLOUR_RGB ( '',1.000000000000000000, 0.000000000000000000, 0.000000000000000000 ) ;
#5 = AXIS2_PLACEMENT_3D ( 'NONE', #63, #83, #235 ) ;
#6 = CARTESIAN_POINT ( 'NONE',  ( -0.2499999999999997502, 2.500000000000000000, 0.000000000000000000 ) ) ;
#7 = LINE ( 'NONE', #201, #69 ) ;
#8 = CARTESIAN_POINT ( 'NONE',  ( 5.332479227242161011E-34, 0.6250000000000000000, 0.000000000000000000 ) ) ;
#9 =( NAMED_UNIT ( * ) PLANE_ANGLE_UNIT ( ) SI_UNIT ( $, .RADIAN. ) );
#10 = DIRECTION ( 'NONE',  ( -0.000000000000000000, -1.000000000000000000, -0.000000000000000000 ) ) ;
#11 =( CONVERSION_BASED_UNIT ( 'INCH', #180 ) LENGTH_UNIT ( ) NAMED_UNIT ( #145 ) );
#12 = VERTEX_POINT ( 'NONE', #294 ) ;
#13 = SURFACE_STYLE_USAGE ( .BOTH. , #229 ) ;
#14 = EDGE_LOOP ( 'NONE', ( #255, #132 ) ) ;
#15 = LINE ( 'NONE', #301, #65 ) ;
#16 = PRESENTATION_LAYER_ASSIGNMENT (  '', '', ( #277 ) ) ;
#17 = LENGTH_MEASURE_WITH_UNIT ( LENGTH_MEASURE( 0.02539999999999999897 ), #49 );
#18 = AXIS2_PLACEMENT_3D ( 'NONE', #54, #10, #203 ) ;
#19 = CARTESIAN_POINT ( 'NONE',  ( 0.000000000000000000, 0.000000000000000000, 0.000000000000000000 ) ) ;
#20 = PRODUCT_DEFINITION_CONTEXT ( 'detailed design', #192, 'design' ) ;
#21 = ORIENTED_EDGE ( 'NONE', *, *, #308, .F. ) ;
#22 = SURFACE_SIDE_STYLE ('',( #34 ) ) ;
#23 = ADVANCED_FACE ( 'NONE', ( #68 ), #245, .T. ) ;
#24 = CARTESIAN_POINT ( 'NONE',  ( 0.2500000000000000555, 2.500000000000000000, 0.000000000000000000 ) ) ;
#25 =( LENGTH_UNIT ( ) NAMED_UNIT ( * ) SI_UNIT ( $, .METRE. ) );
#26 = SURFACE_SIDE_STYLE ('',( #212 ) ) ;
#27 = LINE ( 'NONE', #221, #81 ) ;
#28 = DIRECTION ( 'NONE',  ( 6.531449595452550356E-17, 1.000000000000000000, -0.000000000000000000 ) ) ;
#29 = EDGE_CURVE ( 'NONE', #77, #211, #222, .T. ) ;
#30 = CARTESIAN_POINT ( 'NONE',  ( 0.000000000000000000, 0.000000000000000000, 0.000000000000000000 ) ) ;
#31 = COLOUR_RGB ( '',0.7921568627450980005, 0.8196078431372548767, 0.9333333333333333481 ) ;
#32 =( LENGTH_UNIT ( ) NAMED_UNIT ( * ) SI_UNIT ( $, .METRE. ) );
#33 =( NAMED_UNIT ( * ) PLANE_ANGLE_UNIT ( ) SI_UNIT ( $, .RADIAN. ) );
#34 = SURFACE_STYLE_FILL_AREA ( #175 ) ;
#35 = CIRCLE ( 'NONE', #88, 0.2499999999999998890 ) ;
#36 = CARTESIAN_POINT ( 'NONE',  ( 1.224646799147353207E-16, 2.500000000000000000, 0.000000000000000000 ) ) ;
#37 = VERTEX_POINT ( 'NONE', #270 ) ;
#38 = APPLICATION_PROTOCOL_DEFINITION ( 'draft international standard', 'automotive_design', 1998, #192 ) ;
#39 = ADVANCED_FACE ( 'NONE', ( #52 ), #118, .F. ) ;
#40 =( GEOMETRIC_REPRESENTATION_CONTEXT ( 3 ) GLOBAL_UNCERTAINTY_ASSIGNED_CONTEXT ( ( #102 ) ) GLOBAL_UNIT_ASSIGNED_CONTEXT ( ( #96, #146, #287 ) ) REPRESENTATION_CONTEXT ( 'NONE', 'WORKASPACE' ) );
#41 = CARTESIAN_POINT ( 'NONE',  ( 0.000000000000000000, 0.000000000000000000, 0.000000000000000000 ) ) ;
#42 = ORIENTED_EDGE ( 'NONE', *, *, #84, .F. ) ;
#43 = COLOUR_RGB ( '',1.000000000000000000, 0.000000000000000000, 0.000000000000000000 ) ;
#44 = SURFACE_SIDE_STYLE ('',( #223 ) ) ;
#45 =( CONVERSION_BASED_UNIT ( 'INCH', #17 ) LENGTH_UNIT ( ) NAMED_UNIT ( #177 ) );
#46 = UNCERTAINTY_MEASURE_WITH_UNIT (LENGTH_MEASURE( 1.000000000000000082E-05 ), #238, 'distance_accuracy_value', 'NONE');
#47 = EDGE_LOOP ( 'NONE', ( #61, #257 ) ) ;
#48 = FILL_AREA_STYLE ('',( #291 ) ) ;
#49 =( LENGTH_UNIT ( ) NAMED_UNIT ( * ) SI_UNIT ( $, .METRE. ) );
#50 = ADVANCED_FACE ( 'NONE', ( #170 ), #110, .F. ) ;
#51 = SURFACE_STYLE_USAGE ( .BOTH. , #44 ) ;
#52 = FACE_OUTER_BOUND ( 'NONE', #155, .T. ) ;
#53 = AXIS2_PLACEMENT_3D ( 'NONE', #41, #286, #161 ) ;
#54 = CARTESIAN_POINT ( 'NONE',  ( 0.000000000000000000, 0.6250000000000000000, 0.000000000000000000 ) ) ;
#55 = FACE_OUTER_BOUND ( 'NONE', #306, .T. ) ;
#56 = EDGE_CURVE ( 'NONE', #37, #241, #35, .T. ) ;
#57 = STYLED_ITEM ( 'NONE', ( #95 ), #23 ) ;
#58 = ORIENTED_EDGE ( 'NONE', *, *, #56, .T. ) ;
#59 =( LENGTH_UNIT ( ) NAMED_UNIT ( * ) SI_UNIT ( $, .METRE. ) );
#60 = CIRCLE ( 'NONE', #295, 0.2500000000000000555 ) ;
#61 = ORIENTED_EDGE ( 'NONE', *, *, #135, .T. ) ;
#62 = SURFACE_STYLE_FILL_AREA ( #284 ) ;
#63 = CARTESIAN_POINT ( 'NONE',  ( 0.000000000000000000, 0.6250000000000000000, 0.000000000000000000 ) ) ;
#64 = DIRECTION ( 'NONE',  ( -0.000000000000000000, -1.000000000000000000, -0.000000000000000000 ) ) ;
#65 = VECTOR ( 'NONE', #141, 39.37007874015748143 ) ;
#66 = UNCERTAINTY_MEASURE_WITH_UNIT (LENGTH_MEASURE( 1.000000000000000082E-05 ), #11, 'distance_accuracy_value', 'NONE');
#67 = CARTESIAN_POINT ( 'NONE',  ( 0.2500000000000001110, 2.500000000000000000, 3.061616997868382402E-17 ) ) ;
#68 = FACE_OUTER_BOUND ( 'NONE', #47, .T. ) ;
#69 = VECTOR ( 'NONE', #264, 39.37007874015748143 ) ;
#70 = DIRECTION ( 'NONE',  ( -1.000000000000000000, 0.000000000000000000, 0.000000000000000000 ) ) ;
#71 = EDGE_CURVE ( 'NONE', #252, #12, #142, .T. ) ;
#72 = PRESENTATION_STYLE_ASSIGNMENT (( #216 ) ) ;
#73 = MANIFOLD_SOLID_BREP ( 'Revolve - Cutting Edge', #272 ) ;
#74 = AXIS2_PLACEMENT_3D ( 'NONE', #24, #225, #237 ) ;
#75 = AXIS2_PLACEMENT_3D ( 'NONE', #8, #2, #91 ) ;
#76 = PRESENTATION_STYLE_ASSIGNMENT (( #104 ) ) ;
#77 = VERTEX_POINT ( 'NONE', #178 ) ;
#78 = AXIS2_PLACEMENT_3D ( 'NONE', #36, #124, #149 ) ;
#79 = EDGE_LOOP ( 'NONE', ( #126, #139, #207, #106 ) ) ;
#80 = CARTESIAN_POINT ( 'NONE',  ( 1.224646799147353207E-16, 2.500000000000000000, 0.000000000000000000 ) ) ;
#81 = VECTOR ( 'NONE', #196, 39.37007874015748143 ) ;
#82 = CARTESIAN_POINT ( 'NONE',  ( 0.000000000000000000, 0.000000000000000000, 0.000000000000000000 ) ) ;
#83 = DIRECTION ( 'NONE',  ( 0.000000000000000000, 1.000000000000000000, 0.000000000000000000 ) ) ;
#84 = EDGE_CURVE ( 'NONE', #241, #37, #97, .T. ) ;
#85 = DIRECTION ( 'NONE',  ( -0.000000000000000000, -1.000000000000000000, -0.000000000000000000 ) ) ;
#86 = CARTESIAN_POINT ( 'NONE',  ( 0.000000000000000000, 0.6250000000000000000, 0.000000000000000000 ) ) ;
#87 = PRESENTATION_LAYER_ASSIGNMENT (  '', '', ( #197 ) ) ;
#88 = AXIS2_PLACEMENT_3D ( 'NONE', #80, #271, #193 ) ;
#89 =( NAMED_UNIT ( * ) PLANE_ANGLE_UNIT ( ) SI_UNIT ( $, .RADIAN. ) );
#90 = DIRECTION ( 'NONE',  ( 6.531449595452550356E-17, 1.000000000000000000, -0.000000000000000000 ) ) ;
#91 = DIRECTION ( 'NONE',  ( -1.000000000000000000, 6.531449595452550356E-17, 0.000000000000000000 ) ) ;
#92 = DIMENSIONAL_EXPONENTS ( 1.000000000000000000, 0.000000000000000000, 0.000000000000000000, 0.000000000000000000, 0.000000000000000000, 0.000000000000000000, 0.000000000000000000 ) ;
#93 = CARTESIAN_POINT ( 'NONE',  ( 0.000000000000000000, 0.000000000000000000, 0.000000000000000000 ) ) ;
#94 = MECHANICAL_DESIGN_GEOMETRIC_PRESENTATION_REPRESENTATION (  '', ( #277 ), #183 ) ;
#95 = PRESENTATION_STYLE_ASSIGNMENT (( #168 ) ) ;
#96 =( CONVERSION_BASED_UNIT ( 'INCH', #278 ) LENGTH_UNIT ( ) NAMED_UNIT ( #143 ) );
#97 = CIRCLE ( 'NONE', #172, 0.2499999999999998890 ) ;
#98 =( NAMED_UNIT ( * ) SI_UNIT ( $, .STERADIAN. ) SOLID_ANGLE_UNIT ( ) );
#99 = UNCERTAINTY_MEASURE_WITH_UNIT (LENGTH_MEASURE( 1.000000000000000082E-05 ), #167, 'distance_accuracy_value', 'NONE');
#100 = AXIS2_PLACEMENT_3D ( 'NONE', #82, #85, #296 ) ;
#101 = ORIENTED_EDGE ( 'NONE', *, *, #165, .F. ) ;
#102 = UNCERTAINTY_MEASURE_WITH_UNIT (LENGTH_MEASURE( 1.000000000000000082E-05 ), #96, 'distance_accuracy_value', 'NONE');
#103 = SURFACE_STYLE_FILL_AREA ( #249 ) ;
#104 = SURFACE_STYLE_USAGE ( .BOTH. , #218 ) ;
#105 = AXIS2_PLACEMENT_3D ( 'NONE', #186, #282, #244 ) ;
#106 = ORIENTED_EDGE ( 'NONE', *, *, #242, .F. ) ;
#107 = EDGE_LOOP ( 'NONE', ( #182, #101 ) ) ;
#108 = PRESENTATION_LAYER_ASSIGNMENT (  '', '', ( #127 ) ) ;
#109 = PRODUCT_DEFINITION ( 'UNKNOWN', '', #219, #20 ) ;
#110 = PLANE ( 'NONE',  #75 ) ;
#111 = LENGTH_MEASURE_WITH_UNIT ( LENGTH_MEASURE( 0.02539999999999999897 ), #25 );
#112 = CYLINDRICAL_SURFACE ( 'NONE', #176, 0.2500000000000000000 ) ;
#113 = ORIENTED_EDGE ( 'NONE', *, *, #205, .F. ) ;
#114 = AXIS2_PLACEMENT_3D ( 'NONE', #133, #240, #70 ) ;
#115 = CARTESIAN_POINT ( 'NONE',  ( 0.000000000000000000, 0.000000000000000000, -0.2500000000000000000 ) ) ;
#116 = DIRECTION ( 'NONE',  ( 0.000000000000000000, 0.000000000000000000, -1.000000000000000000 ) ) ;
#117 =( NAMED_UNIT ( * ) PLANE_ANGLE_UNIT ( ) SI_UNIT ( $, .RADIAN. ) );
#118 = PLANE ( 'NONE',  #74 ) ;
#119 = DIMENSIONAL_EXPONENTS ( 1.000000000000000000, 0.000000000000000000, 0.000000000000000000, 0.000000000000000000, 0.000000000000000000, 0.000000000000000000, 0.000000000000000000 ) ;
#120 = FACE_OUTER_BOUND ( 'NONE', #150, .T. ) ;
#121 = AXIS2_PLACEMENT_3D ( 'NONE', #19, #231, #307 ) ;
#122 = COLOUR_RGB ( '',1.000000000000000000, 0.000000000000000000, 0.000000000000000000 ) ;
#123 = AXIS2_PLACEMENT_3D ( 'NONE', #194, #64, #116 ) ;
#124 = DIRECTION ( 'NONE',  ( 6.531449595452550356E-17, 1.000000000000000000, -0.000000000000000000 ) ) ;
#125 = ADVANCED_FACE ( 'NONE', ( #55 ), #251, .T. ) ;
#126 = ORIENTED_EDGE ( 'NONE', *, *, #140, .F. ) ;
#127 = STYLED_ITEM ( 'NONE', ( #144 ), #73 ) ;
#128 = ORIENTED_EDGE ( 'NONE', *, *, #71, .T. ) ;
#129 =( NAMED_UNIT ( * ) SI_UNIT ( $, .STERADIAN. ) SOLID_ANGLE_UNIT ( ) );
#130 = ORIENTED_EDGE ( 'NONE', *, *, #308, .T. ) ;
#131 = CIRCLE ( 'NONE', #53, 0.2500000000000000000 ) ;
#132 = ORIENTED_EDGE ( 'NONE', *, *, #262, .F. ) ;
#133 = CARTESIAN_POINT ( 'NONE',  ( 0.000000000000000000, 0.6250000000000000000, 0.000000000000000000 ) ) ;
#134 = PRESENTATION_STYLE_ASSIGNMENT (( #51 ) ) ;
#135 = EDGE_CURVE ( 'NONE', #198, #246, #131, .T. ) ;
#136 = FILL_AREA_STYLE ('',( #263 ) ) ;
#137 = CARTESIAN_POINT ( 'NONE',  ( 1.224646799147353207E-16, 2.500000000000000000, 0.000000000000000000 ) ) ;
#138 = MECHANICAL_DESIGN_GEOMETRIC_PRESENTATION_REPRESENTATION (  '', ( #57 ), #213 ) ;
#139 = ORIENTED_EDGE ( 'NONE', *, *, #262, .T. ) ;
#140 = EDGE_CURVE ( 'NONE', #12, #246, #7, .T. ) ;
#141 = DIRECTION ( 'NONE',  ( 6.531449595452550356E-17, 1.000000000000000000, -0.000000000000000000 ) ) ;
#142 = CIRCLE ( 'NONE', #18, 0.2500000000000000555 ) ;
#143 = DIMENSIONAL_EXPONENTS ( 1.000000000000000000, 0.000000000000000000, 0.000000000000000000, 0.000000000000000000, 0.000000000000000000, 0.000000000000000000, 0.000000000000000000 ) ;
#144 = PRESENTATION_STYLE_ASSIGNMENT (( #13 ) ) ;
#145 = DIMENSIONAL_EXPONENTS ( 1.000000000000000000, 0.000000000000000000, 0.000000000000000000, 0.000000000000000000, 0.000000000000000000, 0.000000000000000000, 0.000000000000000000 ) ;
#146 =( NAMED_UNIT ( * ) PLANE_ANGLE_UNIT ( ) SI_UNIT ( $, .RADIAN. ) );
#147 =( NAMED_UNIT ( * ) PLANE_ANGLE_UNIT ( ) SI_UNIT ( $, .RADIAN. ) );
#148 = PRESENTATION_LAYER_ASSIGNMENT (  '', '', ( #279 ) ) ;
#149 = DIRECTION ( 'NONE',  ( -1.000000000000000000, 0.000000000000000000, 0.000000000000000000 ) ) ;
#150 = EDGE_LOOP ( 'NONE', ( #128, #152, #283, #181 ) ) ;
#151 = APPLICATION_CONTEXT ( 'automotive_design' ) ;
#152 = ORIENTED_EDGE ( 'NONE', *, *, #140, .T. ) ;
#153 = DIRECTION ( 'NONE',  ( -0.000000000000000000, -1.000000000000000000, -0.000000000000000000 ) ) ;
#154 = AXIS2_PLACEMENT_3D ( 'NONE', #137, #28, #299 ) ;
#155 = EDGE_LOOP ( 'NONE', ( #190, #58 ) ) ;
#156 = EDGE_CURVE ( 'NONE', #252, #198, #27, .T. ) ;
#157 = UNCERTAINTY_MEASURE_WITH_UNIT (LENGTH_MEASURE( 1.000000000000000082E-05 ), #45, 'distance_accuracy_value', 'NONE');
#158 =( LENGTH_UNIT ( ) NAMED_UNIT ( * ) SI_UNIT ( $, .METRE. ) );
#159 = MECHANICAL_DESIGN_GEOMETRIC_PRESENTATION_REPRESENTATION (  '', ( #309 ), #304 ) ;
#160 = SURFACE_STYLE_USAGE ( .BOTH. , #289 ) ;
#161 = DIRECTION ( 'NONE',  ( 0.000000000000000000, 0.000000000000000000, -1.000000000000000000 ) ) ;
#162 = CARTESIAN_POINT ( 'NONE',  ( 0.000000000000000000, 0.6250000000000000000, -0.2500000000000000555 ) ) ;
#163 = DIRECTION ( 'NONE',  ( 6.531449595452550356E-17, 1.000000000000000000, -0.000000000000000000 ) ) ;
#164 = COLOUR_RGB ( '',0.7921568627450980005, 0.8196078431372548767, 0.9333333333333333481 ) ;
#165 = EDGE_CURVE ( 'NONE', #211, #77, #60, .T. ) ;
#166 = FACE_OUTER_BOUND ( 'NONE', #14, .T. ) ;
#167 =( CONVERSION_BASED_UNIT ( 'INCH', #273 ) LENGTH_UNIT ( ) NAMED_UNIT ( #228 ) );
#168 = SURFACE_STYLE_USAGE ( .BOTH. , #22 ) ;
#169 = CYLINDRICAL_SURFACE ( 'NONE', #154, 0.2499999999999999722 ) ;
#170 = FACE_OUTER_BOUND ( 'NONE', #107, .T. ) ;
#171 = ADVANCED_FACE ( 'NONE', ( #269 ), #169, .T. ) ;
#172 = AXIS2_PLACEMENT_3D ( 'NONE', #302, #276, #206 ) ;
#173 = CARTESIAN_POINT ( 'NONE',  ( 0.2500000000000000555, 0.6250000000000000000, 3.061616997868383634E-17 ) ) ;
#174 = PRODUCT ( '26257', '26257', '', ( #254 ) ) ;
#175 = FILL_AREA_STYLE ('',( #266 ) ) ;
#176 = AXIS2_PLACEMENT_3D ( 'NONE', #93, #153, #202 ) ;
#177 = DIMENSIONAL_EXPONENTS ( 1.000000000000000000, 0.000000000000000000, 0.000000000000000000, 0.000000000000000000, 0.000000000000000000, 0.000000000000000000, 0.000000000000000000 ) ;
#178 = CARTESIAN_POINT ( 'NONE',  ( -0.2500000000000000555, 0.6250000000000000000, 0.000000000000000000 ) ) ;
#179 =( GEOMETRIC_REPRESENTATION_CONTEXT ( 3 ) GLOBAL_UNCERTAINTY_ASSIGNED_CONTEXT ( ( #209 ) ) GLOBAL_UNIT_ASSIGNED_CONTEXT ( ( #220, #117, #3 ) ) REPRESENTATION_CONTEXT ( 'NONE', 'WORKASPACE' ) );
#180 = LENGTH_MEASURE_WITH_UNIT ( LENGTH_MEASURE( 0.02539999999999999897 ), #274 );
#181 = ORIENTED_EDGE ( 'NONE', *, *, #156, .F. ) ;
#182 = ORIENTED_EDGE ( 'NONE', *, *, #29, .F. ) ;
#183 =( GEOMETRIC_REPRESENTATION_CONTEXT ( 3 ) GLOBAL_UNCERTAINTY_ASSIGNED_CONTEXT ( ( #99 ) ) GLOBAL_UNIT_ASSIGNED_CONTEXT ( ( #167, #89, #268 ) ) REPRESENTATION_CONTEXT ( 'NONE', 'WORKASPACE' ) );
#184 = MECHANICAL_DESIGN_GEOMETRIC_PRESENTATION_REPRESENTATION (  '', ( #279 ), #179 ) ;
#185 = ORIENTED_EDGE ( 'NONE', *, *, #29, .T. ) ;
#186 = CARTESIAN_POINT ( 'NONE',  ( 0.000000000000000000, 0.6250000000000000000, 0.000000000000000000 ) ) ;
#187 = PLANE ( 'NONE',  #5 ) ;
#188 = UNCERTAINTY_MEASURE_WITH_UNIT (LENGTH_MEASURE( 1.000000000000000082E-05 ), #248, 'distance_accuracy_value', 'NONE');
#189 =( GEOMETRIC_REPRESENTATION_CONTEXT ( 3 ) GLOBAL_UNCERTAINTY_ASSIGNED_CONTEXT ( ( #188 ) ) GLOBAL_UNIT_ASSIGNED_CONTEXT ( ( #248, #9, #98 ) ) REPRESENTATION_CONTEXT ( 'NONE', 'WORKASPACE' ) );
#190 = ORIENTED_EDGE ( 'NONE', *, *, #84, .T. ) ;
#191 = MECHANICAL_DESIGN_GEOMETRIC_PRESENTATION_REPRESENTATION (  '', ( #127 ), #275 ) ;
#192 = APPLICATION_CONTEXT ( 'automotive_design' ) ;
#193 = DIRECTION ( 'NONE',  ( -1.000000000000000000, 0.000000000000000000, 0.000000000000000000 ) ) ;
#194 = CARTESIAN_POINT ( 'NONE',  ( 0.000000000000000000, 0.000000000000000000, 0.000000000000000000 ) ) ;
#195 = CARTESIAN_POINT ( 'NONE',  ( 3.061616997868383018E-17, 0.000000000000000000, 0.2500000000000000000 ) ) ;
#196 = DIRECTION ( 'NONE',  ( -0.000000000000000000, -1.000000000000000000, -0.000000000000000000 ) ) ;
#197 = STYLED_ITEM ( 'NONE', ( #76 ), #303 ) ;
#198 = VERTEX_POINT ( 'NONE', #115 ) ;
#199 = CYLINDRICAL_SURFACE ( 'NONE', #123, 0.2500000000000000000 ) ;
#200 =( LENGTH_UNIT ( ) NAMED_UNIT ( * ) SI_UNIT ( $, .METRE. ) );
#201 = CARTESIAN_POINT ( 'NONE',  ( 3.061616997868383018E-17, 0.000000000000000000, 0.2500000000000000000 ) ) ;
#202 = DIRECTION ( 'NONE',  ( 0.000000000000000000, 0.000000000000000000, -1.000000000000000000 ) ) ;
#203 = DIRECTION ( 'NONE',  ( 0.000000000000000000, 0.000000000000000000, -1.000000000000000000 ) ) ;
#204 = VECTOR ( 'NONE', #163, 39.37007874015748143 ) ;
#205 = EDGE_CURVE ( 'NONE', #211, #37, #293, .T. ) ;
#206 = DIRECTION ( 'NONE',  ( -1.000000000000000000, 0.000000000000000000, 0.000000000000000000 ) ) ;
#207 = ORIENTED_EDGE ( 'NONE', *, *, #156, .T. ) ;
#208 = CLOSED_SHELL ( 'NONE', ( #125, #50, #171, #39 ) ) ;
#209 = UNCERTAINTY_MEASURE_WITH_UNIT (LENGTH_MEASURE( 1.000000000000000082E-05 ), #220, 'distance_accuracy_value', 'NONE');
#210 =( NAMED_UNIT ( * ) SI_UNIT ( $, .STERADIAN. ) SOLID_ANGLE_UNIT ( ) );
#211 = VERTEX_POINT ( 'NONE', #173 ) ;
#212 = SURFACE_STYLE_FILL_AREA ( #136 ) ;
#213 =( GEOMETRIC_REPRESENTATION_CONTEXT ( 3 ) GLOBAL_UNCERTAINTY_ASSIGNED_CONTEXT ( ( #46 ) ) GLOBAL_UNIT_ASSIGNED_CONTEXT ( ( #238, #300, #210 ) ) REPRESENTATION_CONTEXT ( 'NONE', 'WORKASPACE' ) );
#214 = LENGTH_MEASURE_WITH_UNIT ( LENGTH_MEASURE( 0.02539999999999999897 ), #158 );
#215 = FILL_AREA_STYLE ('',( #290 ) ) ;
#216 = SURFACE_STYLE_USAGE ( .BOTH. , #26 ) ;
#217 = PRODUCT_RELATED_PRODUCT_CATEGORY ( 'part', '', ( #174 ) ) ;
#218 = SURFACE_SIDE_STYLE ('',( #243 ) ) ;
#219 = PRODUCT_DEFINITION_FORMATION_WITH_SPECIFIED_SOURCE ( 'ANY', '', #174, .NOT_KNOWN. ) ;
#220 =( CONVERSION_BASED_UNIT ( 'INCH', #111 ) LENGTH_UNIT ( ) NAMED_UNIT ( #227 ) );
#221 = CARTESIAN_POINT ( 'NONE',  ( 0.000000000000000000, 0.000000000000000000, -0.2500000000000000000 ) ) ;
#222 = CIRCLE ( 'NONE', #114, 0.2500000000000000555 ) ;
#223 = SURFACE_STYLE_FILL_AREA ( #215 ) ;
#224 = FACE_OUTER_BOUND ( 'NONE', #79, .T. ) ;
#225 = DIRECTION ( 'NONE',  ( -6.531449595452550356E-17, -1.000000000000000000, 0.000000000000000000 ) ) ;
#226 = DIRECTION ( 'NONE',  ( 0.000000000000000000, -1.000000000000000000, -0.000000000000000000 ) ) ;
#227 = DIMENSIONAL_EXPONENTS ( 1.000000000000000000, 0.000000000000000000, 0.000000000000000000, 0.000000000000000000, 0.000000000000000000, 0.000000000000000000, 0.000000000000000000 ) ;
#228 = DIMENSIONAL_EXPONENTS ( 1.000000000000000000, 0.000000000000000000, 0.000000000000000000, 0.000000000000000000, 0.000000000000000000, 0.000000000000000000, 0.000000000000000000 ) ;
#229 = SURFACE_SIDE_STYLE ('',( #103 ) ) ;
#230 = ORIENTED_EDGE ( 'NONE', *, *, #205, .T. ) ;
#231 = DIRECTION ( 'NONE',  ( 0.000000000000000000, 0.000000000000000000, 1.000000000000000000 ) ) ;
#232 = ADVANCED_FACE ( 'NONE', ( #224 ), #199, .T. ) ;
#233 = LENGTH_MEASURE_WITH_UNIT ( LENGTH_MEASURE( 0.02539999999999999897 ), #59 );
#234 = SHAPE_DEFINITION_REPRESENTATION ( #256, #297 ) ;
#235 = DIRECTION ( 'NONE',  ( 0.000000000000000000, -0.000000000000000000, 1.000000000000000000 ) ) ;
#236 = PRESENTATION_LAYER_ASSIGNMENT (  '', '', ( #57 ) ) ;
#237 = DIRECTION ( 'NONE',  ( 1.000000000000000000, -6.531449595452550356E-17, 0.000000000000000000 ) ) ;
#238 =( CONVERSION_BASED_UNIT ( 'INCH', #214 ) LENGTH_UNIT ( ) NAMED_UNIT ( #92 ) );
#239 = ORIENTED_EDGE ( 'NONE', *, *, #56, .F. ) ;
#240 = DIRECTION ( 'NONE',  ( 6.531449595452550356E-17, 1.000000000000000000, -0.000000000000000000 ) ) ;
#241 = VERTEX_POINT ( 'NONE', #6 ) ;
#242 = EDGE_CURVE ( 'NONE', #246, #198, #247, .T. ) ;
#243 = SURFACE_STYLE_FILL_AREA ( #48 ) ;
#244 = DIRECTION ( 'NONE',  ( 0.000000000000000000, 0.000000000000000000, -1.000000000000000000 ) ) ;
#245 = PLANE ( 'NONE',  #253 ) ;
#246 = VERTEX_POINT ( 'NONE', #195 ) ;
#247 = CIRCLE ( 'NONE', #100, 0.2500000000000000000 ) ;
#248 =( CONVERSION_BASED_UNIT ( 'INCH', #233 ) LENGTH_UNIT ( ) NAMED_UNIT ( #119 ) );
#249 = FILL_AREA_STYLE ('',( #288 ) ) ;
#250 = ADVANCED_FACE ( 'NONE', ( #166 ), #187, .T. ) ;
#251 = CYLINDRICAL_SURFACE ( 'NONE', #78, 0.2499999999999999722 ) ;
#252 = VERTEX_POINT ( 'NONE', #162 ) ;
#253 = AXIS2_PLACEMENT_3D ( 'NONE', #30, #226, #259 ) ;
#254 = PRODUCT_CONTEXT ( 'NONE', #151, 'mechanical' ) ;
#255 = ORIENTED_EDGE ( 'NONE', *, *, #71, .F. ) ;
#256 = PRODUCT_DEFINITION_SHAPE ( 'NONE', 'NONE',  #109 ) ;
#257 = ORIENTED_EDGE ( 'NONE', *, *, #242, .T. ) ;
#258 = PRESENTATION_LAYER_ASSIGNMENT (  '', '', ( #309 ) ) ;
#259 = DIRECTION ( 'NONE',  ( 0.000000000000000000, 0.000000000000000000, -1.000000000000000000 ) ) ;
#260 = CIRCLE ( 'NONE', #105, 0.2500000000000000555 ) ;
#261 = FILL_AREA_STYLE_COLOUR ( '', #267 ) ;
#262 = EDGE_CURVE ( 'NONE', #12, #252, #260, .T. ) ;
#263 = FILL_AREA_STYLE_COLOUR ( '', #31 ) ;
#264 = DIRECTION ( 'NONE',  ( -0.000000000000000000, -1.000000000000000000, -0.000000000000000000 ) ) ;
#265 = MECHANICAL_DESIGN_GEOMETRIC_PRESENTATION_REPRESENTATION (  '', ( #197 ), #189 ) ;
#266 = FILL_AREA_STYLE_COLOUR ( '', #43 ) ;
#267 = COLOUR_RGB ( '',1.000000000000000000, 0.000000000000000000, 0.000000000000000000 ) ;
#268 =( NAMED_UNIT ( * ) SI_UNIT ( $, .STERADIAN. ) SOLID_ANGLE_UNIT ( ) );
#269 = FACE_OUTER_BOUND ( 'NONE', #1, .T. ) ;
#270 = CARTESIAN_POINT ( 'NONE',  ( 0.2500000000000000555, 2.500000000000000000, 3.061616997868383634E-17 ) ) ;
#271 = DIRECTION ( 'NONE',  ( 6.531449595452550356E-17, 1.000000000000000000, -0.000000000000000000 ) ) ;
#272 = CLOSED_SHELL ( 'NONE', ( #303, #250, #232, #23 ) ) ;
#273 = LENGTH_MEASURE_WITH_UNIT ( LENGTH_MEASURE( 0.02539999999999999897 ), #32 );
#274 =( LENGTH_UNIT ( ) NAMED_UNIT ( * ) SI_UNIT ( $, .METRE. ) );
#275 =( GEOMETRIC_REPRESENTATION_CONTEXT ( 3 ) GLOBAL_UNCERTAINTY_ASSIGNED_CONTEXT ( ( #66 ) ) GLOBAL_UNIT_ASSIGNED_CONTEXT ( ( #11, #33, #305 ) ) REPRESENTATION_CONTEXT ( 'NONE', 'WORKASPACE' ) );
#276 = DIRECTION ( 'NONE',  ( 6.531449595452550356E-17, 1.000000000000000000, -0.000000000000000000 ) ) ;
#277 = STYLED_ITEM ( 'NONE', ( #72 ), #281 ) ;
#278 = LENGTH_MEASURE_WITH_UNIT ( LENGTH_MEASURE( 0.02539999999999999897 ), #200 );
#279 = STYLED_ITEM ( 'NONE', ( #134 ), #232 ) ;
#280 = ORIENTED_EDGE ( 'NONE', *, *, #165, .T. ) ;
#281 = MANIFOLD_SOLID_BREP ( 'Revolve - Tool Body (Straight Shanked)', #208 ) ;
#282 = DIRECTION ( 'NONE',  ( -0.000000000000000000, -1.000000000000000000, -0.000000000000000000 ) ) ;
#283 = ORIENTED_EDGE ( 'NONE', *, *, #135, .F. ) ;
#284 = FILL_AREA_STYLE ('',( #261 ) ) ;
#285 = APPLICATION_PROTOCOL_DEFINITION ( 'draft international standard', 'automotive_design', 1998, #151 ) ;
#286 = DIRECTION ( 'NONE',  ( -0.000000000000000000, -1.000000000000000000, -0.000000000000000000 ) ) ;
#287 =( NAMED_UNIT ( * ) SI_UNIT ( $, .STERADIAN. ) SOLID_ANGLE_UNIT ( ) );
#288 = FILL_AREA_STYLE_COLOUR ( '', #164 ) ;
#289 = SURFACE_SIDE_STYLE ('',( #62 ) ) ;
#290 = FILL_AREA_STYLE_COLOUR ( '', #4 ) ;
#291 = FILL_AREA_STYLE_COLOUR ( '', #122 ) ;
#292 = PRESENTATION_STYLE_ASSIGNMENT (( #160 ) ) ;
#293 = LINE ( 'NONE', #67, #204 ) ;
#294 = CARTESIAN_POINT ( 'NONE',  ( 3.061616997868383634E-17, 0.6250000000000000000, 0.2500000000000000555 ) ) ;
#295 = AXIS2_PLACEMENT_3D ( 'NONE', #86, #90, #298 ) ;
#296 = DIRECTION ( 'NONE',  ( 0.000000000000000000, 0.000000000000000000, -1.000000000000000000 ) ) ;
#297 = ADVANCED_BREP_SHAPE_REPRESENTATION ( '26257', ( #73, #281, #121 ), #40 ) ;
#298 = DIRECTION ( 'NONE',  ( -1.000000000000000000, 0.000000000000000000, 0.000000000000000000 ) ) ;
#299 = DIRECTION ( 'NONE',  ( -1.000000000000000000, 0.000000000000000000, 0.000000000000000000 ) ) ;
#300 =( NAMED_UNIT ( * ) PLANE_ANGLE_UNIT ( ) SI_UNIT ( $, .RADIAN. ) );
#301 = CARTESIAN_POINT ( 'NONE',  ( -0.2499999999999998335, 2.500000000000000000, 0.000000000000000000 ) ) ;
#302 = CARTESIAN_POINT ( 'NONE',  ( 1.224646799147353207E-16, 2.500000000000000000, 0.000000000000000000 ) ) ;
#303 = ADVANCED_FACE ( 'NONE', ( #120 ), #112, .T. ) ;
#304 =( GEOMETRIC_REPRESENTATION_CONTEXT ( 3 ) GLOBAL_UNCERTAINTY_ASSIGNED_CONTEXT ( ( #157 ) ) GLOBAL_UNIT_ASSIGNED_CONTEXT ( ( #45, #147, #129 ) ) REPRESENTATION_CONTEXT ( 'NONE', 'WORKASPACE' ) );
#305 =( NAMED_UNIT ( * ) SI_UNIT ( $, .STERADIAN. ) SOLID_ANGLE_UNIT ( ) );
#306 = EDGE_LOOP ( 'NONE', ( #185, #230, #42, #21 ) ) ;
#307 = DIRECTION ( 'NONE',  ( 1.000000000000000000, 0.000000000000000000, 0.000000000000000000 ) ) ;
#308 = EDGE_CURVE ( 'NONE', #77, #241, #15, .T. ) ;
#309 = STYLED_ITEM ( 'NONE', ( #292 ), #250 ) ;
ENDSEC;
END-ISO-10303-21;
