ISO-10303-21;
HEADER;
FILE_DESCRIPTION (( 'STEP AP214' ),
    '1' );
FILE_NAME ('23290.STEP',
    '2023-06-22T16:46:30',
    ( '' ),
    ( '' ),
    'SwSTEP 2.0',
    'SolidWorks 2023',
    '' );
FILE_SCHEMA (( 'AUTOMOTIVE_DESIGN' ));
ENDSEC;

DATA;
#1 =( LENGTH_UNIT ( ) NAMED_UNIT ( * ) SI_UNIT ( $, .METRE. ) );
#2 = SURFACE_STYLE_FILL_AREA ( #284 ) ;
#3 =( NAMED_UNIT ( * ) SI_UNIT ( $, .STERADIAN. ) SOLID_ANGLE_UNIT ( ) );
#4 = PRODUCT_DEFINITION_SHAPE ( 'NONE', 'NONE',  #161 ) ;
#5 = MECHANICAL_DESIGN_GEOMETRIC_PRESENTATION_REPRESENTATION (  '', ( #142 ), #171 ) ;
#6 = CIRCLE ( 'NONE', #211, 0.3750000000000000555 ) ;
#7 = EDGE_CURVE ( 'NONE', #276, #57, #271, .T. ) ;
#8 = DIRECTION ( 'NONE',  ( -0.000000000000000000, -1.000000000000000000, -0.000000000000000000 ) ) ;
#9 = STYLED_ITEM ( 'NONE', ( #149 ), #91 ) ;
#10 = AXIS2_PLACEMENT_3D ( 'NONE', #28, #181, #270 ) ;
#11 = FACE_OUTER_BOUND ( 'NONE', #255, .T. ) ;
#12 = DIRECTION ( 'NONE',  ( -0.000000000000000000, -1.000000000000000000, -0.000000000000000000 ) ) ;
#13 = VERTEX_POINT ( 'NONE', #223 ) ;
#14 = CARTESIAN_POINT ( 'NONE',  ( 1.224646799147352714E-16, 3.000000000000000444, 0.000000000000000000 ) ) ;
#15 = EDGE_LOOP ( 'NONE', ( #226, #229 ) ) ;
#16 = ORIENTED_EDGE ( 'NONE', *, *, #236, .F. ) ;
#17 = VERTEX_POINT ( 'NONE', #35 ) ;
#18 = CIRCLE ( 'NONE', #107, 0.3750000000000000555 ) ;
#19 =( NAMED_UNIT ( * ) PLANE_ANGLE_UNIT ( ) SI_UNIT ( $, .RADIAN. ) );
#20 = SURFACE_STYLE_USAGE ( .BOTH. , #214 ) ;
#21 = LENGTH_MEASURE_WITH_UNIT ( LENGTH_MEASURE( 0.02539999999999999897 ), #39 );
#22 = SURFACE_SIDE_STYLE ('',( #2 ) ) ;
#23 = PRESENTATION_STYLE_ASSIGNMENT (( #132 ) ) ;
#24 = COLOUR_RGB ( '',1.000000000000000000, 0.000000000000000000, 0.000000000000000000 ) ;
#25 = DIRECTION ( 'NONE',  ( -1.000000000000000000, 6.123233995736763571E-17, 0.000000000000000000 ) ) ;
#26 = SURFACE_STYLE_USAGE ( .BOTH. , #225 ) ;
#27 = ORIENTED_EDGE ( 'NONE', *, *, #260, .F. ) ;
#28 = CARTESIAN_POINT ( 'NONE',  ( 0.3750000000000000555, 3.000000000000000444, 0.000000000000000000 ) ) ;
#29 = ORIENTED_EDGE ( 'NONE', *, *, #265, .T. ) ;
#30 = AXIS2_PLACEMENT_3D ( 'NONE', #56, #12, #162 ) ;
#31 =( NAMED_UNIT ( * ) SI_UNIT ( $, .STERADIAN. ) SOLID_ANGLE_UNIT ( ) );
#32 = EDGE_CURVE ( 'NONE', #17, #278, #123, .T. ) ;
#33 = ORIENTED_EDGE ( 'NONE', *, *, #38, .F. ) ;
#34 =( GEOMETRIC_REPRESENTATION_CONTEXT ( 3 ) GLOBAL_UNCERTAINTY_ASSIGNED_CONTEXT ( ( #287 ) ) GLOBAL_UNIT_ASSIGNED_CONTEXT ( ( #89, #256, #304 ) ) REPRESENTATION_CONTEXT ( 'NONE', 'WORKASPACE' ) );
#35 = CARTESIAN_POINT ( 'NONE',  ( 4.592425496802575451E-17, 0.000000000000000000, 0.3750000000000000555 ) ) ;
#36 = CYLINDRICAL_SURFACE ( 'NONE', #230, 0.3749999999999999445 ) ;
#37 = LENGTH_MEASURE_WITH_UNIT ( LENGTH_MEASURE( 0.02539999999999999897 ), #210 );
#38 = EDGE_CURVE ( 'NONE', #57, #103, #58, .T. ) ;
#39 =( LENGTH_UNIT ( ) NAMED_UNIT ( * ) SI_UNIT ( $, .METRE. ) );
#40 =( NAMED_UNIT ( * ) PLANE_ANGLE_UNIT ( ) SI_UNIT ( $, .RADIAN. ) );
#41 = MECHANICAL_DESIGN_GEOMETRIC_PRESENTATION_REPRESENTATION (  '', ( #9 ), #70 ) ;
#42 = ORIENTED_EDGE ( 'NONE', *, *, #265, .F. ) ;
#43 = DIRECTION ( 'NONE',  ( 0.000000000000000000, 0.000000000000000000, -1.000000000000000000 ) ) ;
#44 = ADVANCED_FACE ( 'NONE', ( #208 ), #36, .T. ) ;
#45 = FILL_AREA_STYLE_COLOUR ( '', #106 ) ;
#46 =( NAMED_UNIT ( * ) SI_UNIT ( $, .STERADIAN. ) SOLID_ANGLE_UNIT ( ) );
#47 = FACE_OUTER_BOUND ( 'NONE', #78, .T. ) ;
#48 = CIRCLE ( 'NONE', #261, 0.3749999999999998890 ) ;
#49 = PRESENTATION_LAYER_ASSIGNMENT (  '', '', ( #290 ) ) ;
#50 = APPLICATION_PROTOCOL_DEFINITION ( 'draft international standard', 'automotive_design', 1998, #267 ) ;
#51 =( NAMED_UNIT ( * ) PLANE_ANGLE_UNIT ( ) SI_UNIT ( $, .RADIAN. ) );
#52 = DIRECTION ( 'NONE',  ( 0.000000000000000000, 0.000000000000000000, 1.000000000000000000 ) ) ;
#53 = DIRECTION ( 'NONE',  ( 0.000000000000000000, 1.000000000000000000, 0.000000000000000000 ) ) ;
#54 = VERTEX_POINT ( 'NONE', #207 ) ;
#55 = LENGTH_MEASURE_WITH_UNIT ( LENGTH_MEASURE( 0.02539999999999999897 ), #77 );
#56 = CARTESIAN_POINT ( 'NONE',  ( 0.000000000000000000, 1.000000000000000000, 0.000000000000000000 ) ) ;
#57 = VERTEX_POINT ( 'NONE', #300 ) ;
#58 = CIRCLE ( 'NONE', #130, 0.3749999999999998890 ) ;
#59 = AXIS2_PLACEMENT_3D ( 'NONE', #285, #52, #264 ) ;
#60 = EDGE_CURVE ( 'NONE', #202, #17, #81, .T. ) ;
#61 = EDGE_LOOP ( 'NONE', ( #170, #134, #16, #193 ) ) ;
#62 = UNCERTAINTY_MEASURE_WITH_UNIT (LENGTH_MEASURE( 1.000000000000000082E-05 ), #145, 'distance_accuracy_value', 'NONE');
#63 = ORIENTED_EDGE ( 'NONE', *, *, #60, .F. ) ;
#64 = CLOSED_SHELL ( 'NONE', ( #44, #240, #227, #251 ) ) ;
#65 = ORIENTED_EDGE ( 'NONE', *, *, #38, .T. ) ;
#66 = SURFACE_SIDE_STYLE ('',( #253 ) ) ;
#67 = DIRECTION ( 'NONE',  ( 0.000000000000000000, 0.000000000000000000, -1.000000000000000000 ) ) ;
#68 = ORIENTED_EDGE ( 'NONE', *, *, #163, .F. ) ;
#69 = LENGTH_MEASURE_WITH_UNIT ( LENGTH_MEASURE( 0.02539999999999999897 ), #110 );
#70 =( GEOMETRIC_REPRESENTATION_CONTEXT ( 3 ) GLOBAL_UNCERTAINTY_ASSIGNED_CONTEXT ( ( #129 ) ) GLOBAL_UNIT_ASSIGNED_CONTEXT ( ( #259, #51, #3 ) ) REPRESENTATION_CONTEXT ( 'NONE', 'WORKASPACE' ) );
#71 = CYLINDRICAL_SURFACE ( 'NONE', #224, 0.3750000000000000555 ) ;
#72 = SURFACE_STYLE_FILL_AREA ( #173 ) ;
#73 = AXIS2_PLACEMENT_3D ( 'NONE', #140, #195, #94 ) ;
#74 = LENGTH_MEASURE_WITH_UNIT ( LENGTH_MEASURE( 0.02539999999999999897 ), #1 );
#75 = MANIFOLD_SOLID_BREP ( 'Revolve - Tool Body (Straight Shanked)', #64 ) ;
#76 = CARTESIAN_POINT ( 'NONE',  ( 4.592425496802575451E-17, 1.000000000000000000, 0.3750000000000000555 ) ) ;
#77 =( LENGTH_UNIT ( ) NAMED_UNIT ( * ) SI_UNIT ( $, .METRE. ) );
#78 = EDGE_LOOP ( 'NONE', ( #144, #27 ) ) ;
#79 =( NAMED_UNIT ( * ) SI_UNIT ( $, .STERADIAN. ) SOLID_ANGLE_UNIT ( ) );
#80 = ORIENTED_EDGE ( 'NONE', *, *, #7, .T. ) ;
#81 = LINE ( 'NONE', #83, #183 ) ;
#82 = EDGE_CURVE ( 'NONE', #276, #54, #206, .T. ) ;
#83 = CARTESIAN_POINT ( 'NONE',  ( 4.592425496802575451E-17, 0.000000000000000000, 0.3750000000000000555 ) ) ;
#84 = DIRECTION ( 'NONE',  ( 0.000000000000000000, -1.000000000000000000, -0.000000000000000000 ) ) ;
#85 = COLOUR_RGB ( '',1.000000000000000000, 0.000000000000000000, 0.000000000000000000 ) ;
#86 = ORIENTED_EDGE ( 'NONE', *, *, #143, .T. ) ;
#87 = DIMENSIONAL_EXPONENTS ( 1.000000000000000000, 0.000000000000000000, 0.000000000000000000, 0.000000000000000000, 0.000000000000000000, 0.000000000000000000, 0.000000000000000000 ) ;
#88 = DIRECTION ( 'NONE',  ( 6.123233995736763571E-17, 1.000000000000000000, -0.000000000000000000 ) ) ;
#89 =( CONVERSION_BASED_UNIT ( 'INCH', #254 ) LENGTH_UNIT ( ) NAMED_UNIT ( #266 ) );
#90 = SURFACE_STYLE_USAGE ( .BOTH. , #139 ) ;
#91 = ADVANCED_FACE ( 'NONE', ( #216 ), #71, .T. ) ;
#92 = AXIS2_PLACEMENT_3D ( 'NONE', #280, #279, #232 ) ;
#93 = SURFACE_STYLE_USAGE ( .BOTH. , #22 ) ;
#94 = DIRECTION ( 'NONE',  ( -1.000000000000000000, 0.000000000000000000, 0.000000000000000000 ) ) ;
#95 = DIRECTION ( 'NONE',  ( -0.000000000000000000, -1.000000000000000000, -0.000000000000000000 ) ) ;
#96 = CIRCLE ( 'NONE', #30, 0.3750000000000000555 ) ;
#97 =( NAMED_UNIT ( * ) PLANE_ANGLE_UNIT ( ) SI_UNIT ( $, .RADIAN. ) );
#98 = FACE_OUTER_BOUND ( 'NONE', #273, .T. ) ;
#99 = DIRECTION ( 'NONE',  ( -1.000000000000000000, 0.000000000000000000, 0.000000000000000000 ) ) ;
#100 = AXIS2_PLACEMENT_3D ( 'NONE', #182, #53, #152 ) ;
#101 = VECTOR ( 'NONE', #213, 39.37007874015748143 ) ;
#102 = MECHANICAL_DESIGN_GEOMETRIC_PRESENTATION_REPRESENTATION (  '', ( #262 ), #131 ) ;
#103 = VERTEX_POINT ( 'NONE', #215 ) ;
#104 =( CONVERSION_BASED_UNIT ( 'INCH', #172 ) LENGTH_UNIT ( ) NAMED_UNIT ( #87 ) );
#105 = CARTESIAN_POINT ( 'NONE',  ( 1.224646799147352714E-16, 3.000000000000000444, 0.000000000000000000 ) ) ;
#106 = COLOUR_RGB ( '',1.000000000000000000, 0.000000000000000000, 0.000000000000000000 ) ;
#107 = AXIS2_PLACEMENT_3D ( 'NONE', #154, #8, #204 ) ;
#108 = DIRECTION ( 'NONE',  ( -1.000000000000000000, 0.000000000000000000, 0.000000000000000000 ) ) ;
#109 = CARTESIAN_POINT ( 'NONE',  ( 0.000000000000000000, 0.000000000000000000, 0.000000000000000000 ) ) ;
#110 =( LENGTH_UNIT ( ) NAMED_UNIT ( * ) SI_UNIT ( $, .METRE. ) );
#111 = SURFACE_STYLE_USAGE ( .BOTH. , #66 ) ;
#112 = SURFACE_STYLE_FILL_AREA ( #166 ) ;
#113 = DIMENSIONAL_EXPONENTS ( 1.000000000000000000, 0.000000000000000000, 0.000000000000000000, 0.000000000000000000, 0.000000000000000000, 0.000000000000000000, 0.000000000000000000 ) ;
#114 = CIRCLE ( 'NONE', #92, 0.3750000000000000555 ) ;
#115 = CARTESIAN_POINT ( 'NONE',  ( 0.3750000000000001110, 3.000000000000000444, 4.592425496802573602E-17 ) ) ;
#116 = DIRECTION ( 'NONE',  ( -0.000000000000000000, -1.000000000000000000, -0.000000000000000000 ) ) ;
#117 = CARTESIAN_POINT ( 'NONE',  ( 0.000000000000000000, 0.000000000000000000, -0.3750000000000000555 ) ) ;
#118 = CARTESIAN_POINT ( 'NONE',  ( 0.000000000000000000, 0.000000000000000000, -0.3750000000000000555 ) ) ;
#119 = EDGE_CURVE ( 'NONE', #13, #202, #114, .T. ) ;
#120 =( NAMED_UNIT ( * ) SI_UNIT ( $, .STERADIAN. ) SOLID_ANGLE_UNIT ( ) );
#121 =( NAMED_UNIT ( * ) PLANE_ANGLE_UNIT ( ) SI_UNIT ( $, .RADIAN. ) );
#122 = ADVANCED_BREP_SHAPE_REPRESENTATION ( '23290', ( #187, #75, #59 ), #308 ) ;
#123 = CIRCLE ( 'NONE', #220, 0.3750000000000000555 ) ;
#124 = PRODUCT_RELATED_PRODUCT_CATEGORY ( 'part', '', ( #306 ) ) ;
#125 = FACE_OUTER_BOUND ( 'NONE', #61, .T. ) ;
#126 = CARTESIAN_POINT ( 'NONE',  ( -0.3749999999999998335, 3.000000000000000444, 0.000000000000000000 ) ) ;
#127 = DIMENSIONAL_EXPONENTS ( 1.000000000000000000, 0.000000000000000000, 0.000000000000000000, 0.000000000000000000, 0.000000000000000000, 0.000000000000000000, 0.000000000000000000 ) ;
#128 = ORIENTED_EDGE ( 'NONE', *, *, #7, .F. ) ;
#129 = UNCERTAINTY_MEASURE_WITH_UNIT (LENGTH_MEASURE( 1.000000000000000082E-05 ), #259, 'distance_accuracy_value', 'NONE');
#130 = AXIS2_PLACEMENT_3D ( 'NONE', #105, #205, #192 ) ;
#131 =( GEOMETRIC_REPRESENTATION_CONTEXT ( 3 ) GLOBAL_UNCERTAINTY_ASSIGNED_CONTEXT ( ( #62 ) ) GLOBAL_UNIT_ASSIGNED_CONTEXT ( ( #145, #19, #46 ) ) REPRESENTATION_CONTEXT ( 'NONE', 'WORKASPACE' ) );
#132 = SURFACE_STYLE_USAGE ( .BOTH. , #237 ) ;
#133 = ORIENTED_EDGE ( 'NONE', *, *, #82, .T. ) ;
#134 = ORIENTED_EDGE ( 'NONE', *, *, #60, .T. ) ;
#135 = UNCERTAINTY_MEASURE_WITH_UNIT (LENGTH_MEASURE( 1.000000000000000082E-05 ), #141, 'distance_accuracy_value', 'NONE');
#136 = PRESENTATION_LAYER_ASSIGNMENT (  '', '', ( #142 ) ) ;
#137 = VECTOR ( 'NONE', #201, 39.37007874015748143 ) ;
#138 = EDGE_LOOP ( 'NONE', ( #249, #65 ) ) ;
#139 = SURFACE_SIDE_STYLE ('',( #112 ) ) ;
#140 = CARTESIAN_POINT ( 'NONE',  ( -3.032960542342103792E-32, 1.000000000000000000, 0.000000000000000000 ) ) ;
#141 =( CONVERSION_BASED_UNIT ( 'INCH', #37 ) LENGTH_UNIT ( ) NAMED_UNIT ( #113 ) );
#142 = STYLED_ITEM ( 'NONE', ( #169 ), #75 ) ;
#143 = EDGE_CURVE ( 'NONE', #13, #278, #146, .T. ) ;
#144 = ORIENTED_EDGE ( 'NONE', *, *, #119, .F. ) ;
#145 =( CONVERSION_BASED_UNIT ( 'INCH', #69 ) LENGTH_UNIT ( ) NAMED_UNIT ( #127 ) );
#146 = LINE ( 'NONE', #118, #179 ) ;
#147 = DIRECTION ( 'NONE',  ( 0.000000000000000000, 0.000000000000000000, -1.000000000000000000 ) ) ;
#148 = COLOUR_RGB ( '',1.000000000000000000, 0.000000000000000000, 0.000000000000000000 ) ;
#149 = PRESENTATION_STYLE_ASSIGNMENT (( #93 ) ) ;
#150 = AXIS2_PLACEMENT_3D ( 'NONE', #239, #203, #25 ) ;
#151 =( LENGTH_UNIT ( ) NAMED_UNIT ( * ) SI_UNIT ( $, .METRE. ) );
#152 = DIRECTION ( 'NONE',  ( 0.000000000000000000, -0.000000000000000000, 1.000000000000000000 ) ) ;
#153 = ADVANCED_FACE ( 'NONE', ( #47 ), #233, .T. ) ;
#154 = CARTESIAN_POINT ( 'NONE',  ( 0.000000000000000000, 0.000000000000000000, 0.000000000000000000 ) ) ;
#155 = PRESENTATION_LAYER_ASSIGNMENT (  '', '', ( #9 ) ) ;
#156 = PRESENTATION_LAYER_ASSIGNMENT (  '', '', ( #262 ) ) ;
#157 = UNCERTAINTY_MEASURE_WITH_UNIT (LENGTH_MEASURE( 1.000000000000000082E-05 ), #104, 'distance_accuracy_value', 'NONE');
#158 = FILL_AREA_STYLE_COLOUR ( '', #301 ) ;
#159 = FACE_OUTER_BOUND ( 'NONE', #138, .T. ) ;
#160 = ORIENTED_EDGE ( 'NONE', *, *, #32, .F. ) ;
#161 = PRODUCT_DEFINITION ( 'UNKNOWN', '', #184, #180 ) ;
#162 = DIRECTION ( 'NONE',  ( 0.000000000000000000, 0.000000000000000000, -1.000000000000000000 ) ) ;
#163 = EDGE_CURVE ( 'NONE', #103, #57, #48, .T. ) ;
#164 = DIRECTION ( 'NONE',  ( 0.000000000000000000, 0.000000000000000000, -1.000000000000000000 ) ) ;
#165 = ORIENTED_EDGE ( 'NONE', *, *, #260, .T. ) ;
#166 = FILL_AREA_STYLE ('',( #277 ) ) ;
#167 = FILL_AREA_STYLE ('',( #275 ) ) ;
#168 = PLANE ( 'NONE',  #196 ) ;
#169 = PRESENTATION_STYLE_ASSIGNMENT (( #111 ) ) ;
#170 = ORIENTED_EDGE ( 'NONE', *, *, #119, .T. ) ;
#171 =( GEOMETRIC_REPRESENTATION_CONTEXT ( 3 ) GLOBAL_UNCERTAINTY_ASSIGNED_CONTEXT ( ( #199 ) ) GLOBAL_UNIT_ASSIGNED_CONTEXT ( ( #197, #121, #263 ) ) REPRESENTATION_CONTEXT ( 'NONE', 'WORKASPACE' ) );
#172 = LENGTH_MEASURE_WITH_UNIT ( LENGTH_MEASURE( 0.02539999999999999897 ), #151 );
#173 = FILL_AREA_STYLE ('',( #235 ) ) ;
#174 = PRESENTATION_STYLE_ASSIGNMENT (( #20 ) ) ;
#175 = APPLICATION_PROTOCOL_DEFINITION ( 'draft international standard', 'automotive_design', 1998, #190 ) ;
#176 = CYLINDRICAL_SURFACE ( 'NONE', #221, 0.3749999999999999445 ) ;
#177 = CYLINDRICAL_SURFACE ( 'NONE', #283, 0.3750000000000000555 ) ;
#178 = CARTESIAN_POINT ( 'NONE',  ( 1.224646799147352714E-16, 3.000000000000000444, 0.000000000000000000 ) ) ;
#179 = VECTOR ( 'NONE', #95, 39.37007874015748143 ) ;
#180 = PRODUCT_DEFINITION_CONTEXT ( 'detailed design', #190, 'design' ) ;
#181 = DIRECTION ( 'NONE',  ( -6.123233995736763571E-17, -1.000000000000000000, 0.000000000000000000 ) ) ;
#182 = CARTESIAN_POINT ( 'NONE',  ( 0.000000000000000000, 1.000000000000000000, 0.000000000000000000 ) ) ;
#183 = VECTOR ( 'NONE', #191, 39.37007874015748143 ) ;
#184 = PRODUCT_DEFINITION_FORMATION_WITH_SPECIFIED_SOURCE ( 'ANY', '', #306, .NOT_KNOWN. ) ;
#185 = EDGE_LOOP ( 'NONE', ( #29, #80, #68, #188 ) ) ;
#186 = UNCERTAINTY_MEASURE_WITH_UNIT (LENGTH_MEASURE( 1.000000000000000082E-05 ), #222, 'distance_accuracy_value', 'NONE');
#187 = MANIFOLD_SOLID_BREP ( 'Revolve - Cutting Edge', #257 ) ;
#188 = ORIENTED_EDGE ( 'NONE', *, *, #246, .F. ) ;
#189 = CARTESIAN_POINT ( 'NONE',  ( 0.000000000000000000, 0.000000000000000000, 0.000000000000000000 ) ) ;
#190 = APPLICATION_CONTEXT ( 'automotive_design' ) ;
#191 = DIRECTION ( 'NONE',  ( -0.000000000000000000, -1.000000000000000000, -0.000000000000000000 ) ) ;
#192 = DIRECTION ( 'NONE',  ( -1.000000000000000000, 0.000000000000000000, 0.000000000000000000 ) ) ;
#193 = ORIENTED_EDGE ( 'NONE', *, *, #143, .F. ) ;
#194 = FACE_OUTER_BOUND ( 'NONE', #15, .T. ) ;
#195 = DIRECTION ( 'NONE',  ( 6.123233995736763571E-17, 1.000000000000000000, -0.000000000000000000 ) ) ;
#196 = AXIS2_PLACEMENT_3D ( 'NONE', #189, #84, #43 ) ;
#197 =( CONVERSION_BASED_UNIT ( 'INCH', #21 ) LENGTH_UNIT ( ) NAMED_UNIT ( #299 ) );
#198 = SHAPE_DEFINITION_REPRESENTATION ( #4, #122 ) ;
#199 = UNCERTAINTY_MEASURE_WITH_UNIT (LENGTH_MEASURE( 1.000000000000000082E-05 ), #197, 'distance_accuracy_value', 'NONE');
#200 = DIMENSIONAL_EXPONENTS ( 1.000000000000000000, 0.000000000000000000, 0.000000000000000000, 0.000000000000000000, 0.000000000000000000, 0.000000000000000000, 0.000000000000000000 ) ;
#201 = DIRECTION ( 'NONE',  ( 6.123233995736763571E-17, 1.000000000000000000, -0.000000000000000000 ) ) ;
#202 = VERTEX_POINT ( 'NONE', #76 ) ;
#203 = DIRECTION ( 'NONE',  ( 6.123233995736763571E-17, 1.000000000000000000, -0.000000000000000000 ) ) ;
#204 = DIRECTION ( 'NONE',  ( 0.000000000000000000, 0.000000000000000000, -1.000000000000000000 ) ) ;
#205 = DIRECTION ( 'NONE',  ( 6.123233995736763571E-17, 1.000000000000000000, -0.000000000000000000 ) ) ;
#206 = CIRCLE ( 'NONE', #73, 0.3750000000000000555 ) ;
#207 = CARTESIAN_POINT ( 'NONE',  ( -0.3750000000000000555, 1.000000000000000000, 0.000000000000000000 ) ) ;
#208 = FACE_OUTER_BOUND ( 'NONE', #185, .T. ) ;
#209 = PRESENTATION_STYLE_ASSIGNMENT (( #90 ) ) ;
#210 =( LENGTH_UNIT ( ) NAMED_UNIT ( * ) SI_UNIT ( $, .METRE. ) );
#211 = AXIS2_PLACEMENT_3D ( 'NONE', #297, #252, #228 ) ;
#212 = CARTESIAN_POINT ( 'NONE',  ( 0.3750000000000000555, 1.000000000000000000, 4.592425496802574219E-17 ) ) ;
#213 = DIRECTION ( 'NONE',  ( 6.123233995736763571E-17, 1.000000000000000000, -0.000000000000000000 ) ) ;
#214 = SURFACE_SIDE_STYLE ('',( #72 ) ) ;
#215 = CARTESIAN_POINT ( 'NONE',  ( -0.3749999999999997780, 3.000000000000000444, 0.000000000000000000 ) ) ;
#216 = FACE_OUTER_BOUND ( 'NONE', #298, .T. ) ;
#217 =( GEOMETRIC_REPRESENTATION_CONTEXT ( 3 ) GLOBAL_UNCERTAINTY_ASSIGNED_CONTEXT ( ( #186 ) ) GLOBAL_UNIT_ASSIGNED_CONTEXT ( ( #222, #268, #31 ) ) REPRESENTATION_CONTEXT ( 'NONE', 'WORKASPACE' ) );
#218 = SURFACE_STYLE_FILL_AREA ( #242 ) ;
#219 = PLANE ( 'NONE',  #10 ) ;
#220 = AXIS2_PLACEMENT_3D ( 'NONE', #109, #303, #164 ) ;
#221 = AXIS2_PLACEMENT_3D ( 'NONE', #178, #244, #99 ) ;
#222 =( CONVERSION_BASED_UNIT ( 'INCH', #55 ) LENGTH_UNIT ( ) NAMED_UNIT ( #274 ) );
#223 = CARTESIAN_POINT ( 'NONE',  ( 0.000000000000000000, 1.000000000000000000, -0.3750000000000000555 ) ) ;
#224 = AXIS2_PLACEMENT_3D ( 'NONE', #281, #258, #147 ) ;
#225 = SURFACE_SIDE_STYLE ('',( #288 ) ) ;
#226 = ORIENTED_EDGE ( 'NONE', *, *, #236, .T. ) ;
#227 = ADVANCED_FACE ( 'NONE', ( #11 ), #176, .T. ) ;
#228 = DIRECTION ( 'NONE',  ( -1.000000000000000000, 0.000000000000000000, 0.000000000000000000 ) ) ;
#229 = ORIENTED_EDGE ( 'NONE', *, *, #32, .T. ) ;
#230 = AXIS2_PLACEMENT_3D ( 'NONE', #14, #88, #108 ) ;
#231 = PRESENTATION_LAYER_ASSIGNMENT (  '', '', ( #238 ) ) ;
#232 = DIRECTION ( 'NONE',  ( 0.000000000000000000, 0.000000000000000000, -1.000000000000000000 ) ) ;
#233 = PLANE ( 'NONE',  #100 ) ;
#234 = PRESENTATION_LAYER_ASSIGNMENT (  '', '', ( #250 ) ) ;
#235 = FILL_AREA_STYLE_COLOUR ( '', #148 ) ;
#236 = EDGE_CURVE ( 'NONE', #278, #17, #18, .T. ) ;
#237 = SURFACE_SIDE_STYLE ('',( #218 ) ) ;
#238 = STYLED_ITEM ( 'NONE', ( #272 ), #296 ) ;
#239 = CARTESIAN_POINT ( 'NONE',  ( 7.030123981227453260E-34, 1.000000000000000000, 0.000000000000000000 ) ) ;
#240 = ADVANCED_FACE ( 'NONE', ( #98 ), #292, .F. ) ;
#241 = FILL_AREA_STYLE ('',( #243 ) ) ;
#242 = FILL_AREA_STYLE ('',( #158 ) ) ;
#243 = FILL_AREA_STYLE_COLOUR ( '', #24 ) ;
#244 = DIRECTION ( 'NONE',  ( 6.123233995736763571E-17, 1.000000000000000000, -0.000000000000000000 ) ) ;
#245 = MECHANICAL_DESIGN_GEOMETRIC_PRESENTATION_REPRESENTATION (  '', ( #238 ), #34 ) ;
#246 = EDGE_CURVE ( 'NONE', #54, #103, #291, .T. ) ;
#247 = ORIENTED_EDGE ( 'NONE', *, *, #246, .T. ) ;
#248 =( LENGTH_UNIT ( ) NAMED_UNIT ( * ) SI_UNIT ( $, .METRE. ) );
#249 = ORIENTED_EDGE ( 'NONE', *, *, #163, .T. ) ;
#250 = STYLED_ITEM ( 'NONE', ( #174 ), #153 ) ;
#251 = ADVANCED_FACE ( 'NONE', ( #159 ), #219, .F. ) ;
#252 = DIRECTION ( 'NONE',  ( 6.123233995736763571E-17, 1.000000000000000000, -0.000000000000000000 ) ) ;
#253 = SURFACE_STYLE_FILL_AREA ( #167 ) ;
#254 = LENGTH_MEASURE_WITH_UNIT ( LENGTH_MEASURE( 0.02539999999999999897 ), #248 );
#255 = EDGE_LOOP ( 'NONE', ( #128, #133, #247, #33 ) ) ;
#256 =( NAMED_UNIT ( * ) PLANE_ANGLE_UNIT ( ) SI_UNIT ( $, .RADIAN. ) );
#257 = CLOSED_SHELL ( 'NONE', ( #296, #153, #91, #309 ) ) ;
#258 = DIRECTION ( 'NONE',  ( -0.000000000000000000, -1.000000000000000000, -0.000000000000000000 ) ) ;
#259 =( CONVERSION_BASED_UNIT ( 'INCH', #74 ) LENGTH_UNIT ( ) NAMED_UNIT ( #200 ) );
#260 = EDGE_CURVE ( 'NONE', #202, #13, #96, .T. ) ;
#261 = AXIS2_PLACEMENT_3D ( 'NONE', #293, #269, #286 ) ;
#262 = STYLED_ITEM ( 'NONE', ( #209 ), #309 ) ;
#263 =( NAMED_UNIT ( * ) SI_UNIT ( $, .STERADIAN. ) SOLID_ANGLE_UNIT ( ) );
#264 = DIRECTION ( 'NONE',  ( 1.000000000000000000, 0.000000000000000000, 0.000000000000000000 ) ) ;
#265 = EDGE_CURVE ( 'NONE', #54, #276, #6, .T. ) ;
#266 = DIMENSIONAL_EXPONENTS ( 1.000000000000000000, 0.000000000000000000, 0.000000000000000000, 0.000000000000000000, 0.000000000000000000, 0.000000000000000000, 0.000000000000000000 ) ;
#267 = APPLICATION_CONTEXT ( 'automotive_design' ) ;
#268 =( NAMED_UNIT ( * ) PLANE_ANGLE_UNIT ( ) SI_UNIT ( $, .RADIAN. ) );
#269 = DIRECTION ( 'NONE',  ( 6.123233995736763571E-17, 1.000000000000000000, -0.000000000000000000 ) ) ;
#270 = DIRECTION ( 'NONE',  ( 1.000000000000000000, -6.123233995736763571E-17, 0.000000000000000000 ) ) ;
#271 = LINE ( 'NONE', #115, #101 ) ;
#272 = PRESENTATION_STYLE_ASSIGNMENT (( #26 ) ) ;
#273 = EDGE_LOOP ( 'NONE', ( #42, #295 ) ) ;
#274 = DIMENSIONAL_EXPONENTS ( 1.000000000000000000, 0.000000000000000000, 0.000000000000000000, 0.000000000000000000, 0.000000000000000000, 0.000000000000000000, 0.000000000000000000 ) ;
#275 = FILL_AREA_STYLE_COLOUR ( '', #294 ) ;
#276 = VERTEX_POINT ( 'NONE', #212 ) ;
#277 = FILL_AREA_STYLE_COLOUR ( '', #85 ) ;
#278 = VERTEX_POINT ( 'NONE', #117 ) ;
#279 = DIRECTION ( 'NONE',  ( -0.000000000000000000, -1.000000000000000000, -0.000000000000000000 ) ) ;
#280 = CARTESIAN_POINT ( 'NONE',  ( 0.000000000000000000, 1.000000000000000000, 0.000000000000000000 ) ) ;
#281 = CARTESIAN_POINT ( 'NONE',  ( 0.000000000000000000, 0.000000000000000000, 0.000000000000000000 ) ) ;
#282 =( GEOMETRIC_REPRESENTATION_CONTEXT ( 3 ) GLOBAL_UNCERTAINTY_ASSIGNED_CONTEXT ( ( #157 ) ) GLOBAL_UNIT_ASSIGNED_CONTEXT ( ( #104, #97, #79 ) ) REPRESENTATION_CONTEXT ( 'NONE', 'WORKASPACE' ) );
#283 = AXIS2_PLACEMENT_3D ( 'NONE', #305, #116, #67 ) ;
#284 = FILL_AREA_STYLE ('',( #45 ) ) ;
#285 = CARTESIAN_POINT ( 'NONE',  ( 0.000000000000000000, 0.000000000000000000, 0.000000000000000000 ) ) ;
#286 = DIRECTION ( 'NONE',  ( -1.000000000000000000, 0.000000000000000000, 0.000000000000000000 ) ) ;
#287 = UNCERTAINTY_MEASURE_WITH_UNIT (LENGTH_MEASURE( 1.000000000000000082E-05 ), #89, 'distance_accuracy_value', 'NONE');
#288 = SURFACE_STYLE_FILL_AREA ( #241 ) ;
#289 = MECHANICAL_DESIGN_GEOMETRIC_PRESENTATION_REPRESENTATION (  '', ( #250 ), #282 ) ;
#290 = STYLED_ITEM ( 'NONE', ( #23 ), #187 ) ;
#291 = LINE ( 'NONE', #126, #137 ) ;
#292 = PLANE ( 'NONE',  #150 ) ;
#293 = CARTESIAN_POINT ( 'NONE',  ( 1.224646799147352714E-16, 3.000000000000000444, 0.000000000000000000 ) ) ;
#294 = COLOUR_RGB ( '',0.7921568627450980005, 0.8196078431372548767, 0.9333333333333333481 ) ;
#295 = ORIENTED_EDGE ( 'NONE', *, *, #82, .F. ) ;
#296 = ADVANCED_FACE ( 'NONE', ( #125 ), #177, .T. ) ;
#297 = CARTESIAN_POINT ( 'NONE',  ( -3.032960542342103792E-32, 1.000000000000000000, 0.000000000000000000 ) ) ;
#298 = EDGE_LOOP ( 'NONE', ( #63, #165, #86, #160 ) ) ;
#299 = DIMENSIONAL_EXPONENTS ( 1.000000000000000000, 0.000000000000000000, 0.000000000000000000, 0.000000000000000000, 0.000000000000000000, 0.000000000000000000, 0.000000000000000000 ) ;
#300 = CARTESIAN_POINT ( 'NONE',  ( 0.3750000000000000555, 3.000000000000000444, 4.592425496802574219E-17 ) ) ;
#301 = COLOUR_RGB ( '',0.7921568627450980005, 0.8196078431372548767, 0.9333333333333333481 ) ;
#302 = MECHANICAL_DESIGN_GEOMETRIC_PRESENTATION_REPRESENTATION (  '', ( #290 ), #217 ) ;
#303 = DIRECTION ( 'NONE',  ( -0.000000000000000000, -1.000000000000000000, -0.000000000000000000 ) ) ;
#304 =( NAMED_UNIT ( * ) SI_UNIT ( $, .STERADIAN. ) SOLID_ANGLE_UNIT ( ) );
#305 = CARTESIAN_POINT ( 'NONE',  ( 0.000000000000000000, 0.000000000000000000, 0.000000000000000000 ) ) ;
#306 = PRODUCT ( '23290', '23290', '', ( #307 ) ) ;
#307 = PRODUCT_CONTEXT ( 'NONE', #267, 'mechanical' ) ;
#308 =( GEOMETRIC_REPRESENTATION_CONTEXT ( 3 ) GLOBAL_UNCERTAINTY_ASSIGNED_CONTEXT ( ( #135 ) ) GLOBAL_UNIT_ASSIGNED_CONTEXT ( ( #141, #40, #120 ) ) REPRESENTATION_CONTEXT ( 'NONE', 'WORKASPACE' ) );
#309 = ADVANCED_FACE ( 'NONE', ( #194 ), #168, .T. ) ;
ENDSEC;
END-ISO-10303-21;
