ISO-10303-21;
HEADER;
FILE_DESCRIPTION (( 'STEP AP214' ),
    '1' );
FILE_NAME ('Micro_EMS-375-4X.STEP',
    '2021-09-01T17:56:57',
    ( '' ),
    ( '' ),
    'SwSTEP 2.0',
    'SolidWorks 2020',
    '' );
FILE_SCHEMA (( 'AUTOMOTIVE_DESIGN' ));
ENDSEC;

DATA;
#1 = STYLED_ITEM ( 'NONE', ( #29 ), #195 ) ;
#2 = CYLINDRICAL_SURFACE ( 'NONE', #243, 0.1873124999999999929 ) ;
#3 = CARTESIAN_POINT ( 'NONE',  ( -0.1724999999999995981, 0.0000000000000000000, 2.500000000000000000 ) ) ;
#4 = LINE ( 'NONE', #26, #18 ) ;
#5 = CARTESIAN_POINT ( 'NONE',  ( 0.1724999999999995981, 2.204364238465233357E-17, 2.500000000000000000 ) ) ;
#6 = CYLINDRICAL_SURFACE ( 'NONE', #119, 0.1875000000000000278 ) ;
#7 = EDGE_CURVE ( 'NONE', #132, #89, #99, .T. ) ;
#8 = LINE ( 'NONE', #54, #156 ) ;
#9 = CARTESIAN_POINT ( 'NONE',  ( 0.0000000000000000000, 0.0000000000000000000, 2.484999999999999432 ) ) ;
#10 = EDGE_CURVE ( 'NONE', #111, #223, #22, .T. ) ;
#11 = UNCERTAINTY_MEASURE_WITH_UNIT (LENGTH_MEASURE( 1.000000000000000082E-05 ), #238, 'distance_accuracy_value', 'NONE');
#12 = PLANE ( 'NONE',  #39 ) ;
#13 =( NAMED_UNIT ( * ) SI_UNIT ( $, .STERADIAN. ) SOLID_ANGLE_UNIT ( ) );
#14 = ORIENTED_EDGE ( 'NONE', *, *, #130, .F. ) ;
#15 = ADVANCED_FACE ( 'NONE', ( #46 ), #2, .T. ) ;
#16 = ORIENTED_EDGE ( 'NONE', *, *, #167, .F. ) ;
#17 = ORIENTED_EDGE ( 'NONE', *, *, #263, .T. ) ;
#18 = VECTOR ( 'NONE', #97, 39.37007874015748143 ) ;
#19 = ORIENTED_EDGE ( 'NONE', *, *, #20, .T. ) ;
#20 = EDGE_CURVE ( 'NONE', #91, #298, #4, .T. ) ;
#21 = DIRECTION ( 'NONE',  ( -1.000000000000000000, 0.0000000000000000000, 0.0000000000000000000 ) ) ;
#22 = LINE ( 'NONE', #25, #228 ) ;
#23 = AXIS2_PLACEMENT_3D ( 'NONE', #187, #299, #117 ) ;
#24 = CARTESIAN_POINT ( 'NONE',  ( 0.0000000000000000000, 0.0000000000000000000, 2.484999999999999432 ) ) ;
#25 = CARTESIAN_POINT ( 'NONE',  ( 0.1873125000000001317, 0.0000000000000000000, 0.8750000000000000000 ) ) ;
#26 = CARTESIAN_POINT ( 'NONE',  ( -0.1873124999999999929, 0.0000000000000000000, 2.293916535652885596E-17 ) ) ;
#27 = DIRECTION ( 'NONE',  ( 0.0000000000000000000, 0.0000000000000000000, 1.000000000000000000 ) ) ;
#28 = DIRECTION ( 'NONE',  ( 1.000000000000000000, 0.0000000000000000000, -0.0000000000000000000 ) ) ;
#29 = PRESENTATION_STYLE_ASSIGNMENT (( #55 ) ) ;
#30 = CIRCLE ( 'NONE', #141, 0.1873124999999999929 ) ;
#31 = CARTESIAN_POINT ( 'NONE',  ( 0.1724999999999995981, 2.112515728529179297E-17, 2.500000000000000000 ) ) ;
#32 = AXIS2_PLACEMENT_3D ( 'NONE', #214, #27, #190 ) ;
#33 = PRODUCT ( 'Micro_EMS-375-4X', 'Micro_EMS-375-4X', '', ( #142 ) ) ;
#34 = DIRECTION ( 'NONE',  ( 1.000000000000000000, 0.0000000000000000000, 0.0000000000000000000 ) ) ;
#35 = PRODUCT_DEFINITION_SHAPE ( 'NONE', 'NONE',  #211 ) ;
#36 =( LENGTH_UNIT ( ) NAMED_UNIT ( * ) SI_UNIT ( $, .METRE. ) );
#37 = PRODUCT_RELATED_PRODUCT_CATEGORY ( 'part', '', ( #33 ) ) ;
#38 = EDGE_LOOP ( 'NONE', ( #66, #155, #64, #42 ) ) ;
#39 = AXIS2_PLACEMENT_3D ( 'NONE', #83, #145, #28 ) ;
#40 = ADVANCED_FACE ( 'NONE', ( #162 ), #96, .T. ) ;
#41 = ORIENTED_EDGE ( 'NONE', *, *, #7, .T. ) ;
#42 = ORIENTED_EDGE ( 'NONE', *, *, #265, .F. ) ;
#43 = EDGE_CURVE ( 'NONE', #298, #295, #73, .T. ) ;
#44 = CONICAL_SURFACE ( 'NONE', #262, 0.1724999999999995981, 0.7853981633974357335 ) ;
#45 = FACE_OUTER_BOUND ( 'NONE', #273, .T. ) ;
#46 = FACE_OUTER_BOUND ( 'NONE', #133, .T. ) ;
#47 = CARTESIAN_POINT ( 'NONE',  ( 0.0000000000000000000, 0.0000000000000000000, 2.500000000000000000 ) ) ;
#48 = FACE_OUTER_BOUND ( 'NONE', #183, .T. ) ;
#49 = CARTESIAN_POINT ( 'NONE',  ( 0.0000000000000000000, 0.0000000000000000000, 2.500000000000000000 ) ) ;
#50 = SHAPE_DEFINITION_REPRESENTATION ( #35, #160 ) ;
#51 =( LENGTH_UNIT ( ) NAMED_UNIT ( * ) SI_UNIT ( $, .METRE. ) );
#52 = APPLICATION_PROTOCOL_DEFINITION ( 'draft international standard', 'automotive_design', 1998, #240 ) ;
#53 = DIRECTION ( 'NONE',  ( -1.000000000000000000, 0.0000000000000000000, 0.0000000000000000000 ) ) ;
#54 = CARTESIAN_POINT ( 'NONE',  ( -0.1724999999999995981, 0.0000000000000000000, 2.500000000000000000 ) ) ;
#55 = SURFACE_STYLE_USAGE ( .BOTH. , #81 ) ;
#56 = MECHANICAL_DESIGN_GEOMETRIC_PRESENTATION_REPRESENTATION (  '', ( #1 ), #170 ) ;
#57 = DIRECTION ( 'NONE',  ( -0.1736481776669311916, 2.126576849575783316E-17, 0.9848077530122080203 ) ) ;
#58 = EDGE_CURVE ( 'NONE', #207, #223, #61, .T. ) ;
#59 = ORIENTED_EDGE ( 'NONE', *, *, #178, .T. ) ;
#60 =( CONVERSION_BASED_UNIT ( 'INCH', #110 ) LENGTH_UNIT ( ) NAMED_UNIT ( #267 ) );
#61 = CIRCLE ( 'NONE', #245, 0.1875000000000000278 ) ;
#62 = APPLICATION_CONTEXT ( 'automotive_design' ) ;
#63 = EDGE_LOOP ( 'NONE', ( #229, #249, #294, #247 ) ) ;
#64 = ORIENTED_EDGE ( 'NONE', *, *, #184, .T. ) ;
#65 = ADVANCED_FACE ( 'NONE', ( #48 ), #100, .T. ) ;
#66 = ORIENTED_EDGE ( 'NONE', *, *, #135, .F. ) ;
#67 = VECTOR ( 'NONE', #57, 39.37007874015747433 ) ;
#68 = DIRECTION ( 'NONE',  ( 1.000000000000000000, 0.0000000000000000000, -0.0000000000000000000 ) ) ;
#69 = EDGE_CURVE ( 'NONE', #111, #91, #192, .T. ) ;
#70 = CARTESIAN_POINT ( 'NONE',  ( 0.0000000000000000000, 0.0000000000000000000, 2.500000000000000000 ) ) ;
#71 =( NAMED_UNIT ( * ) SI_UNIT ( $, .STERADIAN. ) SOLID_ANGLE_UNIT ( ) );
#72 = CARTESIAN_POINT ( 'NONE',  ( 0.0000000000000000000, 0.0000000000000000000, 0.0000000000000000000 ) ) ;
#73 = CIRCLE ( 'NONE', #23, 0.1873124999999999929 ) ;
#74 = PRESENTATION_LAYER_ASSIGNMENT (  '', '', ( #147 ) ) ;
#75 = CARTESIAN_POINT ( 'NONE',  ( 0.1873125000000001317, 0.0000000000000000000, 0.8750000000000000000 ) ) ;
#76 = ADVANCED_FACE ( 'NONE', ( #281 ), #277, .T. ) ;
#77 = DIRECTION ( 'NONE',  ( -1.000000000000000000, 0.0000000000000000000, 0.0000000000000000000 ) ) ;
#78 = EDGE_CURVE ( 'NONE', #89, #132, #248, .T. ) ;
#79 = DIRECTION ( 'NONE',  ( 0.0000000000000000000, 0.0000000000000000000, -1.000000000000000000 ) ) ;
#80 = AXIS2_PLACEMENT_3D ( 'NONE', #185, #157, #279 ) ;
#81 = SURFACE_SIDE_STYLE ('',( #194 ) ) ;
#82 = ADVANCED_FACE ( 'NONE', ( #118 ), #278, .T. ) ;
#83 = CARTESIAN_POINT ( 'NONE',  ( 0.0000000000000000000, 0.0000000000000000000, 0.0000000000000000000 ) ) ;
#84 =( LENGTH_UNIT ( ) NAMED_UNIT ( * ) SI_UNIT ( $, .METRE. ) );
#85 = ORIENTED_EDGE ( 'NONE', *, *, #283, .T. ) ;
#86 = FILL_AREA_STYLE_COLOUR ( '', #259 ) ;
#87 = ORIENTED_EDGE ( 'NONE', *, *, #150, .T. ) ;
#88 = CIRCLE ( 'NONE', #296, 0.1875000000000000278 ) ;
#89 = VERTEX_POINT ( 'NONE', #5 ) ;
#90 =( GEOMETRIC_REPRESENTATION_CONTEXT ( 3 ) GLOBAL_UNCERTAINTY_ASSIGNED_CONTEXT ( ( #200 ) ) GLOBAL_UNIT_ASSIGNED_CONTEXT ( ( #60, #293, #13 ) ) REPRESENTATION_CONTEXT ( 'NONE', 'WORKASPACE' ) );
#91 = VERTEX_POINT ( 'NONE', #250 ) ;
#92 = ORIENTED_EDGE ( 'NONE', *, *, #20, .F. ) ;
#93 = DIRECTION ( 'NONE',  ( -1.000000000000000000, 0.0000000000000000000, 1.224646799147352961E-16 ) ) ;
#94 = AXIS2_PLACEMENT_3D ( 'NONE', #241, #288, #34 ) ;
#95 = DIRECTION ( 'NONE',  ( -1.224646799147353207E-16, -0.0000000000000000000, -1.000000000000000000 ) ) ;
#96 = CYLINDRICAL_SURFACE ( 'NONE', #146, 0.1873124999999999929 ) ;
#97 = DIRECTION ( 'NONE',  ( -1.224646799147353207E-16, -0.0000000000000000000, -1.000000000000000000 ) ) ;
#98 = EDGE_CURVE ( 'NONE', #266, #207, #143, .T. ) ;
#99 = CIRCLE ( 'NONE', #80, 0.1724999999999995981 ) ;
#100 = CONICAL_SURFACE ( 'NONE', #216, 0.1873125000000000207, 0.1745329251994338915 ) ;
#101 = FACE_OUTER_BOUND ( 'NONE', #38, .T. ) ;
#102 = DIRECTION ( 'NONE',  ( -0.0000000000000000000, -0.0000000000000000000, -1.000000000000000000 ) ) ;
#103 = LINE ( 'NONE', #106, #114 ) ;
#104 = CARTESIAN_POINT ( 'NONE',  ( 1.071565949253934025E-16, 0.0000000000000000000, 0.8750000000000000000 ) ) ;
#105 = CARTESIAN_POINT ( 'NONE',  ( -0.1875000000000000278, 0.0000000000000000000, 2.484999999999999432 ) ) ;
#106 = CARTESIAN_POINT ( 'NONE',  ( 0.1875000000000000278, 2.296212748401287726E-17, 2.500000000000000000 ) ) ;
#107 = AXIS2_PLACEMENT_3D ( 'NONE', #210, #95, #280 ) ;
#108 = PRESENTATION_STYLE_ASSIGNMENT (( #225 ) ) ;
#109 = ORIENTED_EDGE ( 'NONE', *, *, #178, .F. ) ;
#110 = LENGTH_MEASURE_WITH_UNIT ( LENGTH_MEASURE( 0.02539999999999999897 ), #36 );
#111 = VERTEX_POINT ( 'NONE', #75 ) ;
#112 = ORIENTED_EDGE ( 'NONE', *, *, #78, .F. ) ;
#113 = ADVANCED_FACE ( 'NONE', ( #101 ), #271, .T. ) ;
#114 = VECTOR ( 'NONE', #102, 39.37007874015748143 ) ;
#115 = ORIENTED_EDGE ( 'NONE', *, *, #69, .T. ) ;
#116 = ORIENTED_EDGE ( 'NONE', *, *, #184, .F. ) ;
#117 = DIRECTION ( 'NONE',  ( -1.000000000000000000, 0.0000000000000000000, 1.224646799147352961E-16 ) ) ;
#118 = FACE_OUTER_BOUND ( 'NONE', #203, .T. ) ;
#119 = AXIS2_PLACEMENT_3D ( 'NONE', #127, #261, #285 ) ;
#120 = PRODUCT_DEFINITION_FORMATION_WITH_SPECIFIED_SOURCE ( 'ANY', '', #33, .NOT_KNOWN. ) ;
#121 = DIRECTION ( 'NONE',  ( 0.0000000000000000000, 0.0000000000000000000, -1.000000000000000000 ) ) ;
#122 = DIRECTION ( 'NONE',  ( -1.000000000000000000, 0.0000000000000000000, 1.224646799147352961E-16 ) ) ;
#123 = DIRECTION ( 'NONE',  ( -0.0000000000000000000, -0.0000000000000000000, -1.000000000000000000 ) ) ;
#124 =( NAMED_UNIT ( * ) PLANE_ANGLE_UNIT ( ) SI_UNIT ( $, .RADIAN. ) );
#125 = ADVANCED_FACE ( 'NONE', ( #45 ), #44, .T. ) ;
#126 = CIRCLE ( 'NONE', #205, 0.1875000000000000278 ) ;
#127 = CARTESIAN_POINT ( 'NONE',  ( 0.0000000000000000000, 0.0000000000000000000, 2.500000000000000000 ) ) ;
#128 = LINE ( 'NONE', #221, #284 ) ;
#129 = EDGE_CURVE ( 'NONE', #295, #298, #30, .T. ) ;
#130 = EDGE_CURVE ( 'NONE', #266, #152, #126, .T. ) ;
#131 = SURFACE_SIDE_STYLE ('',( #179 ) ) ;
#132 = VERTEX_POINT ( 'NONE', #3 ) ;
#133 = EDGE_LOOP ( 'NONE', ( #87, #85, #201, #92 ) ) ;
#134 = EDGE_LOOP ( 'NONE', ( #292, #17, #226, #176 ) ) ;
#135 = EDGE_CURVE ( 'NONE', #89, #152, #196, .T. ) ;
#136 = VECTOR ( 'NONE', #286, 39.37007874015748854 ) ;
#137 = ORIENTED_EDGE ( 'NONE', *, *, #135, .T. ) ;
#138 = DIRECTION ( 'NONE',  ( -1.224646799147353207E-16, -0.0000000000000000000, -1.000000000000000000 ) ) ;
#139 = DIRECTION ( 'NONE',  ( 1.224646799147353207E-16, 0.0000000000000000000, 1.000000000000000000 ) ) ;
#140 = CARTESIAN_POINT ( 'NONE',  ( 2.809237542898491532E-33, 0.0000000000000000000, 2.293916535652885596E-17 ) ) ;
#141 = AXIS2_PLACEMENT_3D ( 'NONE', #140, #138, #230 ) ;
#142 = PRODUCT_CONTEXT ( 'NONE', #240, 'mechanical' ) ;
#143 = LINE ( 'NONE', #233, #253 ) ;
#144 = DIRECTION ( 'NONE',  ( 0.0000000000000000000, 0.0000000000000000000, -1.000000000000000000 ) ) ;
#145 = DIRECTION ( 'NONE',  ( 0.0000000000000000000, 0.0000000000000000000, 1.000000000000000000 ) ) ;
#146 = AXIS2_PLACEMENT_3D ( 'NONE', #72, #255, #93 ) ;
#147 = STYLED_ITEM ( 'NONE', ( #108 ), #160 ) ;
#148 = FILL_AREA_STYLE ('',( #198 ) ) ;
#149 = CARTESIAN_POINT ( 'NONE',  ( 1.072868196215332272E-16, 0.0000000000000000000, 0.8760633653411783461 ) ) ;
#150 = EDGE_CURVE ( 'NONE', #91, #111, #181, .T. ) ;
#151 = DIRECTION ( 'NONE',  ( 1.000000000000000000, 0.0000000000000000000, 0.0000000000000000000 ) ) ;
#152 = VERTEX_POINT ( 'NONE', #257 ) ;
#153 = ORIENTED_EDGE ( 'NONE', *, *, #129, .T. ) ;
#154 = EDGE_LOOP ( 'NONE', ( #41, #246 ) ) ;
#155 = ORIENTED_EDGE ( 'NONE', *, *, #7, .F. ) ;
#156 = VECTOR ( 'NONE', #168, 39.37007874015748854 ) ;
#157 = DIRECTION ( 'NONE',  ( 0.0000000000000000000, 0.0000000000000000000, 1.000000000000000000 ) ) ;
#158 = DIRECTION ( 'NONE',  ( -0.0000000000000000000, -0.0000000000000000000, -1.000000000000000000 ) ) ;
#159 = ADVANCED_FACE ( 'NONE', ( #260 ), #6, .T. ) ;
#160 = ADVANCED_BREP_SHAPE_REPRESENTATION ( 'Micro_EMS-375-4X', ( #195, #32 ), #90 ) ;
#161 = DIRECTION ( 'NONE',  ( 0.0000000000000000000, 0.0000000000000000000, 1.000000000000000000 ) ) ;
#162 = FACE_OUTER_BOUND ( 'NONE', #204, .T. ) ;
#163 = PRESENTATION_LAYER_ASSIGNMENT (  '', '', ( #1 ) ) ;
#164 =( GEOMETRIC_REPRESENTATION_CONTEXT ( 3 ) GLOBAL_UNCERTAINTY_ASSIGNED_CONTEXT ( ( #11 ) ) GLOBAL_UNIT_ASSIGNED_CONTEXT ( ( #238, #169, #71 ) ) REPRESENTATION_CONTEXT ( 'NONE', 'WORKASPACE' ) );
#165 = CARTESIAN_POINT ( 'NONE',  ( 1.072868196215332272E-16, 0.0000000000000000000, 0.8760633653411783461 ) ) ;
#166 = CARTESIAN_POINT ( 'NONE',  ( 0.0000000000000000000, 0.0000000000000000000, 2.500000000000000000 ) ) ;
#167 = EDGE_CURVE ( 'NONE', #152, #223, #103, .T. ) ;
#168 = DIRECTION ( 'NONE',  ( -0.7071067811865385799, 0.0000000000000000000, -0.7071067811865563435 ) ) ;
#169 =( NAMED_UNIT ( * ) PLANE_ANGLE_UNIT ( ) SI_UNIT ( $, .RADIAN. ) );
#170 =( GEOMETRIC_REPRESENTATION_CONTEXT ( 3 ) GLOBAL_UNCERTAINTY_ASSIGNED_CONTEXT ( ( #222 ) ) GLOBAL_UNIT_ASSIGNED_CONTEXT ( ( #239, #124, #258 ) ) REPRESENTATION_CONTEXT ( 'NONE', 'WORKASPACE' ) );
#171 = DIRECTION ( 'NONE',  ( -1.224646799147353207E-16, -0.0000000000000000000, -1.000000000000000000 ) ) ;
#172 = LENGTH_MEASURE_WITH_UNIT ( LENGTH_MEASURE( 0.02539999999999999897 ), #51 );
#173 = CARTESIAN_POINT ( 'NONE',  ( 0.1875000000000000833, 2.296212748401288650E-17, 0.8760633653411783461 ) ) ;
#174 = AXIS2_PLACEMENT_3D ( 'NONE', #232, #193, #188 ) ;
#175 = CARTESIAN_POINT ( 'NONE',  ( 0.1873124999999999929, 2.293916535652885596E-17, 0.0000000000000000000 ) ) ;
#176 = ORIENTED_EDGE ( 'NONE', *, *, #10, .F. ) ;
#177 = DIMENSIONAL_EXPONENTS ( 1.000000000000000000, 0.0000000000000000000, 0.0000000000000000000, 0.0000000000000000000, 0.0000000000000000000, 0.0000000000000000000, 0.0000000000000000000 ) ;
#178 = EDGE_CURVE ( 'NONE', #223, #207, #88, .T. ) ;
#179 = SURFACE_STYLE_FILL_AREA ( #264 ) ;
#180 = ORIENTED_EDGE ( 'NONE', *, *, #10, .T. ) ;
#181 = CIRCLE ( 'NONE', #219, 0.1873125000000000207 ) ;
#182 = ORIENTED_EDGE ( 'NONE', *, *, #129, .F. ) ;
#183 = EDGE_LOOP ( 'NONE', ( #272, #269, #180, #59 ) ) ;
#184 = EDGE_CURVE ( 'NONE', #132, #266, #8, .T. ) ;
#185 = CARTESIAN_POINT ( 'NONE',  ( 0.0000000000000000000, 0.0000000000000000000, 2.500000000000000000 ) ) ;
#186 = AXIS2_PLACEMENT_3D ( 'NONE', #9, #79, #151 ) ;
#187 = CARTESIAN_POINT ( 'NONE',  ( 2.809237542898491532E-33, 0.0000000000000000000, 2.293916535652885596E-17 ) ) ;
#188 = DIRECTION ( 'NONE',  ( 1.000000000000000000, 0.0000000000000000000, 0.0000000000000000000 ) ) ;
#189 = DIRECTION ( 'NONE',  ( -1.224646799147353207E-16, -0.0000000000000000000, -1.000000000000000000 ) ) ;
#190 = DIRECTION ( 'NONE',  ( 1.000000000000000000, 0.0000000000000000000, 0.0000000000000000000 ) ) ;
#191 = DIRECTION ( 'NONE',  ( -1.224646799147353207E-16, -0.0000000000000000000, -1.000000000000000000 ) ) ;
#192 = CIRCLE ( 'NONE', #107, 0.1873125000000000207 ) ;
#193 = DIRECTION ( 'NONE',  ( 0.0000000000000000000, 0.0000000000000000000, 1.000000000000000000 ) ) ;
#194 = SURFACE_STYLE_FILL_AREA ( #148 ) ;
#195 = MANIFOLD_SOLID_BREP ( 'Cut-Revolve1', #270 ) ;
#196 = LINE ( 'NONE', #31, #136 ) ;
#197 = AXIS2_PLACEMENT_3D ( 'NONE', #49, #161, #68 ) ;
#198 = FILL_AREA_STYLE_COLOUR ( '', #276 ) ;
#199 = FACE_OUTER_BOUND ( 'NONE', #134, .T. ) ;
#200 = UNCERTAINTY_MEASURE_WITH_UNIT (LENGTH_MEASURE( 1.000000000000000082E-05 ), #60, 'distance_accuracy_value', 'NONE');
#201 = ORIENTED_EDGE ( 'NONE', *, *, #43, .F. ) ;
#202 = DIMENSIONAL_EXPONENTS ( 1.000000000000000000, 0.0000000000000000000, 0.0000000000000000000, 0.0000000000000000000, 0.0000000000000000000, 0.0000000000000000000, 0.0000000000000000000 ) ;
#203 = EDGE_LOOP ( 'NONE', ( #16, #206, #297, #109 ) ) ;
#204 = EDGE_LOOP ( 'NONE', ( #244, #115, #19, #182 ) ) ;
#205 = AXIS2_PLACEMENT_3D ( 'NONE', #24, #121, #212 ) ;
#206 = ORIENTED_EDGE ( 'NONE', *, *, #265, .T. ) ;
#207 = VERTEX_POINT ( 'NONE', #242 ) ;
#208 = DIRECTION ( 'NONE',  ( 0.1736481776669313859, 0.0000000000000000000, 0.9848077530122077983 ) ) ;
#209 = AXIS2_PLACEMENT_3D ( 'NONE', #70, #144, #234 ) ;
#210 = CARTESIAN_POINT ( 'NONE',  ( 1.071565949253934025E-16, 0.0000000000000000000, 0.8750000000000000000 ) ) ;
#211 = PRODUCT_DEFINITION ( 'UNKNOWN', '', #120, #287 ) ;
#212 = DIRECTION ( 'NONE',  ( 1.000000000000000000, 0.0000000000000000000, 0.0000000000000000000 ) ) ;
#213 = CARTESIAN_POINT ( 'NONE',  ( 0.0000000000000000000, 0.0000000000000000000, 0.0000000000000000000 ) ) ;
#214 = CARTESIAN_POINT ( 'NONE',  ( 0.0000000000000000000, 0.0000000000000000000, 0.0000000000000000000 ) ) ;
#215 = DIRECTION ( 'NONE',  ( 1.000000000000000000, 0.0000000000000000000, 0.0000000000000000000 ) ) ;
#216 = AXIS2_PLACEMENT_3D ( 'NONE', #251, #139, #215 ) ;
#217 = DIRECTION ( 'NONE',  ( -1.224646799147353207E-16, -0.0000000000000000000, -1.000000000000000000 ) ) ;
#218 = CARTESIAN_POINT ( 'NONE',  ( -0.1873124999999999096, 2.293916535652885904E-17, 0.8750000000000000000 ) ) ;
#219 = AXIS2_PLACEMENT_3D ( 'NONE', #104, #171, #53 ) ;
#220 = LINE ( 'NONE', #218, #67 ) ;
#221 = CARTESIAN_POINT ( 'NONE',  ( 0.1873124999999999929, 2.293916535652885596E-17, -2.293916535652885596E-17 ) ) ;
#222 = UNCERTAINTY_MEASURE_WITH_UNIT (LENGTH_MEASURE( 1.000000000000000082E-05 ), #239, 'distance_accuracy_value', 'NONE');
#223 = VERTEX_POINT ( 'NONE', #173 ) ;
#224 = CONICAL_SURFACE ( 'NONE', #94, 0.1873125000000000207, 0.1745329251994338915 ) ;
#225 = SURFACE_STYLE_USAGE ( .BOTH. , #131 ) ;
#226 = ORIENTED_EDGE ( 'NONE', *, *, #58, .T. ) ;
#227 = EDGE_LOOP ( 'NONE', ( #275, #153 ) ) ;
#228 = VECTOR ( 'NONE', #208, 39.37007874015748143 ) ;
#229 = ORIENTED_EDGE ( 'NONE', *, *, #130, .T. ) ;
#230 = DIRECTION ( 'NONE',  ( -1.000000000000000000, 0.0000000000000000000, 1.224646799147352961E-16 ) ) ;
#231 = DIRECTION ( 'NONE',  ( 0.0000000000000000000, 0.0000000000000000000, -1.000000000000000000 ) ) ;
#232 = CARTESIAN_POINT ( 'NONE',  ( 0.0000000000000000000, 0.0000000000000000000, 2.500000000000000000 ) ) ;
#233 = CARTESIAN_POINT ( 'NONE',  ( -0.1875000000000000278, 0.0000000000000000000, 2.500000000000000000 ) ) ;
#234 = DIRECTION ( 'NONE',  ( -1.000000000000000000, 0.0000000000000000000, 0.0000000000000000000 ) ) ;
#235 = FACE_OUTER_BOUND ( 'NONE', #227, .T. ) ;
#236 = CIRCLE ( 'NONE', #186, 0.1875000000000000278 ) ;
#237 = MECHANICAL_DESIGN_GEOMETRIC_PRESENTATION_REPRESENTATION (  '', ( #147 ), #164 ) ;
#238 =( CONVERSION_BASED_UNIT ( 'INCH', #256 ) LENGTH_UNIT ( ) NAMED_UNIT ( #202 ) );
#239 =( CONVERSION_BASED_UNIT ( 'INCH', #172 ) LENGTH_UNIT ( ) NAMED_UNIT ( #177 ) );
#240 = APPLICATION_CONTEXT ( 'automotive_design' ) ;
#241 = CARTESIAN_POINT ( 'NONE',  ( 1.071565949253934025E-16, 0.0000000000000000000, 0.8750000000000000000 ) ) ;
#242 = CARTESIAN_POINT ( 'NONE',  ( -0.1874999999999999167, 0.0000000000000000000, 0.8760633653411783461 ) ) ;
#243 = AXIS2_PLACEMENT_3D ( 'NONE', #213, #189, #122 ) ;
#244 = ORIENTED_EDGE ( 'NONE', *, *, #283, .F. ) ;
#245 = AXIS2_PLACEMENT_3D ( 'NONE', #165, #191, #254 ) ;
#246 = ORIENTED_EDGE ( 'NONE', *, *, #78, .T. ) ;
#247 = ORIENTED_EDGE ( 'NONE', *, *, #98, .F. ) ;
#248 = CIRCLE ( 'NONE', #174, 0.1724999999999995981 ) ;
#249 = ORIENTED_EDGE ( 'NONE', *, *, #167, .T. ) ;
#250 = CARTESIAN_POINT ( 'NONE',  ( -0.1873124999999999096, 2.295064642027087123E-17, 0.8750000000000000000 ) ) ;
#251 = CARTESIAN_POINT ( 'NONE',  ( 1.071565949253934025E-16, 0.0000000000000000000, 0.8750000000000000000 ) ) ;
#252 = APPLICATION_PROTOCOL_DEFINITION ( 'draft international standard', 'automotive_design', 1998, #62 ) ;
#253 = VECTOR ( 'NONE', #123, 39.37007874015748143 ) ;
#254 = DIRECTION ( 'NONE',  ( 1.000000000000000000, 0.0000000000000000000, 0.0000000000000000000 ) ) ;
#255 = DIRECTION ( 'NONE',  ( -1.224646799147353207E-16, -0.0000000000000000000, -1.000000000000000000 ) ) ;
#256 = LENGTH_MEASURE_WITH_UNIT ( LENGTH_MEASURE( 0.02539999999999999897 ), #84 );
#257 = CARTESIAN_POINT ( 'NONE',  ( 0.1875000000000000278, 2.296212748401287726E-17, 2.484999999999999432 ) ) ;
#258 =( NAMED_UNIT ( * ) SI_UNIT ( $, .STERADIAN. ) SOLID_ANGLE_UNIT ( ) );
#259 = COLOUR_RGB ( '',0.7921568627450980005, 0.8196078431372548767, 0.9333333333333333481 ) ;
#260 = FACE_OUTER_BOUND ( 'NONE', #63, .T. ) ;
#261 = DIRECTION ( 'NONE',  ( -0.0000000000000000000, -0.0000000000000000000, -1.000000000000000000 ) ) ;
#262 = AXIS2_PLACEMENT_3D ( 'NONE', #166, #231, #21 ) ;
#263 = EDGE_CURVE ( 'NONE', #91, #207, #220, .T. ) ;
#264 = FILL_AREA_STYLE ('',( #86 ) ) ;
#265 = EDGE_CURVE ( 'NONE', #152, #266, #236, .T. ) ;
#266 = VERTEX_POINT ( 'NONE', #105 ) ;
#267 = DIMENSIONAL_EXPONENTS ( 1.000000000000000000, 0.0000000000000000000, 0.0000000000000000000, 0.0000000000000000000, 0.0000000000000000000, 0.0000000000000000000, 0.0000000000000000000 ) ;
#268 = CARTESIAN_POINT ( 'NONE',  ( -0.1873124999999999929, 0.0000000000000000000, 4.587833071305771192E-17 ) ) ;
#269 = ORIENTED_EDGE ( 'NONE', *, *, #69, .F. ) ;
#270 = CLOSED_SHELL ( 'NONE', ( #15, #274, #125, #159, #82, #76, #113, #65, #40, #289 ) ) ;
#271 = CONICAL_SURFACE ( 'NONE', #209, 0.1724999999999995981, 0.7853981633974357335 ) ;
#272 = ORIENTED_EDGE ( 'NONE', *, *, #263, .F. ) ;
#273 = EDGE_LOOP ( 'NONE', ( #112, #137, #14, #116 ) ) ;
#274 = ADVANCED_FACE ( 'NONE', ( #199 ), #224, .T. ) ;
#275 = ORIENTED_EDGE ( 'NONE', *, *, #43, .T. ) ;
#276 = COLOUR_RGB ( '',0.7921568627450980005, 0.8196078431372548767, 0.9333333333333333481 ) ;
#277 = PLANE ( 'NONE',  #197 ) ;
#278 = CYLINDRICAL_SURFACE ( 'NONE', #291, 0.1875000000000000278 ) ;
#279 = DIRECTION ( 'NONE',  ( 1.000000000000000000, 0.0000000000000000000, 0.0000000000000000000 ) ) ;
#280 = DIRECTION ( 'NONE',  ( -1.000000000000000000, 0.0000000000000000000, 0.0000000000000000000 ) ) ;
#281 = FACE_OUTER_BOUND ( 'NONE', #154, .T. ) ;
#282 = DIRECTION ( 'NONE',  ( 1.000000000000000000, 0.0000000000000000000, 0.0000000000000000000 ) ) ;
#283 = EDGE_CURVE ( 'NONE', #111, #295, #128, .T. ) ;
#284 = VECTOR ( 'NONE', #290, 39.37007874015748143 ) ;
#285 = DIRECTION ( 'NONE',  ( -1.000000000000000000, 0.0000000000000000000, 0.0000000000000000000 ) ) ;
#286 = DIRECTION ( 'NONE',  ( 0.7071067811865385799, 8.659560562354823157E-17, -0.7071067811865563435 ) ) ;
#287 = PRODUCT_DEFINITION_CONTEXT ( 'detailed design', #62, 'design' ) ;
#288 = DIRECTION ( 'NONE',  ( 1.224646799147353207E-16, 0.0000000000000000000, 1.000000000000000000 ) ) ;
#289 = ADVANCED_FACE ( 'NONE', ( #235 ), #12, .F. ) ;
#290 = DIRECTION ( 'NONE',  ( -1.224646799147353207E-16, -0.0000000000000000000, -1.000000000000000000 ) ) ;
#291 = AXIS2_PLACEMENT_3D ( 'NONE', #47, #158, #77 ) ;
#292 = ORIENTED_EDGE ( 'NONE', *, *, #150, .F. ) ;
#293 =( NAMED_UNIT ( * ) PLANE_ANGLE_UNIT ( ) SI_UNIT ( $, .RADIAN. ) );
#294 = ORIENTED_EDGE ( 'NONE', *, *, #58, .F. ) ;
#295 = VERTEX_POINT ( 'NONE', #175 ) ;
#296 = AXIS2_PLACEMENT_3D ( 'NONE', #149, #217, #282 ) ;
#297 = ORIENTED_EDGE ( 'NONE', *, *, #98, .T. ) ;
#298 = VERTEX_POINT ( 'NONE', #268 ) ;
#299 = DIRECTION ( 'NONE',  ( -1.224646799147353207E-16, -0.0000000000000000000, -1.000000000000000000 ) ) ;
ENDSEC;
END-ISO-10303-21;
