ISO-10303-21;
HEADER;
FILE_DESCRIPTION (( 'STEP AP214' ),
    '1' );
FILE_NAME ('84626.STEP',
    '2023-06-23T13:56:57',
    ( '' ),
    ( '' ),
    'SwSTEP 2.0',
    'SolidWorks 2023',
    '' );
FILE_SCHEMA (( 'AUTOMOTIVE_DESIGN' ));
ENDSEC;

DATA;
#1 = DIRECTION ( 'NONE',  ( 2.041077998578922341E-16, 1.000000000000000000, -0.000000000000000000 ) ) ;
#2 = FILL_AREA_STYLE_COLOUR ( '', #66 ) ;
#3 =( NAMED_UNIT ( * ) SI_UNIT ( $, .STERADIAN. ) SOLID_ANGLE_UNIT ( ) );
#4 = COLOUR_RGB ( '',1.000000000000000000, 0.000000000000000000, 0.000000000000000000 ) ;
#5 =( NAMED_UNIT ( * ) PLANE_ANGLE_UNIT ( ) SI_UNIT ( $, .RADIAN. ) );
#6 = ORIENTED_EDGE ( 'NONE', *, *, #55, .T. ) ;
#7 = DIRECTION ( 'NONE',  ( -1.000000000000000000, 0.000000000000000000, 0.000000000000000000 ) ) ;
#8 = SURFACE_SIDE_STYLE ('',( #106 ) ) ;
#9 = FACE_OUTER_BOUND ( 'NONE', #257, .T. ) ;
#10 = MANIFOLD_SOLID_BREP ( 'Revolve - Cutting Edge', #307 ) ;
#11 = SURFACE_STYLE_FILL_AREA ( #141 ) ;
#12 = STYLED_ITEM ( 'NONE', ( #269 ), #10 ) ;
#13 = CIRCLE ( 'NONE', #291, 0.06250000000000001388 ) ;
#14 = SURFACE_STYLE_USAGE ( .BOTH. , #181 ) ;
#15 = SURFACE_STYLE_FILL_AREA ( #283 ) ;
#16 = DIMENSIONAL_EXPONENTS ( 1.000000000000000000, 0.000000000000000000, 0.000000000000000000, 0.000000000000000000, 0.000000000000000000, 0.000000000000000000, 0.000000000000000000 ) ;
#17 = DIRECTION ( 'NONE',  ( 2.041077998578922094E-16, 1.000000000000000000, -0.000000000000000000 ) ) ;
#18 = MECHANICAL_DESIGN_GEOMETRIC_PRESENTATION_REPRESENTATION (  '', ( #163 ), #196 ) ;
#19 = CYLINDRICAL_SURFACE ( 'NONE', #116, 0.06250000000000001388 ) ;
#20 = EDGE_CURVE ( 'NONE', #229, #183, #239, .T. ) ;
#21 =( GEOMETRIC_REPRESENTATION_CONTEXT ( 3 ) GLOBAL_UNCERTAINTY_ASSIGNED_CONTEXT ( ( #216 ) ) GLOBAL_UNIT_ASSIGNED_CONTEXT ( ( #243, #73, #264 ) ) REPRESENTATION_CONTEXT ( 'NONE', 'WORKASPACE' ) );
#22 = UNCERTAINTY_MEASURE_WITH_UNIT (LENGTH_MEASURE( 1.000000000000000082E-05 ), #51, 'distance_accuracy_value', 'NONE');
#23 = EDGE_LOOP ( 'NONE', ( #164, #206 ) ) ;
#24 = DIRECTION ( 'NONE',  ( 0.000000000000000000, -0.000000000000000000, 1.000000000000000000 ) ) ;
#25 = CARTESIAN_POINT ( 'NONE',  ( 0.000000000000000000, 0.000000000000000000, 0.000000000000000000 ) ) ;
#26 = ORIENTED_EDGE ( 'NONE', *, *, #99, .F. ) ;
#27 =( LENGTH_UNIT ( ) NAMED_UNIT ( * ) SI_UNIT ( $, .METRE. ) );
#28 = AXIS2_PLACEMENT_3D ( 'NONE', #105, #137, #230 ) ;
#29 = PRESENTATION_LAYER_ASSIGNMENT (  '', '', ( #163 ) ) ;
#30 = VERTEX_POINT ( 'NONE', #275 ) ;
#31 = DIRECTION ( 'NONE',  ( 2.041077998578922341E-16, 1.000000000000000000, -0.000000000000000000 ) ) ;
#32 = VERTEX_POINT ( 'NONE', #65 ) ;
#33 =( CONVERSION_BASED_UNIT ( 'INCH', #79 ) LENGTH_UNIT ( ) NAMED_UNIT ( #202 ) );
#34 = ORIENTED_EDGE ( 'NONE', *, *, #168, .T. ) ;
#35 = ADVANCED_FACE ( 'NONE', ( #238 ), #301, .T. ) ;
#36 = CARTESIAN_POINT ( 'NONE',  ( 3.061616997868383141E-16, 2.500000000000000000, 0.000000000000000000 ) ) ;
#37 = UNCERTAINTY_MEASURE_WITH_UNIT (LENGTH_MEASURE( 1.000000000000000082E-05 ), #149, 'distance_accuracy_value', 'NONE');
#38 = EDGE_CURVE ( 'NONE', #183, #30, #200, .T. ) ;
#39 =( CONVERSION_BASED_UNIT ( 'INCH', #88 ) LENGTH_UNIT ( ) NAMED_UNIT ( #153 ) );
#40 = AXIS2_PLACEMENT_3D ( 'NONE', #197, #224, #41 ) ;
#41 = DIRECTION ( 'NONE',  ( 1.000000000000000000, 0.000000000000000000, 0.000000000000000000 ) ) ;
#42 = APPLICATION_CONTEXT ( 'automotive_design' ) ;
#43 = DIRECTION ( 'NONE',  ( -1.000000000000000000, 0.000000000000000000, 0.000000000000000000 ) ) ;
#44 = EDGE_CURVE ( 'NONE', #246, #32, #272, .T. ) ;
#45 = DIRECTION ( 'NONE',  ( -0.000000000000000000, -1.000000000000000000, -0.000000000000000000 ) ) ;
#46 =( GEOMETRIC_REPRESENTATION_CONTEXT ( 3 ) GLOBAL_UNCERTAINTY_ASSIGNED_CONTEXT ( ( #37 ) ) GLOBAL_UNIT_ASSIGNED_CONTEXT ( ( #149, #290, #75 ) ) REPRESENTATION_CONTEXT ( 'NONE', 'WORKASPACE' ) );
#47 = DIRECTION ( 'NONE',  ( -0.000000000000000000, -1.000000000000000000, -0.000000000000000000 ) ) ;
#48 =( NAMED_UNIT ( * ) PLANE_ANGLE_UNIT ( ) SI_UNIT ( $, .RADIAN. ) );
#49 = PRODUCT_DEFINITION_SHAPE ( 'NONE', 'NONE',  #309 ) ;
#50 = AXIS2_PLACEMENT_3D ( 'NONE', #221, #17, #69 ) ;
#51 =( CONVERSION_BASED_UNIT ( 'INCH', #83 ) LENGTH_UNIT ( ) NAMED_UNIT ( #263 ) );
#52 = CARTESIAN_POINT ( 'NONE',  ( 0.000000000000000000, 1.000000000000000000, -0.06250000000000001388 ) ) ;
#53 = FILL_AREA_STYLE_COLOUR ( '', #71 ) ;
#54 = DIRECTION ( 'NONE',  ( -0.000000000000000000, -1.000000000000000000, -0.000000000000000000 ) ) ;
#55 = EDGE_CURVE ( 'NONE', #30, #183, #212, .T. ) ;
#56 = DIRECTION ( 'NONE',  ( -0.000000000000000000, -1.000000000000000000, -0.000000000000000000 ) ) ;
#57 = DIRECTION ( 'NONE',  ( 0.000000000000000000, 1.000000000000000000, 0.000000000000000000 ) ) ;
#58 = COLOUR_RGB ( '',0.7921568627450980005, 0.8196078431372548767, 0.9333333333333333481 ) ;
#59 = CARTESIAN_POINT ( 'NONE',  ( 0.06250000000000002776, 2.500000000000000000, 7.654042494670951382E-18 ) ) ;
#60 = VERTEX_POINT ( 'NONE', #59 ) ;
#61 = ORIENTED_EDGE ( 'NONE', *, *, #279, .T. ) ;
#62 = FILL_AREA_STYLE_COLOUR ( '', #58 ) ;
#63 = ADVANCED_BREP_SHAPE_REPRESENTATION ( '84626', ( #10, #225, #40 ), #123 ) ;
#64 = COLOUR_RGB ( '',1.000000000000000000, 0.000000000000000000, 0.000000000000000000 ) ;
#65 = CARTESIAN_POINT ( 'NONE',  ( -0.06249999999999940326, 2.500000000000000000, 0.000000000000000000 ) ) ;
#66 = COLOUR_RGB ( '',0.7921568627450980005, 0.8196078431372548767, 0.9333333333333333481 ) ;
#67 = AXIS2_PLACEMENT_3D ( 'NONE', #199, #266, #226 ) ;
#68 =( GEOMETRIC_REPRESENTATION_CONTEXT ( 3 ) GLOBAL_UNCERTAINTY_ASSIGNED_CONTEXT ( ( #82 ) ) GLOBAL_UNIT_ASSIGNED_CONTEXT ( ( #89, #178, #3 ) ) REPRESENTATION_CONTEXT ( 'NONE', 'WORKASPACE' ) );
#69 = DIRECTION ( 'NONE',  ( -1.000000000000000000, 0.000000000000000000, 0.000000000000000000 ) ) ;
#70 = SHAPE_DEFINITION_REPRESENTATION ( #49, #63 ) ;
#71 = COLOUR_RGB ( '',1.000000000000000000, 0.000000000000000000, 0.000000000000000000 ) ;
#72 = PRESENTATION_LAYER_ASSIGNMENT (  '', '', ( #213 ) ) ;
#73 =( NAMED_UNIT ( * ) PLANE_ANGLE_UNIT ( ) SI_UNIT ( $, .RADIAN. ) );
#74 =( LENGTH_UNIT ( ) NAMED_UNIT ( * ) SI_UNIT ( $, .METRE. ) );
#75 =( NAMED_UNIT ( * ) SI_UNIT ( $, .STERADIAN. ) SOLID_ANGLE_UNIT ( ) );
#76 = CARTESIAN_POINT ( 'NONE',  ( 0.06250000000000016653, 2.500000000000000000, 7.654042494670940597E-18 ) ) ;
#77 =( NAMED_UNIT ( * ) SI_UNIT ( $, .STERADIAN. ) SOLID_ANGLE_UNIT ( ) );
#78 = ADVANCED_FACE ( 'NONE', ( #256 ), #111, .F. ) ;
#79 = LENGTH_MEASURE_WITH_UNIT ( LENGTH_MEASURE( 0.02539999999999999897 ), #27 );
#80 = CARTESIAN_POINT ( 'NONE',  ( 0.000000000000000000, 0.000000000000000000, 0.000000000000000000 ) ) ;
#81 = ORIENTED_EDGE ( 'NONE', *, *, #20, .F. ) ;
#82 = UNCERTAINTY_MEASURE_WITH_UNIT (LENGTH_MEASURE( 1.000000000000000082E-05 ), #89, 'distance_accuracy_value', 'NONE');
#83 = LENGTH_MEASURE_WITH_UNIT ( LENGTH_MEASURE( 0.02539999999999999897 ), #249 );
#84 = ORIENTED_EDGE ( 'NONE', *, *, #248, .T. ) ;
#85 = PRESENTATION_STYLE_ASSIGNMENT (( #14 ) ) ;
#86 = STYLED_ITEM ( 'NONE', ( #228 ), #148 ) ;
#87 = FACE_OUTER_BOUND ( 'NONE', #271, .T. ) ;
#88 = LENGTH_MEASURE_WITH_UNIT ( LENGTH_MEASURE( 0.02539999999999999897 ), #292 );
#89 =( CONVERSION_BASED_UNIT ( 'INCH', #214 ) LENGTH_UNIT ( ) NAMED_UNIT ( #16 ) );
#90 = ORIENTED_EDGE ( 'NONE', *, *, #44, .F. ) ;
#91 = ADVANCED_FACE ( 'NONE', ( #158 ), #179, .T. ) ;
#92 = VECTOR ( 'NONE', #31, 39.37007874015748143 ) ;
#93 = UNCERTAINTY_MEASURE_WITH_UNIT (LENGTH_MEASURE( 1.000000000000000082E-05 ), #33, 'distance_accuracy_value', 'NONE');
#94 = VECTOR ( 'NONE', #45, 39.37007874015748143 ) ;
#95 = FILL_AREA_STYLE_COLOUR ( '', #64 ) ;
#96 = CARTESIAN_POINT ( 'NONE',  ( 1.301874811338418519E-33, 1.000000000000000000, 0.000000000000000000 ) ) ;
#97 = DIRECTION ( 'NONE',  ( 2.041077998578922094E-16, 1.000000000000000000, -0.000000000000000000 ) ) ;
#98 = CARTESIAN_POINT ( 'NONE',  ( 7.654042494670959086E-18, 0.000000000000000000, 0.06250000000000001388 ) ) ;
#99 = EDGE_CURVE ( 'NONE', #117, #60, #298, .T. ) ;
#100 = SURFACE_STYLE_FILL_AREA ( #152 ) ;
#101 = PLANE ( 'NONE',  #147 ) ;
#102 = DIRECTION ( 'NONE',  ( 0.000000000000000000, -1.000000000000000000, -0.000000000000000000 ) ) ;
#103 = DIMENSIONAL_EXPONENTS ( 1.000000000000000000, 0.000000000000000000, 0.000000000000000000, 0.000000000000000000, 0.000000000000000000, 0.000000000000000000, 0.000000000000000000 ) ;
#104 = LENGTH_MEASURE_WITH_UNIT ( LENGTH_MEASURE( 0.02539999999999999897 ), #74 );
#105 = CARTESIAN_POINT ( 'NONE',  ( 3.061616997868383141E-16, 2.500000000000000000, 0.000000000000000000 ) ) ;
#106 = SURFACE_STYLE_FILL_AREA ( #185 ) ;
#107 = MECHANICAL_DESIGN_GEOMETRIC_PRESENTATION_REPRESENTATION (  '', ( #242 ), #46 ) ;
#108 = DIRECTION ( 'NONE',  ( 2.041077998578922094E-16, 1.000000000000000000, -0.000000000000000000 ) ) ;
#109 = DIRECTION ( 'NONE',  ( -0.000000000000000000, -1.000000000000000000, -0.000000000000000000 ) ) ;
#110 = ORIENTED_EDGE ( 'NONE', *, *, #188, .F. ) ;
#111 = PLANE ( 'NONE',  #217 ) ;
#112 = SURFACE_STYLE_USAGE ( .BOTH. , #8 ) ;
#113 = SURFACE_STYLE_FILL_AREA ( #293 ) ;
#114 = AXIS2_PLACEMENT_3D ( 'NONE', #80, #109, #129 ) ;
#115 =( LENGTH_UNIT ( ) NAMED_UNIT ( * ) SI_UNIT ( $, .METRE. ) );
#116 = AXIS2_PLACEMENT_3D ( 'NONE', #173, #47, #127 ) ;
#117 = VERTEX_POINT ( 'NONE', #203 ) ;
#118 = UNCERTAINTY_MEASURE_WITH_UNIT (LENGTH_MEASURE( 1.000000000000000082E-05 ), #284, 'distance_accuracy_value', 'NONE');
#119 = PRESENTATION_LAYER_ASSIGNMENT (  '', '', ( #253 ) ) ;
#120 = CIRCLE ( 'NONE', #144, 0.06250000000000001388 ) ;
#121 = CARTESIAN_POINT ( 'NONE',  ( 0.000000000000000000, 1.000000000000000000, 0.000000000000000000 ) ) ;
#122 = CARTESIAN_POINT ( 'NONE',  ( -0.06250000000000001388, 1.000000000000000000, 0.000000000000000000 ) ) ;
#123 =( GEOMETRIC_REPRESENTATION_CONTEXT ( 3 ) GLOBAL_UNCERTAINTY_ASSIGNED_CONTEXT ( ( #118 ) ) GLOBAL_UNIT_ASSIGNED_CONTEXT ( ( #284, #48, #169 ) ) REPRESENTATION_CONTEXT ( 'NONE', 'WORKASPACE' ) );
#124 = APPLICATION_PROTOCOL_DEFINITION ( 'draft international standard', 'automotive_design', 1998, #42 ) ;
#125 = PRESENTATION_LAYER_ASSIGNMENT (  '', '', ( #242 ) ) ;
#126 = CIRCLE ( 'NONE', #67, 0.06250000000000001388 ) ;
#127 = DIRECTION ( 'NONE',  ( 0.000000000000000000, 0.000000000000000000, -1.000000000000000000 ) ) ;
#128 = FACE_OUTER_BOUND ( 'NONE', #140, .T. ) ;
#129 = DIRECTION ( 'NONE',  ( 0.000000000000000000, 0.000000000000000000, -1.000000000000000000 ) ) ;
#130 = ORIENTED_EDGE ( 'NONE', *, *, #193, .T. ) ;
#131 = DIRECTION ( 'NONE',  ( -0.000000000000000000, -1.000000000000000000, -0.000000000000000000 ) ) ;
#132 = PRODUCT ( '84626', '84626', '', ( #222 ) ) ;
#133 = ORIENTED_EDGE ( 'NONE', *, *, #99, .T. ) ;
#134 = VECTOR ( 'NONE', #146, 39.37007874015748143 ) ;
#135 = MECHANICAL_DESIGN_GEOMETRIC_PRESENTATION_REPRESENTATION (  '', ( #86 ), #21 ) ;
#136 =( NAMED_UNIT ( * ) PLANE_ANGLE_UNIT ( ) SI_UNIT ( $, .RADIAN. ) );
#137 = DIRECTION ( 'NONE',  ( 2.041077998578922094E-16, 1.000000000000000000, -0.000000000000000000 ) ) ;
#138 = ORIENTED_EDGE ( 'NONE', *, *, #55, .F. ) ;
#139 = FILL_AREA_STYLE ('',( #53 ) ) ;
#140 = EDGE_LOOP ( 'NONE', ( #180, #34, #142, #138 ) ) ;
#141 = FILL_AREA_STYLE ('',( #62 ) ) ;
#142 = ORIENTED_EDGE ( 'NONE', *, *, #20, .T. ) ;
#143 =( NAMED_UNIT ( * ) SI_UNIT ( $, .STERADIAN. ) SOLID_ANGLE_UNIT ( ) );
#144 = AXIS2_PLACEMENT_3D ( 'NONE', #166, #54, #187 ) ;
#145 = ADVANCED_FACE ( 'NONE', ( #87 ), #208, .T. ) ;
#146 = DIRECTION ( 'NONE',  ( -0.000000000000000000, -1.000000000000000000, -0.000000000000000000 ) ) ;
#147 = AXIS2_PLACEMENT_3D ( 'NONE', #121, #57, #24 ) ;
#148 = ADVANCED_FACE ( 'NONE', ( #128 ), #19, .T. ) ;
#149 =( CONVERSION_BASED_UNIT ( 'INCH', #241 ) LENGTH_UNIT ( ) NAMED_UNIT ( #170 ) );
#150 = DIRECTION ( 'NONE',  ( 2.041077998578922341E-16, 1.000000000000000000, -0.000000000000000000 ) ) ;
#151 = DIRECTION ( 'NONE',  ( -1.000000000000000000, 2.041077998578922341E-16, 0.000000000000000000 ) ) ;
#152 = FILL_AREA_STYLE ('',( #245 ) ) ;
#153 = DIMENSIONAL_EXPONENTS ( 1.000000000000000000, 0.000000000000000000, 0.000000000000000000, 0.000000000000000000, 0.000000000000000000, 0.000000000000000000, 0.000000000000000000 ) ;
#154 = AXIS2_PLACEMENT_3D ( 'NONE', #236, #251, #7 ) ;
#155 = UNCERTAINTY_MEASURE_WITH_UNIT (LENGTH_MEASURE( 1.000000000000000082E-05 ), #39, 'distance_accuracy_value', 'NONE');
#156 = AXIS2_PLACEMENT_3D ( 'NONE', #25, #56, #177 ) ;
#157 = COLOUR_RGB ( '',1.000000000000000000, 0.000000000000000000, 0.000000000000000000 ) ;
#158 = FACE_OUTER_BOUND ( 'NONE', #209, .T. ) ;
#159 = FACE_OUTER_BOUND ( 'NONE', #204, .T. ) ;
#160 = CARTESIAN_POINT ( 'NONE',  ( 0.000000000000000000, 0.000000000000000000, 0.000000000000000000 ) ) ;
#161 = PRESENTATION_STYLE_ASSIGNMENT (( #268 ) ) ;
#162 = EDGE_LOOP ( 'NONE', ( #61, #258 ) ) ;
#163 = STYLED_ITEM ( 'NONE', ( #85 ), #172 ) ;
#164 = ORIENTED_EDGE ( 'NONE', *, *, #176, .F. ) ;
#165 = ORIENTED_EDGE ( 'NONE', *, *, #176, .T. ) ;
#166 = CARTESIAN_POINT ( 'NONE',  ( 0.000000000000000000, 1.000000000000000000, 0.000000000000000000 ) ) ;
#167 = PRESENTATION_LAYER_ASSIGNMENT (  '', '', ( #12 ) ) ;
#168 = EDGE_CURVE ( 'NONE', #254, #229, #126, .T. ) ;
#169 =( NAMED_UNIT ( * ) SI_UNIT ( $, .STERADIAN. ) SOLID_ANGLE_UNIT ( ) );
#170 = DIMENSIONAL_EXPONENTS ( 1.000000000000000000, 0.000000000000000000, 0.000000000000000000, 0.000000000000000000, 0.000000000000000000, 0.000000000000000000, 0.000000000000000000 ) ;
#171 = CARTESIAN_POINT ( 'NONE',  ( 0.000000000000000000, 0.000000000000000000, -0.06250000000000001388 ) ) ;
#172 = ADVANCED_FACE ( 'NONE', ( #308 ), #101, .T. ) ;
#173 = CARTESIAN_POINT ( 'NONE',  ( 0.000000000000000000, 0.000000000000000000, 0.000000000000000000 ) ) ;
#174 = AXIS2_PLACEMENT_3D ( 'NONE', #194, #97, #43 ) ;
#175 = CARTESIAN_POINT ( 'NONE',  ( 0.000000000000000000, 0.000000000000000000, 0.000000000000000000 ) ) ;
#176 = EDGE_CURVE ( 'NONE', #229, #254, #120, .T. ) ;
#177 = DIRECTION ( 'NONE',  ( 0.000000000000000000, 0.000000000000000000, -1.000000000000000000 ) ) ;
#178 =( NAMED_UNIT ( * ) PLANE_ANGLE_UNIT ( ) SI_UNIT ( $, .RADIAN. ) );
#179 = CYLINDRICAL_SURFACE ( 'NONE', #28, 0.06249999999999986122 ) ;
#180 = ORIENTED_EDGE ( 'NONE', *, *, #248, .F. ) ;
#181 = SURFACE_SIDE_STYLE ('',( #113 ) ) ;
#182 = DIRECTION ( 'NONE',  ( -2.041077998578922341E-16, -1.000000000000000000, 0.000000000000000000 ) ) ;
#183 = VERTEX_POINT ( 'NONE', #205 ) ;
#184 = DIRECTION ( 'NONE',  ( 0.000000000000000000, 0.000000000000000000, -1.000000000000000000 ) ) ;
#185 = FILL_AREA_STYLE ('',( #2 ) ) ;
#186 = CIRCLE ( 'NONE', #50, 0.06250000000000001388 ) ;
#187 = DIRECTION ( 'NONE',  ( 0.000000000000000000, 0.000000000000000000, -1.000000000000000000 ) ) ;
#188 = EDGE_CURVE ( 'NONE', #60, #32, #218, .T. ) ;
#189 = ORIENTED_EDGE ( 'NONE', *, *, #193, .F. ) ;
#190 = PRESENTATION_STYLE_ASSIGNMENT (( #192 ) ) ;
#191 =( GEOMETRIC_REPRESENTATION_CONTEXT ( 3 ) GLOBAL_UNCERTAINTY_ASSIGNED_CONTEXT ( ( #155 ) ) GLOBAL_UNIT_ASSIGNED_CONTEXT ( ( #39, #219, #220 ) ) REPRESENTATION_CONTEXT ( 'NONE', 'WORKASPACE' ) );
#192 = SURFACE_STYLE_USAGE ( .BOTH. , #259 ) ;
#193 = EDGE_CURVE ( 'NONE', #246, #117, #13, .T. ) ;
#194 = CARTESIAN_POINT ( 'NONE',  ( 3.061616997868383141E-16, 2.500000000000000000, 0.000000000000000000 ) ) ;
#195 = VECTOR ( 'NONE', #1, 39.37007874015748143 ) ;
#196 =( GEOMETRIC_REPRESENTATION_CONTEXT ( 3 ) GLOBAL_UNCERTAINTY_ASSIGNED_CONTEXT ( ( #93 ) ) GLOBAL_UNIT_ASSIGNED_CONTEXT ( ( #33, #136, #143 ) ) REPRESENTATION_CONTEXT ( 'NONE', 'WORKASPACE' ) );
#197 = CARTESIAN_POINT ( 'NONE',  ( 0.000000000000000000, 0.000000000000000000, 0.000000000000000000 ) ) ;
#198 = SURFACE_SIDE_STYLE ('',( #100 ) ) ;
#199 = CARTESIAN_POINT ( 'NONE',  ( 0.000000000000000000, 1.000000000000000000, 0.000000000000000000 ) ) ;
#200 = CIRCLE ( 'NONE', #281, 0.06250000000000001388 ) ;
#201 = ADVANCED_FACE ( 'NONE', ( #9 ), #274, .T. ) ;
#202 = DIMENSIONAL_EXPONENTS ( 1.000000000000000000, 0.000000000000000000, 0.000000000000000000, 0.000000000000000000, 0.000000000000000000, 0.000000000000000000, 0.000000000000000000 ) ;
#203 = CARTESIAN_POINT ( 'NONE',  ( 0.06250000000000002776, 1.000000000000000000, 7.654042494670951382E-18 ) ) ;
#204 = EDGE_LOOP ( 'NONE', ( #189, #232 ) ) ;
#205 = CARTESIAN_POINT ( 'NONE',  ( 0.000000000000000000, 0.000000000000000000, -0.06250000000000001388 ) ) ;
#206 = ORIENTED_EDGE ( 'NONE', *, *, #168, .F. ) ;
#207 = PRESENTATION_STYLE_ASSIGNMENT (( #247 ) ) ;
#208 = PLANE ( 'NONE',  #282 ) ;
#209 = EDGE_LOOP ( 'NONE', ( #26, #233, #215, #110 ) ) ;
#210 = DIRECTION ( 'NONE',  ( 2.041077998578922094E-16, 1.000000000000000000, -0.000000000000000000 ) ) ;
#211 = DIRECTION ( 'NONE',  ( 1.000000000000000000, -2.041077998578922341E-16, 0.000000000000000000 ) ) ;
#212 = CIRCLE ( 'NONE', #156, 0.06250000000000001388 ) ;
#213 = STYLED_ITEM ( 'NONE', ( #207 ), #225 ) ;
#214 = LENGTH_MEASURE_WITH_UNIT ( LENGTH_MEASURE( 0.02539999999999999897 ), #115 );
#215 = ORIENTED_EDGE ( 'NONE', *, *, #44, .T. ) ;
#216 = UNCERTAINTY_MEASURE_WITH_UNIT (LENGTH_MEASURE( 1.000000000000000082E-05 ), #243, 'distance_accuracy_value', 'NONE');
#217 = AXIS2_PLACEMENT_3D ( 'NONE', #235, #182, #211 ) ;
#218 = CIRCLE ( 'NONE', #231, 0.06249999999999970857 ) ;
#219 =( NAMED_UNIT ( * ) PLANE_ANGLE_UNIT ( ) SI_UNIT ( $, .RADIAN. ) );
#220 =( NAMED_UNIT ( * ) SI_UNIT ( $, .STERADIAN. ) SOLID_ANGLE_UNIT ( ) );
#221 = CARTESIAN_POINT ( 'NONE',  ( -6.065921084684207584E-32, 1.000000000000000000, 0.000000000000000000 ) ) ;
#222 = PRODUCT_CONTEXT ( 'NONE', #42, 'mechanical' ) ;
#223 = DIMENSIONAL_EXPONENTS ( 1.000000000000000000, 0.000000000000000000, 0.000000000000000000, 0.000000000000000000, 0.000000000000000000, 0.000000000000000000, 0.000000000000000000 ) ;
#224 = DIRECTION ( 'NONE',  ( 0.000000000000000000, 0.000000000000000000, 1.000000000000000000 ) ) ;
#225 = MANIFOLD_SOLID_BREP ( 'Revolve - Tool Body (Straight Shanked)', #261 ) ;
#226 = DIRECTION ( 'NONE',  ( 0.000000000000000000, 0.000000000000000000, -1.000000000000000000 ) ) ;
#227 = FILL_AREA_STYLE_COLOUR ( '', #4 ) ;
#228 = PRESENTATION_STYLE_ASSIGNMENT (( #286 ) ) ;
#229 = VERTEX_POINT ( 'NONE', #52 ) ;
#230 = DIRECTION ( 'NONE',  ( -1.000000000000000000, 0.000000000000000000, 0.000000000000000000 ) ) ;
#231 = AXIS2_PLACEMENT_3D ( 'NONE', #36, #210, #302 ) ;
#232 = ORIENTED_EDGE ( 'NONE', *, *, #303, .F. ) ;
#233 = ORIENTED_EDGE ( 'NONE', *, *, #303, .T. ) ;
#234 = APPLICATION_CONTEXT ( 'automotive_design' ) ;
#235 = CARTESIAN_POINT ( 'NONE',  ( 0.06250000000000001388, 2.500000000000000000, 0.000000000000000000 ) ) ;
#236 = CARTESIAN_POINT ( 'NONE',  ( 3.061616997868383141E-16, 2.500000000000000000, 0.000000000000000000 ) ) ;
#237 = ADVANCED_FACE ( 'NONE', ( #159 ), #297, .F. ) ;
#238 = FACE_OUTER_BOUND ( 'NONE', #296, .T. ) ;
#239 = LINE ( 'NONE', #171, #134 ) ;
#240 = MECHANICAL_DESIGN_GEOMETRIC_PRESENTATION_REPRESENTATION (  '', ( #12 ), #191 ) ;
#241 = LENGTH_MEASURE_WITH_UNIT ( LENGTH_MEASURE( 0.02539999999999999897 ), #262 );
#242 = STYLED_ITEM ( 'NONE', ( #190 ), #35 ) ;
#243 =( CONVERSION_BASED_UNIT ( 'INCH', #104 ) LENGTH_UNIT ( ) NAMED_UNIT ( #103 ) );
#244 = AXIS2_PLACEMENT_3D ( 'NONE', #96, #150, #151 ) ;
#245 = FILL_AREA_STYLE_COLOUR ( '', #157 ) ;
#246 = VERTEX_POINT ( 'NONE', #122 ) ;
#247 = SURFACE_STYLE_USAGE ( .BOTH. , #255 ) ;
#248 = EDGE_CURVE ( 'NONE', #254, #30, #278, .T. ) ;
#249 =( LENGTH_UNIT ( ) NAMED_UNIT ( * ) SI_UNIT ( $, .METRE. ) );
#250 = ORIENTED_EDGE ( 'NONE', *, *, #38, .T. ) ;
#251 = DIRECTION ( 'NONE',  ( 2.041077998578922094E-16, 1.000000000000000000, -0.000000000000000000 ) ) ;
#252 = SURFACE_STYLE_FILL_AREA ( #139 ) ;
#253 = STYLED_ITEM ( 'NONE', ( #161 ), #145 ) ;
#254 = VERTEX_POINT ( 'NONE', #287 ) ;
#255 = SURFACE_SIDE_STYLE ('',( #11 ) ) ;
#256 = FACE_OUTER_BOUND ( 'NONE', #162, .T. ) ;
#257 = EDGE_LOOP ( 'NONE', ( #130, #133, #300, #90 ) ) ;
#258 = ORIENTED_EDGE ( 'NONE', *, *, #188, .T. ) ;
#259 = SURFACE_SIDE_STYLE ('',( #15 ) ) ;
#260 = PRODUCT_DEFINITION_CONTEXT ( 'detailed design', #234, 'design' ) ;
#261 = CLOSED_SHELL ( 'NONE', ( #201, #237, #91, #78 ) ) ;
#262 =( LENGTH_UNIT ( ) NAMED_UNIT ( * ) SI_UNIT ( $, .METRE. ) );
#263 = DIMENSIONAL_EXPONENTS ( 1.000000000000000000, 0.000000000000000000, 0.000000000000000000, 0.000000000000000000, 0.000000000000000000, 0.000000000000000000, 0.000000000000000000 ) ;
#264 =( NAMED_UNIT ( * ) SI_UNIT ( $, .STERADIAN. ) SOLID_ANGLE_UNIT ( ) );
#265 =( GEOMETRIC_REPRESENTATION_CONTEXT ( 3 ) GLOBAL_UNCERTAINTY_ASSIGNED_CONTEXT ( ( #22 ) ) GLOBAL_UNIT_ASSIGNED_CONTEXT ( ( #51, #5, #77 ) ) REPRESENTATION_CONTEXT ( 'NONE', 'WORKASPACE' ) );
#266 = DIRECTION ( 'NONE',  ( -0.000000000000000000, -1.000000000000000000, -0.000000000000000000 ) ) ;
#267 = DIRECTION ( 'NONE',  ( -1.000000000000000000, 0.000000000000000000, 0.000000000000000000 ) ) ;
#268 = SURFACE_STYLE_USAGE ( .BOTH. , #270 ) ;
#269 = PRESENTATION_STYLE_ASSIGNMENT (( #112 ) ) ;
#270 = SURFACE_SIDE_STYLE ('',( #252 ) ) ;
#271 = EDGE_LOOP ( 'NONE', ( #250, #6 ) ) ;
#272 = LINE ( 'NONE', #295, #195 ) ;
#273 = CIRCLE ( 'NONE', #174, 0.06249999999999970857 ) ;
#274 = CYLINDRICAL_SURFACE ( 'NONE', #154, 0.06249999999999986122 ) ;
#275 = CARTESIAN_POINT ( 'NONE',  ( 7.654042494670959086E-18, 0.000000000000000000, 0.06250000000000001388 ) ) ;
#276 = CARTESIAN_POINT ( 'NONE',  ( -6.065921084684207584E-32, 1.000000000000000000, 0.000000000000000000 ) ) ;
#277 = ORIENTED_EDGE ( 'NONE', *, *, #38, .F. ) ;
#278 = LINE ( 'NONE', #98, #94 ) ;
#279 = EDGE_CURVE ( 'NONE', #32, #60, #273, .T. ) ;
#280 =( LENGTH_UNIT ( ) NAMED_UNIT ( * ) SI_UNIT ( $, .METRE. ) );
#281 = AXIS2_PLACEMENT_3D ( 'NONE', #160, #131, #184 ) ;
#282 = AXIS2_PLACEMENT_3D ( 'NONE', #175, #102, #306 ) ;
#283 = FILL_AREA_STYLE ('',( #95 ) ) ;
#284 =( CONVERSION_BASED_UNIT ( 'INCH', #304 ) LENGTH_UNIT ( ) NAMED_UNIT ( #223 ) );
#285 = APPLICATION_PROTOCOL_DEFINITION ( 'draft international standard', 'automotive_design', 1998, #234 ) ;
#286 = SURFACE_STYLE_USAGE ( .BOTH. , #198 ) ;
#287 = CARTESIAN_POINT ( 'NONE',  ( 7.654042494670959086E-18, 1.000000000000000000, 0.06250000000000001388 ) ) ;
#288 = MECHANICAL_DESIGN_GEOMETRIC_PRESENTATION_REPRESENTATION (  '', ( #253 ), #265 ) ;
#289 = MECHANICAL_DESIGN_GEOMETRIC_PRESENTATION_REPRESENTATION (  '', ( #213 ), #68 ) ;
#290 =( NAMED_UNIT ( * ) PLANE_ANGLE_UNIT ( ) SI_UNIT ( $, .RADIAN. ) );
#291 = AXIS2_PLACEMENT_3D ( 'NONE', #276, #108, #267 ) ;
#292 =( LENGTH_UNIT ( ) NAMED_UNIT ( * ) SI_UNIT ( $, .METRE. ) );
#293 = FILL_AREA_STYLE ('',( #227 ) ) ;
#294 = PRODUCT_RELATED_PRODUCT_CATEGORY ( 'part', '', ( #132 ) ) ;
#295 = CARTESIAN_POINT ( 'NONE',  ( -0.06249999999999955591, 2.500000000000000000, 0.000000000000000000 ) ) ;
#296 = EDGE_LOOP ( 'NONE', ( #165, #84, #277, #81 ) ) ;
#297 = PLANE ( 'NONE',  #244 ) ;
#298 = LINE ( 'NONE', #76, #92 ) ;
#299 = PRESENTATION_LAYER_ASSIGNMENT (  '', '', ( #86 ) ) ;
#300 = ORIENTED_EDGE ( 'NONE', *, *, #279, .F. ) ;
#301 = CYLINDRICAL_SURFACE ( 'NONE', #114, 0.06250000000000001388 ) ;
#302 = DIRECTION ( 'NONE',  ( -1.000000000000000000, 0.000000000000000000, 0.000000000000000000 ) ) ;
#303 = EDGE_CURVE ( 'NONE', #117, #246, #186, .T. ) ;
#304 = LENGTH_MEASURE_WITH_UNIT ( LENGTH_MEASURE( 0.02539999999999999897 ), #280 );
#305 = PRODUCT_DEFINITION_FORMATION_WITH_SPECIFIED_SOURCE ( 'ANY', '', #132, .NOT_KNOWN. ) ;
#306 = DIRECTION ( 'NONE',  ( 0.000000000000000000, 0.000000000000000000, -1.000000000000000000 ) ) ;
#307 = CLOSED_SHELL ( 'NONE', ( #35, #172, #148, #145 ) ) ;
#308 = FACE_OUTER_BOUND ( 'NONE', #23, .T. ) ;
#309 = PRODUCT_DEFINITION ( 'UNKNOWN', '', #305, #260 ) ;
ENDSEC;
END-ISO-10303-21;
