ISO-10303-21;
HEADER;
FILE_DESCRIPTION (( 'STEP AP214' ),
    '1' );
FILE_NAME ('Micro_DM-187-490X.STEP',
    '2021-09-02T16:00:28',
    ( '' ),
    ( '' ),
    'SwSTEP 2.0',
    'SolidWorks 2020',
    '' );
FILE_SCHEMA (( 'AUTOMOTIVE_DESIGN' ));
ENDSEC;

DATA;
#1 = ORIENTED_EDGE ( 'NONE', *, *, #286, .T. ) ;
#2 = CIRCLE ( 'NONE', #213, 0.09375000000000001388 ) ;
#3 = ORIENTED_EDGE ( 'NONE', *, *, #275, .T. ) ;
#4 = DIRECTION ( 'NONE',  ( 0.0000000000000000000, 0.0000000000000000000, -1.000000000000000000 ) ) ;
#5 = DIRECTION ( 'NONE',  ( -1.000000000000000000, 0.0000000000000000000, 0.0000000000000000000 ) ) ;
#6 = DIRECTION ( 'NONE',  ( -0.0000000000000000000, -0.0000000000000000000, -1.000000000000000000 ) ) ;
#7 = ORIENTED_EDGE ( 'NONE', *, *, #69, .F. ) ;
#8 = DIRECTION ( 'NONE',  ( 0.0000000000000000000, 0.0000000000000000000, 1.000000000000000000 ) ) ;
#9 = VERTEX_POINT ( 'NONE', #148 ) ;
#10 = DIRECTION ( 'NONE',  ( 1.000000000000000000, 0.0000000000000000000, -0.0000000000000000000 ) ) ;
#11 = CYLINDRICAL_SURFACE ( 'NONE', #23, 0.09375000000000001388 ) ;
#12 = PRESENTATION_STYLE_ASSIGNMENT (( #217 ) ) ;
#13 = PRODUCT_DEFINITION ( 'UNKNOWN', '', #253, #328 ) ;
#14 = SURFACE_SIDE_STYLE ('',( #89 ) ) ;
#15 = CYLINDRICAL_SURFACE ( 'NONE', #317, 0.09370000000000004714 ) ;
#16 = SHAPE_DEFINITION_REPRESENTATION ( #211, #256 ) ;
#17 = ORIENTED_EDGE ( 'NONE', *, *, #40, .T. ) ;
#18 = UNCERTAINTY_MEASURE_WITH_UNIT (LENGTH_MEASURE( 1.000000000000000082E-05 ), #214, 'distance_accuracy_value', 'NONE');
#19 = EDGE_LOOP ( 'NONE', ( #45, #26, #176, #304 ) ) ;
#20 = VERTEX_POINT ( 'NONE', #28 ) ;
#21 = EDGE_LOOP ( 'NONE', ( #248, #179 ) ) ;
#22 = CARTESIAN_POINT ( 'NONE',  ( 0.07874999999999980627, 1.056257864264590573E-17, 2.000000000000000000 ) ) ;
#23 = AXIS2_PLACEMENT_3D ( 'NONE', #212, #319, #86 ) ;
#24 = STYLED_ITEM ( 'NONE', ( #12 ), #256 ) ;
#25 = DIRECTION ( 'NONE',  ( -0.0000000000000000000, -0.0000000000000000000, -1.000000000000000000 ) ) ;
#26 = ORIENTED_EDGE ( 'NONE', *, *, #242, .T. ) ;
#27 = DIRECTION ( 'NONE',  ( 0.0000000000000000000, 0.0000000000000000000, 1.000000000000000000 ) ) ;
#28 = CARTESIAN_POINT ( 'NONE',  ( -0.07874999999999980627, 0.0000000000000000000, 2.000000000000000000 ) ) ;
#29 = VECTOR ( 'NONE', #292, 39.37007874015748143 ) ;
#30 = CARTESIAN_POINT ( 'NONE',  ( 0.007499999999999999722, 0.0000000000000000000, 1.707404996040164512E-17 ) ) ;
#31 = VECTOR ( 'NONE', #285, 39.37007874015748143 ) ;
#32 = FILL_AREA_STYLE_COLOUR ( '', #131 ) ;
#33 = CARTESIAN_POINT ( 'NONE',  ( -0.07874999999999980627, 0.0000000000000000000, 2.000000000000000000 ) ) ;
#34 = EDGE_CURVE ( 'NONE', #117, #9, #2, .T. ) ;
#35 = DIRECTION ( 'NONE',  ( -1.000000000000000000, 0.0000000000000000000, 0.0000000000000000000 ) ) ;
#36 = LINE ( 'NONE', #207, #29 ) ;
#37 = CIRCLE ( 'NONE', #184, 0.09370000000000001938 ) ;
#38 = DIRECTION ( 'NONE',  ( 0.0000000000000000000, 0.0000000000000000000, 1.000000000000000000 ) ) ;
#39 = LENGTH_MEASURE_WITH_UNIT ( LENGTH_MEASURE( 0.02539999999999999897 ), #266 );
#40 = EDGE_CURVE ( 'NONE', #121, #94, #201, .T. ) ;
#41 = LENGTH_MEASURE_WITH_UNIT ( LENGTH_MEASURE( 0.02539999999999999897 ), #233 );
#42 = CIRCLE ( 'NONE', #84, 0.007499999999999999722 ) ;
#43 = PRODUCT_CONTEXT ( 'NONE', #258, 'mechanical' ) ;
#44 = CONICAL_SURFACE ( 'NONE', #161, 0.07874999999999980627, 0.7853981633974466137 ) ;
#45 = ORIENTED_EDGE ( 'NONE', *, *, #46, .F. ) ;
#46 = EDGE_CURVE ( 'NONE', #279, #142, #226, .T. ) ;
#47 = UNCERTAINTY_MEASURE_WITH_UNIT (LENGTH_MEASURE( 1.000000000000000082E-05 ), #243, 'distance_accuracy_value', 'NONE');
#48 = ORIENTED_EDGE ( 'NONE', *, *, #92, .F. ) ;
#49 = DIRECTION ( 'NONE',  ( -1.000000000000000000, 0.0000000000000000000, 0.0000000000000000000 ) ) ;
#50 = DIMENSIONAL_EXPONENTS ( 1.000000000000000000, 0.0000000000000000000, 0.0000000000000000000, 0.0000000000000000000, 0.0000000000000000000, 0.0000000000000000000, 0.0000000000000000000 ) ;
#51 = CARTESIAN_POINT ( 'NONE',  ( 0.0000000000000000000, 0.0000000000000000000, 0.6250000000000000000 ) ) ;
#52 = CIRCLE ( 'NONE', #276, 0.07874999999999980627 ) ;
#53 = AXIS2_PLACEMENT_3D ( 'NONE', #177, #85, #56 ) ;
#54 = DIRECTION ( 'NONE',  ( -1.000000000000000000, 0.0000000000000000000, 0.0000000000000000000 ) ) ;
#55 = ORIENTED_EDGE ( 'NONE', *, *, #92, .T. ) ;
#56 = DIRECTION ( 'NONE',  ( 1.000000000000000000, 0.0000000000000000000, 0.0000000000000000000 ) ) ;
#57 = EDGE_LOOP ( 'NONE', ( #198, #7, #141, #329 ) ) ;
#58 = CARTESIAN_POINT ( 'NONE',  ( 0.0000000000000000000, 0.0000000000000000000, 0.08619999999999966578 ) ) ;
#59 = CARTESIAN_POINT ( 'NONE',  ( -0.007499999999999999722, 6.196712803685606757E-18, 1.707404996040164512E-17 ) ) ;
#60 = AXIS2_PLACEMENT_3D ( 'NONE', #61, #27, #316 ) ;
#61 = CARTESIAN_POINT ( 'NONE',  ( 0.0000000000000000000, 0.0000000000000000000, 1.707404996040164512E-17 ) ) ;
#62 = DIRECTION ( 'NONE',  ( 0.7071067811865463515, 8.659560562354916834E-17, -0.7071067811865486830 ) ) ;
#63 = CARTESIAN_POINT ( 'NONE',  ( -0.09370000000000004714, 0.0000000000000000000, 0.0000000000000000000 ) ) ;
#64 = CARTESIAN_POINT ( 'NONE',  ( 0.0000000000000000000, 0.0000000000000000000, 0.0000000000000000000 ) ) ;
#65 = SURFACE_SIDE_STYLE ('',( #130 ) ) ;
#66 = LENGTH_MEASURE_WITH_UNIT ( LENGTH_MEASURE( 0.02539999999999999897 ), #162 );
#67 =( GEOMETRIC_REPRESENTATION_CONTEXT ( 3 ) GLOBAL_UNCERTAINTY_ASSIGNED_CONTEXT ( ( #47 ) ) GLOBAL_UNIT_ASSIGNED_CONTEXT ( ( #243, #234, #106 ) ) REPRESENTATION_CONTEXT ( 'NONE', 'WORKASPACE' ) );
#68 = EDGE_LOOP ( 'NONE', ( #260, #221 ) ) ;
#69 = EDGE_CURVE ( 'NONE', #224, #121, #42, .T. ) ;
#70 = CONICAL_SURFACE ( 'NONE', #113, 0.007499999999999999722, 0.7853981633974503884 ) ;
#71 = VERTEX_POINT ( 'NONE', #22 ) ;
#72 = CARTESIAN_POINT ( 'NONE',  ( 0.0000000000000000000, 0.0000000000000000000, 1.707404996040164512E-17 ) ) ;
#73 = EDGE_LOOP ( 'NONE', ( #250, #151, #195, #169 ) ) ;
#74 = CARTESIAN_POINT ( 'NONE',  ( 0.0000000000000000000, 0.0000000000000000000, 2.000000000000000000 ) ) ;
#75 = CARTESIAN_POINT ( 'NONE',  ( 0.09370000000000008877, 1.147494050801071143E-17, 0.6250000000000000000 ) ) ;
#76 = ORIENTED_EDGE ( 'NONE', *, *, #312, .T. ) ;
#77 = VECTOR ( 'NONE', #303, 39.37007874015748143 ) ;
#78 = DIMENSIONAL_EXPONENTS ( 1.000000000000000000, 0.0000000000000000000, 0.0000000000000000000, 0.0000000000000000000, 0.0000000000000000000, 0.0000000000000000000, 0.0000000000000000000 ) ;
#79 = CARTESIAN_POINT ( 'NONE',  ( 0.09370000000000008877, 0.0000000000000000000, 0.6250000000000000000 ) ) ;
#80 = ORIENTED_EDGE ( 'NONE', *, *, #158, .F. ) ;
#81 = DIRECTION ( 'NONE',  ( -1.000000000000000000, 0.0000000000000000000, 0.0000000000000000000 ) ) ;
#82 = DIRECTION ( 'NONE',  ( -0.0000000000000000000, -0.0000000000000000000, -1.000000000000000000 ) ) ;
#83 = EDGE_CURVE ( 'NONE', #125, #278, #273, .T. ) ;
#84 = AXIS2_PLACEMENT_3D ( 'NONE', #72, #171, #49 ) ;
#85 = DIRECTION ( 'NONE',  ( 0.0000000000000000000, 0.0000000000000000000, -1.000000000000000000 ) ) ;
#86 = DIRECTION ( 'NONE',  ( -1.000000000000000000, 0.0000000000000000000, 0.0000000000000000000 ) ) ;
#87 = FILL_AREA_STYLE_COLOUR ( '', #220 ) ;
#88 = CARTESIAN_POINT ( 'NONE',  ( 0.07874999999999980627, 9.644093543285380530E-18, 2.000000000000000000 ) ) ;
#89 = SURFACE_STYLE_FILL_AREA ( #137 ) ;
#90 = CARTESIAN_POINT ( 'NONE',  ( 0.0000000000000000000, 0.0000000000000000000, 0.6250000000000000000 ) ) ;
#91 = ADVANCED_FACE ( 'NONE', ( #199 ), #228, .T. ) ;
#92 = EDGE_CURVE ( 'NONE', #20, #71, #247, .T. ) ;
#93 = ORIENTED_EDGE ( 'NONE', *, *, #114, .T. ) ;
#94 = VERTEX_POINT ( 'NONE', #215 ) ;
#95 = DIRECTION ( 'NONE',  ( -0.7071067811865490160, 8.659560562354951347E-17, 0.7071067811865460184 ) ) ;
#96 = CIRCLE ( 'NONE', #53, 0.09375000000000001388 ) ;
#97 = DIRECTION ( 'NONE',  ( 1.000000000000000000, 0.0000000000000000000, 0.0000000000000000000 ) ) ;
#98 = CYLINDRICAL_SURFACE ( 'NONE', #138, 0.09370000000000004714 ) ;
#99 = ADVANCED_FACE ( 'NONE', ( #216 ), #15, .T. ) ;
#100 = DIRECTION ( 'NONE',  ( -0.0000000000000000000, -0.0000000000000000000, -1.000000000000000000 ) ) ;
#101 = FACE_OUTER_BOUND ( 'NONE', #222, .T. ) ;
#102 = ORIENTED_EDGE ( 'NONE', *, *, #289, .F. ) ;
#103 = FACE_OUTER_BOUND ( 'NONE', #19, .T. ) ;
#104 = EDGE_LOOP ( 'NONE', ( #170, #280, #301, #118 ) ) ;
#105 = FACE_OUTER_BOUND ( 'NONE', #193, .T. ) ;
#106 =( NAMED_UNIT ( * ) SI_UNIT ( $, .STERADIAN. ) SOLID_ANGLE_UNIT ( ) );
#107 = CARTESIAN_POINT ( 'NONE',  ( 0.0000000000000000000, 0.0000000000000000000, 0.08619999999999966578 ) ) ;
#108 = DIRECTION ( 'NONE',  ( 0.0000000000000000000, 0.0000000000000000000, 1.000000000000000000 ) ) ;
#109 = CLOSED_SHELL ( 'NONE', ( #99, #196, #166, #150, #91, #245, #178, #269, #252, #299, #116 ) ) ;
#110 = DIRECTION ( 'NONE',  ( 1.000000000000000000, 0.0000000000000000000, 0.0000000000000000000 ) ) ;
#111 = EDGE_CURVE ( 'NONE', #278, #117, #36, .T. ) ;
#112 = PRODUCT ( 'Micro_DM-187-490X', 'Micro_DM-187-490X', '', ( #43 ) ) ;
#113 = AXIS2_PLACEMENT_3D ( 'NONE', #267, #152, #283 ) ;
#114 = EDGE_CURVE ( 'NONE', #71, #20, #52, .T. ) ;
#115 = EDGE_CURVE ( 'NONE', #125, #9, #135, .T. ) ;
#116 = ADVANCED_FACE ( 'NONE', ( #181 ), #287, .F. ) ;
#117 = VERTEX_POINT ( 'NONE', #241 ) ;
#118 = ORIENTED_EDGE ( 'NONE', *, *, #264, .F. ) ;
#119 = CIRCLE ( 'NONE', #324, 0.09370000000000008877 ) ;
#120 = DIRECTION ( 'NONE',  ( -1.000000000000000000, 0.0000000000000000000, 0.0000000000000000000 ) ) ;
#121 = VERTEX_POINT ( 'NONE', #59 ) ;
#122 = PLANE ( 'NONE',  #191 ) ;
#123 = EDGE_LOOP ( 'NONE', ( #223, #17, #3, #80 ) ) ;
#124 = DIRECTION ( 'NONE',  ( -1.000000000000000000, 0.0000000000000000000, 0.0000000000000000000 ) ) ;
#125 = VERTEX_POINT ( 'NONE', #323 ) ;
#126 = EDGE_CURVE ( 'NONE', #71, #125, #187, .T. ) ;
#127 = DIRECTION ( 'NONE',  ( -1.000000000000000000, 0.0000000000000000000, 0.0000000000000000000 ) ) ;
#128 = DIRECTION ( 'NONE',  ( -0.0000000000000000000, -0.0000000000000000000, -1.000000000000000000 ) ) ;
#129 = DIRECTION ( 'NONE',  ( 0.0000000000000000000, 0.0000000000000000000, -1.000000000000000000 ) ) ;
#130 = SURFACE_STYLE_FILL_AREA ( #295 ) ;
#131 = COLOUR_RGB ( '',0.7921568627450980005, 0.8196078431372548767, 0.9333333333333333481 ) ;
#132 = PRESENTATION_LAYER_ASSIGNMENT (  '', '', ( #24 ) ) ;
#133 = SURFACE_STYLE_USAGE ( .BOTH. , #65 ) ;
#134 = APPLICATION_PROTOCOL_DEFINITION ( 'draft international standard', 'automotive_design', 1998, #274 ) ;
#135 = LINE ( 'NONE', #188, #136 ) ;
#136 = VECTOR ( 'NONE', #82, 39.37007874015748143 ) ;
#137 = FILL_AREA_STYLE ('',( #87 ) ) ;
#138 = AXIS2_PLACEMENT_3D ( 'NONE', #206, #311, #81 ) ;
#139 = EDGE_CURVE ( 'NONE', #310, #279, #119, .T. ) ;
#140 = EDGE_LOOP ( 'NONE', ( #282, #300, #257, #102 ) ) ;
#141 = ORIENTED_EDGE ( 'NONE', *, *, #158, .T. ) ;
#142 = VERTEX_POINT ( 'NONE', #157 ) ;
#143 = ORIENTED_EDGE ( 'NONE', *, *, #34, .T. ) ;
#144 = AXIS2_PLACEMENT_3D ( 'NONE', #202, #314, #124 ) ;
#145 = DIRECTION ( 'NONE',  ( -0.0000000000000000000, -0.0000000000000000000, -1.000000000000000000 ) ) ;
#146 = DIRECTION ( 'NONE',  ( -1.000000000000000000, 0.0000000000000000000, 0.0000000000000000000 ) ) ;
#147 = MANIFOLD_SOLID_BREP ( 'Cut-Revolve4', #109 ) ;
#148 = CARTESIAN_POINT ( 'NONE',  ( 0.09375000000000001388, 1.148106374200643863E-17, 0.6250000000000000000 ) ) ;
#149 = LINE ( 'NONE', #63, #232 ) ;
#150 = ADVANCED_FACE ( 'NONE', ( #236 ), #11, .T. ) ;
#151 = ORIENTED_EDGE ( 'NONE', *, *, #126, .T. ) ;
#152 = DIRECTION ( 'NONE',  ( 0.0000000000000000000, 0.0000000000000000000, 1.000000000000000000 ) ) ;
#153 = DIRECTION ( 'NONE',  ( -0.0000000000000000000, -0.0000000000000000000, -1.000000000000000000 ) ) ;
#154 = AXIS2_PLACEMENT_3D ( 'NONE', #200, #8, #10 ) ;
#155 = AXIS2_PLACEMENT_3D ( 'NONE', #58, #128, #127 ) ;
#156 = CARTESIAN_POINT ( 'NONE',  ( -0.09375000000000001388, 0.0000000000000000000, 1.984999999999999654 ) ) ;
#157 = CARTESIAN_POINT ( 'NONE',  ( 0.09370000000000001938, 0.0000000000000000000, 0.08619999999999966578 ) ) ;
#158 = EDGE_CURVE ( 'NONE', #224, #142, #186, .T. ) ;
#159 =( NAMED_UNIT ( * ) SI_UNIT ( $, .STERADIAN. ) SOLID_ANGLE_UNIT ( ) );
#160 = CARTESIAN_POINT ( 'NONE',  ( 0.007499999999999999722, 0.0000000000000000000, 1.707404996040164512E-17 ) ) ;
#161 = AXIS2_PLACEMENT_3D ( 'NONE', #185, #227, #281 ) ;
#162 =( LENGTH_UNIT ( ) NAMED_UNIT ( * ) SI_UNIT ( $, .METRE. ) );
#163 = DIRECTION ( 'NONE',  ( 0.0000000000000000000, 0.0000000000000000000, 1.000000000000000000 ) ) ;
#164 =( NAMED_UNIT ( * ) PLANE_ANGLE_UNIT ( ) SI_UNIT ( $, .RADIAN. ) );
#165 =( NAMED_UNIT ( * ) SI_UNIT ( $, .STERADIAN. ) SOLID_ANGLE_UNIT ( ) );
#166 = ADVANCED_FACE ( 'NONE', ( #174 ), #44, .T. ) ;
#167 = CIRCLE ( 'NONE', #302, 0.09370000000000008877 ) ;
#168 = AXIS2_PLACEMENT_3D ( 'NONE', #190, #271, #272 ) ;
#169 = ORIENTED_EDGE ( 'NONE', *, *, #312, .F. ) ;
#170 = ORIENTED_EDGE ( 'NONE', *, *, #115, .F. ) ;
#171 = DIRECTION ( 'NONE',  ( -0.0000000000000000000, -0.0000000000000000000, -1.000000000000000000 ) ) ;
#172 = EDGE_CURVE ( 'NONE', #121, #224, #230, .T. ) ;
#173 = EDGE_LOOP ( 'NONE', ( #1, #306, #251, #231 ) ) ;
#174 = FACE_OUTER_BOUND ( 'NONE', #73, .T. ) ;
#175 = AXIS2_PLACEMENT_3D ( 'NONE', #64, #163, #321 ) ;
#176 = ORIENTED_EDGE ( 'NONE', *, *, #289, .T. ) ;
#177 = CARTESIAN_POINT ( 'NONE',  ( 0.0000000000000000000, 0.0000000000000000000, 1.984999999999999654 ) ) ;
#178 = ADVANCED_FACE ( 'NONE', ( #105 ), #239, .T. ) ;
#179 = ORIENTED_EDGE ( 'NONE', *, *, #242, .F. ) ;
#180 = CARTESIAN_POINT ( 'NONE',  ( -0.09370000000000008877, 0.0000000000000000000, 0.6250000000000000000 ) ) ;
#181 = FACE_OUTER_BOUND ( 'NONE', #68, .T. ) ;
#182 = CARTESIAN_POINT ( 'NONE',  ( 0.0000000000000000000, 0.0000000000000000000, 0.6250000000000000000 ) ) ;
#183 = DIRECTION ( 'NONE',  ( 1.000000000000000000, 0.0000000000000000000, 0.0000000000000000000 ) ) ;
#184 = AXIS2_PLACEMENT_3D ( 'NONE', #107, #25, #309 ) ;
#185 = CARTESIAN_POINT ( 'NONE',  ( 0.0000000000000000000, 0.0000000000000000000, 2.000000000000000000 ) ) ;
#186 = LINE ( 'NONE', #160, #189 ) ;
#187 = LINE ( 'NONE', #88, #270 ) ;
#188 = CARTESIAN_POINT ( 'NONE',  ( 0.09375000000000001388, 1.148106374200643863E-17, 2.000000000000000000 ) ) ;
#189 = VECTOR ( 'NONE', #294, 39.37007874015748143 ) ;
#190 = CARTESIAN_POINT ( 'NONE',  ( 0.0000000000000000000, 0.0000000000000000000, 0.0000000000000000000 ) ) ;
#191 = AXIS2_PLACEMENT_3D ( 'NONE', #79, #305, #35 ) ;
#192 = UNCERTAINTY_MEASURE_WITH_UNIT (LENGTH_MEASURE( 1.000000000000000082E-05 ), #322, 'distance_accuracy_value', 'NONE');
#193 = EDGE_LOOP ( 'NONE', ( #284, #48, #76, #254 ) ) ;
#194 = CONICAL_SURFACE ( 'NONE', #60, 0.007499999999999999722, 0.7853981633974503884 ) ;
#195 = ORIENTED_EDGE ( 'NONE', *, *, #286, .F. ) ;
#196 = ADVANCED_FACE ( 'NONE', ( #210 ), #70, .T. ) ;
#197 = CARTESIAN_POINT ( 'NONE',  ( 0.09370000000000004714, 1.147494050801070527E-17, 0.0000000000000000000 ) ) ;
#198 = ORIENTED_EDGE ( 'NONE', *, *, #40, .F. ) ;
#199 = FACE_OUTER_BOUND ( 'NONE', #104, .T. ) ;
#200 = CARTESIAN_POINT ( 'NONE',  ( 0.0000000000000000000, 0.0000000000000000000, 2.000000000000000000 ) ) ;
#201 = LINE ( 'NONE', #204, #290 ) ;
#202 = CARTESIAN_POINT ( 'NONE',  ( 0.0000000000000000000, 0.0000000000000000000, 0.6250000000000000000 ) ) ;
#203 = AXIS2_PLACEMENT_3D ( 'NONE', #209, #38, #183 ) ;
#204 = CARTESIAN_POINT ( 'NONE',  ( -0.007499999999999999722, 9.184850993605147975E-19, 1.707404996040164512E-17 ) ) ;
#205 =( GEOMETRIC_REPRESENTATION_CONTEXT ( 3 ) GLOBAL_UNCERTAINTY_ASSIGNED_CONTEXT ( ( #192 ) ) GLOBAL_UNIT_ASSIGNED_CONTEXT ( ( #322, #164, #165 ) ) REPRESENTATION_CONTEXT ( 'NONE', 'WORKASPACE' ) );
#206 = CARTESIAN_POINT ( 'NONE',  ( 0.0000000000000000000, 0.0000000000000000000, 0.0000000000000000000 ) ) ;
#207 = CARTESIAN_POINT ( 'NONE',  ( -0.09375000000000001388, 0.0000000000000000000, 2.000000000000000000 ) ) ;
#208 = CARTESIAN_POINT ( 'NONE',  ( 0.0000000000000000000, 0.0000000000000000000, 2.000000000000000000 ) ) ;
#209 = CARTESIAN_POINT ( 'NONE',  ( 0.0000000000000000000, 0.0000000000000000000, 2.000000000000000000 ) ) ;
#210 = FACE_OUTER_BOUND ( 'NONE', #123, .T. ) ;
#211 = PRODUCT_DEFINITION_SHAPE ( 'NONE', 'NONE',  #13 ) ;
#212 = CARTESIAN_POINT ( 'NONE',  ( 0.0000000000000000000, 0.0000000000000000000, 2.000000000000000000 ) ) ;
#213 = AXIS2_PLACEMENT_3D ( 'NONE', #51, #100, #120 ) ;
#214 =( CONVERSION_BASED_UNIT ( 'INCH', #66 ) LENGTH_UNIT ( ) NAMED_UNIT ( #78 ) );
#215 = CARTESIAN_POINT ( 'NONE',  ( -0.09370000000000001938, 1.147494050801070064E-17, 0.08619999999999966578 ) ) ;
#216 = FACE_OUTER_BOUND ( 'NONE', #140, .T. ) ;
#217 = SURFACE_STYLE_USAGE ( .BOTH. , #14 ) ;
#218 = PRESENTATION_LAYER_ASSIGNMENT (  '', '', ( #325 ) ) ;
#219 = AXIS2_PLACEMENT_3D ( 'NONE', #208, #129, #235 ) ;
#220 = COLOUR_RGB ( '',0.7921568627450980005, 0.8196078431372548767, 0.9333333333333333481 ) ;
#221 = ORIENTED_EDGE ( 'NONE', *, *, #172, .T. ) ;
#222 = EDGE_LOOP ( 'NONE', ( #55, #93 ) ) ;
#223 = ORIENTED_EDGE ( 'NONE', *, *, #172, .F. ) ;
#224 = VERTEX_POINT ( 'NONE', #30 ) ;
#225 = CARTESIAN_POINT ( 'NONE',  ( 0.0000000000000000000, 0.0000000000000000000, 1.984999999999999654 ) ) ;
#226 = LINE ( 'NONE', #197, #77 ) ;
#227 = DIRECTION ( 'NONE',  ( 0.0000000000000000000, 0.0000000000000000000, -1.000000000000000000 ) ) ;
#228 = CYLINDRICAL_SURFACE ( 'NONE', #297, 0.09375000000000001388 ) ;
#229 = DIRECTION ( 'NONE',  ( -0.0000000000000000000, -0.0000000000000000000, -1.000000000000000000 ) ) ;
#230 = CIRCLE ( 'NONE', #308, 0.007499999999999999722 ) ;
#231 = ORIENTED_EDGE ( 'NONE', *, *, #111, .F. ) ;
#232 = VECTOR ( 'NONE', #229, 39.37007874015748143 ) ;
#233 =( LENGTH_UNIT ( ) NAMED_UNIT ( * ) SI_UNIT ( $, .METRE. ) );
#234 =( NAMED_UNIT ( * ) PLANE_ANGLE_UNIT ( ) SI_UNIT ( $, .RADIAN. ) );
#235 = DIRECTION ( 'NONE',  ( -1.000000000000000000, 0.0000000000000000000, 0.0000000000000000000 ) ) ;
#236 = FACE_OUTER_BOUND ( 'NONE', #173, .T. ) ;
#237 = FACE_OUTER_BOUND ( 'NONE', #57, .T. ) ;
#238 = CARTESIAN_POINT ( 'NONE',  ( 0.0000000000000000000, 0.0000000000000000000, 0.0000000000000000000 ) ) ;
#239 = CONICAL_SURFACE ( 'NONE', #219, 0.07874999999999980627, 0.7853981633974466137 ) ;
#240 = MECHANICAL_DESIGN_GEOMETRIC_PRESENTATION_REPRESENTATION (  '', ( #24 ), #291 ) ;
#241 = CARTESIAN_POINT ( 'NONE',  ( -0.09375000000000001388, 0.0000000000000000000, 0.6250000000000000000 ) ) ;
#242 = EDGE_CURVE ( 'NONE', #279, #310, #167, .T. ) ;
#243 =( CONVERSION_BASED_UNIT ( 'INCH', #39 ) LENGTH_UNIT ( ) NAMED_UNIT ( #307 ) );
#244 = APPLICATION_PROTOCOL_DEFINITION ( 'draft international standard', 'automotive_design', 1998, #258 ) ;
#245 = ADVANCED_FACE ( 'NONE', ( #101 ), #261, .T. ) ;
#246 = PRODUCT_RELATED_PRODUCT_CATEGORY ( 'part', '', ( #112 ) ) ;
#247 = CIRCLE ( 'NONE', #203, 0.07874999999999980627 ) ;
#248 = ORIENTED_EDGE ( 'NONE', *, *, #139, .F. ) ;
#249 = EDGE_LOOP ( 'NONE', ( #143, #277 ) ) ;
#250 = ORIENTED_EDGE ( 'NONE', *, *, #114, .F. ) ;
#251 = ORIENTED_EDGE ( 'NONE', *, *, #34, .F. ) ;
#252 = ADVANCED_FACE ( 'NONE', ( #237 ), #194, .T. ) ;
#253 = PRODUCT_DEFINITION_FORMATION_WITH_SPECIFIED_SOURCE ( 'ANY', '', #112, .NOT_KNOWN. ) ;
#254 = ORIENTED_EDGE ( 'NONE', *, *, #83, .F. ) ;
#255 = FACE_OUTER_BOUND ( 'NONE', #249, .T. ) ;
#256 = ADVANCED_BREP_SHAPE_REPRESENTATION ( 'Micro_DM-187-490X', ( #147, #168 ), #205 ) ;
#257 = ORIENTED_EDGE ( 'NONE', *, *, #275, .F. ) ;
#258 = APPLICATION_CONTEXT ( 'automotive_design' ) ;
#259 = DIRECTION ( 'NONE',  ( -0.0000000000000000000, -0.0000000000000000000, -1.000000000000000000 ) ) ;
#260 = ORIENTED_EDGE ( 'NONE', *, *, #69, .T. ) ;
#261 = PLANE ( 'NONE',  #154 ) ;
#262 = MECHANICAL_DESIGN_GEOMETRIC_PRESENTATION_REPRESENTATION (  '', ( #325 ), #67 ) ;
#263 = DIRECTION ( 'NONE',  ( -1.000000000000000000, 0.0000000000000000000, 0.0000000000000000000 ) ) ;
#264 = EDGE_CURVE ( 'NONE', #9, #117, #298, .T. ) ;
#265 = LINE ( 'NONE', #33, #31 ) ;
#266 =( LENGTH_UNIT ( ) NAMED_UNIT ( * ) SI_UNIT ( $, .METRE. ) );
#267 = CARTESIAN_POINT ( 'NONE',  ( 0.0000000000000000000, 0.0000000000000000000, 1.707404996040164512E-17 ) ) ;
#268 = DIRECTION ( 'NONE',  ( -1.000000000000000000, 0.0000000000000000000, 0.0000000000000000000 ) ) ;
#269 = ADVANCED_FACE ( 'NONE', ( #288, #255 ), #122, .T. ) ;
#270 = VECTOR ( 'NONE', #62, 39.37007874015748143 ) ;
#271 = DIRECTION ( 'NONE',  ( 0.0000000000000000000, 0.0000000000000000000, 1.000000000000000000 ) ) ;
#272 = DIRECTION ( 'NONE',  ( 1.000000000000000000, 0.0000000000000000000, 0.0000000000000000000 ) ) ;
#273 = CIRCLE ( 'NONE', #327, 0.09375000000000001388 ) ;
#274 = APPLICATION_CONTEXT ( 'automotive_design' ) ;
#275 = EDGE_CURVE ( 'NONE', #94, #142, #37, .T. ) ;
#276 = AXIS2_PLACEMENT_3D ( 'NONE', #313, #108, #110 ) ;
#277 = ORIENTED_EDGE ( 'NONE', *, *, #264, .T. ) ;
#278 = VERTEX_POINT ( 'NONE', #156 ) ;
#279 = VERTEX_POINT ( 'NONE', #75 ) ;
#280 = ORIENTED_EDGE ( 'NONE', *, *, #83, .T. ) ;
#281 = DIRECTION ( 'NONE',  ( -1.000000000000000000, 0.0000000000000000000, 0.0000000000000000000 ) ) ;
#282 = ORIENTED_EDGE ( 'NONE', *, *, #139, .T. ) ;
#283 = DIRECTION ( 'NONE',  ( 1.000000000000000000, 0.0000000000000000000, 0.0000000000000000000 ) ) ;
#284 = ORIENTED_EDGE ( 'NONE', *, *, #126, .F. ) ;
#285 = DIRECTION ( 'NONE',  ( -0.7071067811865463515, 0.0000000000000000000, -0.7071067811865486830 ) ) ;
#286 = EDGE_CURVE ( 'NONE', #278, #125, #96, .T. ) ;
#287 = PLANE ( 'NONE',  #175 ) ;
#288 = FACE_BOUND ( 'NONE', #21, .T. ) ;
#289 = EDGE_CURVE ( 'NONE', #310, #94, #149, .T. ) ;
#290 = VECTOR ( 'NONE', #95, 39.37007874015748143 ) ;
#291 =( GEOMETRIC_REPRESENTATION_CONTEXT ( 3 ) GLOBAL_UNCERTAINTY_ASSIGNED_CONTEXT ( ( #18 ) ) GLOBAL_UNIT_ASSIGNED_CONTEXT ( ( #214, #320, #159 ) ) REPRESENTATION_CONTEXT ( 'NONE', 'WORKASPACE' ) );
#292 = DIRECTION ( 'NONE',  ( -0.0000000000000000000, -0.0000000000000000000, -1.000000000000000000 ) ) ;
#293 = CARTESIAN_POINT ( 'NONE',  ( 0.0000000000000000000, 0.0000000000000000000, 1.707404996040164512E-17 ) ) ;
#294 = DIRECTION ( 'NONE',  ( 0.7071067811865490160, 0.0000000000000000000, 0.7071067811865460184 ) ) ;
#295 = FILL_AREA_STYLE ('',( #32 ) ) ;
#296 = PRESENTATION_STYLE_ASSIGNMENT (( #133 ) ) ;
#297 = AXIS2_PLACEMENT_3D ( 'NONE', #74, #145, #5 ) ;
#298 = CIRCLE ( 'NONE', #144, 0.09375000000000001388 ) ;
#299 = ADVANCED_FACE ( 'NONE', ( #103 ), #98, .T. ) ;
#300 = ORIENTED_EDGE ( 'NONE', *, *, #46, .T. ) ;
#301 = ORIENTED_EDGE ( 'NONE', *, *, #111, .T. ) ;
#302 = AXIS2_PLACEMENT_3D ( 'NONE', #182, #259, #146 ) ;
#303 = DIRECTION ( 'NONE',  ( -0.0000000000000000000, -0.0000000000000000000, -1.000000000000000000 ) ) ;
#304 = ORIENTED_EDGE ( 'NONE', *, *, #326, .F. ) ;
#305 = DIRECTION ( 'NONE',  ( -0.0000000000000000000, 0.0000000000000000000, -1.000000000000000000 ) ) ;
#306 = ORIENTED_EDGE ( 'NONE', *, *, #115, .T. ) ;
#307 = DIMENSIONAL_EXPONENTS ( 1.000000000000000000, 0.0000000000000000000, 0.0000000000000000000, 0.0000000000000000000, 0.0000000000000000000, 0.0000000000000000000, 0.0000000000000000000 ) ;
#308 = AXIS2_PLACEMENT_3D ( 'NONE', #293, #6, #54 ) ;
#309 = DIRECTION ( 'NONE',  ( -1.000000000000000000, 0.0000000000000000000, 0.0000000000000000000 ) ) ;
#310 = VERTEX_POINT ( 'NONE', #180 ) ;
#311 = DIRECTION ( 'NONE',  ( -0.0000000000000000000, -0.0000000000000000000, -1.000000000000000000 ) ) ;
#312 = EDGE_CURVE ( 'NONE', #20, #278, #265, .T. ) ;
#313 = CARTESIAN_POINT ( 'NONE',  ( 0.0000000000000000000, 0.0000000000000000000, 2.000000000000000000 ) ) ;
#314 = DIRECTION ( 'NONE',  ( -0.0000000000000000000, -0.0000000000000000000, -1.000000000000000000 ) ) ;
#315 = DIRECTION ( 'NONE',  ( -0.0000000000000000000, -0.0000000000000000000, -1.000000000000000000 ) ) ;
#316 = DIRECTION ( 'NONE',  ( 1.000000000000000000, 0.0000000000000000000, 0.0000000000000000000 ) ) ;
#317 = AXIS2_PLACEMENT_3D ( 'NONE', #238, #153, #268 ) ;
#318 = CIRCLE ( 'NONE', #155, 0.09370000000000001938 ) ;
#319 = DIRECTION ( 'NONE',  ( -0.0000000000000000000, -0.0000000000000000000, -1.000000000000000000 ) ) ;
#320 =( NAMED_UNIT ( * ) PLANE_ANGLE_UNIT ( ) SI_UNIT ( $, .RADIAN. ) );
#321 = DIRECTION ( 'NONE',  ( 1.000000000000000000, 0.0000000000000000000, -0.0000000000000000000 ) ) ;
#322 =( CONVERSION_BASED_UNIT ( 'INCH', #41 ) LENGTH_UNIT ( ) NAMED_UNIT ( #50 ) );
#323 = CARTESIAN_POINT ( 'NONE',  ( 0.09375000000000001388, 1.148106374200643863E-17, 1.984999999999999654 ) ) ;
#324 = AXIS2_PLACEMENT_3D ( 'NONE', #90, #315, #263 ) ;
#325 = STYLED_ITEM ( 'NONE', ( #296 ), #147 ) ;
#326 = EDGE_CURVE ( 'NONE', #142, #94, #318, .T. ) ;
#327 = AXIS2_PLACEMENT_3D ( 'NONE', #225, #4, #97 ) ;
#328 = PRODUCT_DEFINITION_CONTEXT ( 'detailed design', #274, 'design' ) ;
#329 = ORIENTED_EDGE ( 'NONE', *, *, #326, .T. ) ;
ENDSEC;
END-ISO-10303-21;
