ISO-10303-21;
HEADER;
FILE_DESCRIPTION (( 'STEP AP214' ),
    '1' );
FILE_NAME ('Micro_BEM-046-04.STEP',
    '2021-09-03T12:57:58',
    ( '' ),
    ( '' ),
    'SwSTEP 2.0',
    'SolidWorks 2020',
    '' );
FILE_SCHEMA (( 'AUTOMOTIVE_DESIGN' ));
ENDSEC;

DATA;
#1 = DIMENSIONAL_EXPONENTS ( 1.000000000000000000, 0.0000000000000000000, 0.0000000000000000000, 0.0000000000000000000, 0.0000000000000000000, 0.0000000000000000000, 0.0000000000000000000 ) ;
#2 = VERTEX_POINT ( 'NONE', #54 ) ;
#3 = AXIS2_PLACEMENT_3D ( 'NONE', #227, #236, #158 ) ;
#4 = LINE ( 'NONE', #79, #169 ) ;
#5 = MECHANICAL_DESIGN_GEOMETRIC_PRESENTATION_REPRESENTATION (  '', ( #167 ), #35 ) ;
#6 = VERTEX_POINT ( 'NONE', #195 ) ;
#7 = CARTESIAN_POINT ( 'NONE',  ( 0.0000000000000000000, 0.0000000000000000000, 1.500000000000000222 ) ) ;
#8 = ORIENTED_EDGE ( 'NONE', *, *, #73, .F. ) ;
#9 = FACE_OUTER_BOUND ( 'NONE', #314, .T. ) ;
#10 = ORIENTED_EDGE ( 'NONE', *, *, #303, .F. ) ;
#11 = DIRECTION ( 'NONE',  ( -1.000000000000000000, 0.0000000000000000000, 0.0000000000000000000 ) ) ;
#12 = CARTESIAN_POINT ( 'NONE',  ( -0.04750000000000064587, 0.0000000000000000000, 1.500000000000000222 ) ) ;
#13 = EDGE_CURVE ( 'NONE', #288, #122, #197, .T. ) ;
#14 = CARTESIAN_POINT ( 'NONE',  ( 0.0000000000000000000, 0.0000000000000000000, 1.485000000000000764 ) ) ;
#15 = CARTESIAN_POINT ( 'NONE',  ( -0.02337659999999999738, 0.0000000000000000000, 0.02337660000000000779 ) ) ;
#16 = DIRECTION ( 'NONE',  ( 1.224646799147353207E-16, 1.000000000000000000, -0.0000000000000000000 ) ) ;
#17 = CIRCLE ( 'NONE', #74, 0.06250000000000002776 ) ;
#18 = CARTESIAN_POINT ( 'NONE',  ( 2.862807836494802985E-18, 0.0000000000000000000, 0.02337660000000000432 ) ) ;
#19 = PRESENTATION_STYLE_ASSIGNMENT (( #216 ) ) ;
#20 = CARTESIAN_POINT ( 'NONE',  ( -0.02337659999999998697, 5.258425165582881421E-18, 0.1089999999999999997 ) ) ;
#21 = DIRECTION ( 'NONE',  ( 0.0000000000000000000, 0.0000000000000000000, 1.000000000000000000 ) ) ;
#22 = CIRCLE ( 'NONE', #118, 0.06250000000000002776 ) ;
#23 =( NAMED_UNIT ( * ) SI_UNIT ( $, .STERADIAN. ) SOLID_ANGLE_UNIT ( ) );
#24 = EDGE_LOOP ( 'NONE', ( #29, #125, #153, #224 ) ) ;
#25 = EDGE_CURVE ( 'NONE', #82, #2, #4, .T. ) ;
#26 = STYLED_ITEM ( 'NONE', ( #274 ), #283 ) ;
#27 = ORIENTED_EDGE ( 'NONE', *, *, #229, .T. ) ;
#28 = DIMENSIONAL_EXPONENTS ( 1.000000000000000000, 0.0000000000000000000, 0.0000000000000000000, 0.0000000000000000000, 0.0000000000000000000, 0.0000000000000000000, 0.0000000000000000000 ) ;
#29 = ORIENTED_EDGE ( 'NONE', *, *, #309, .F. ) ;
#30 = AXIS2_PLACEMENT_3D ( 'NONE', #154, #81, #83 ) ;
#31 = ORIENTED_EDGE ( 'NONE', *, *, #120, .F. ) ;
#32 = ORIENTED_EDGE ( 'NONE', *, *, #13, .T. ) ;
#33 = UNCERTAINTY_MEASURE_WITH_UNIT (LENGTH_MEASURE( 1.000000000000000082E-05 ), #116, 'distance_accuracy_value', 'NONE');
#34 = DIRECTION ( 'NONE',  ( 1.000000000000000000, 0.0000000000000000000, 0.0000000000000000000 ) ) ;
#35 =( GEOMETRIC_REPRESENTATION_CONTEXT ( 3 ) GLOBAL_UNCERTAINTY_ASSIGNED_CONTEXT ( ( #33 ) ) GLOBAL_UNIT_ASSIGNED_CONTEXT ( ( #116, #191, #91 ) ) REPRESENTATION_CONTEXT ( 'NONE', 'WORKASPACE' ) );
#36 = ORIENTED_EDGE ( 'NONE', *, *, #309, .T. ) ;
#37 = LINE ( 'NONE', #264, #325 ) ;
#38 = ORIENTED_EDGE ( 'NONE', *, *, #73, .T. ) ;
#39 = DIRECTION ( 'NONE',  ( 1.000000000000000000, 0.0000000000000000000, 0.0000000000000000000 ) ) ;
#40 = EDGE_CURVE ( 'NONE', #52, #61, #43, .T. ) ;
#41 = PRODUCT_RELATED_PRODUCT_CATEGORY ( 'part', '', ( #284 ) ) ;
#42 = DIRECTION ( 'NONE',  ( -1.000000000000000000, 0.0000000000000000000, 1.224646799147353454E-16 ) ) ;
#43 = CIRCLE ( 'NONE', #320, 0.04750000000000064587 ) ;
#44 = DIRECTION ( 'NONE',  ( 0.0000000000000000000, 0.0000000000000000000, -1.000000000000000000 ) ) ;
#45 = CARTESIAN_POINT ( 'NONE',  ( 1.334865011070615584E-17, 0.0000000000000000000, 0.1089999999999999997 ) ) ;
#46 = CARTESIAN_POINT ( 'NONE',  ( 2.862807836494802985E-18, 0.0000000000000000000, 0.02337660000000000432 ) ) ;
#47 = CARTESIAN_POINT ( 'NONE',  ( 0.0000000000000000000, 0.0000000000000000000, 0.0000000000000000000 ) ) ;
#48 = DIRECTION ( 'NONE',  ( 1.000000000000000000, 0.0000000000000000000, 0.0000000000000000000 ) ) ;
#49 = CARTESIAN_POINT ( 'NONE',  ( 0.0000000000000000000, 0.0000000000000000000, 1.500000000000000222 ) ) ;
#50 = AXIS2_PLACEMENT_3D ( 'NONE', #108, #205, #160 ) ;
#51 = CONICAL_SURFACE ( 'NONE', #112, 0.04750000000000064587, 0.7853981633974466137 ) ;
#52 = VERTEX_POINT ( 'NONE', #12 ) ;
#53 = CONICAL_SURFACE ( 'NONE', #66, 0.02337659999999999738, 0.1745329251994338082 ) ;
#54 = CARTESIAN_POINT ( 'NONE',  ( -0.06249999999999997918, 0.0000000000000000000, 0.3308798271416305559 ) ) ;
#55 = DIMENSIONAL_EXPONENTS ( 1.000000000000000000, 0.0000000000000000000, 0.0000000000000000000, 0.0000000000000000000, 0.0000000000000000000, 0.0000000000000000000, 0.0000000000000000000 ) ;
#56 = ORIENTED_EDGE ( 'NONE', *, *, #220, .F. ) ;
#57 = EDGE_CURVE ( 'NONE', #2, #122, #22, .T. ) ;
#58 = VERTEX_POINT ( 'NONE', #114 ) ;
#59 = ORIENTED_EDGE ( 'NONE', *, *, #215, .F. ) ;
#60 = DIRECTION ( 'NONE',  ( -1.224646799147353700E-16, -0.0000000000000000000, -1.000000000000000000 ) ) ;
#61 = VERTEX_POINT ( 'NONE', #63 ) ;
#62 = DIRECTION ( 'NONE',  ( 0.1736481776669313026, 0.0000000000000000000, 0.9848077530122077983 ) ) ;
#63 = CARTESIAN_POINT ( 'NONE',  ( 0.04750000000000064587, 6.735557395310483192E-18, 1.500000000000000222 ) ) ;
#64 = DIRECTION ( 'NONE',  ( 1.224646799147353700E-16, 0.0000000000000000000, 1.000000000000000000 ) ) ;
#65 = DIRECTION ( 'NONE',  ( 0.0000000000000000000, 1.000000000000000000, 0.0000000000000000000 ) ) ;
#66 = AXIS2_PLACEMENT_3D ( 'NONE', #157, #181, #240 ) ;
#67 = DIRECTION ( 'NONE',  ( -1.000000000000000000, 0.0000000000000000000, 1.224646799147353454E-16 ) ) ;
#68 = CARTESIAN_POINT ( 'NONE',  ( 0.0000000000000000000, 0.0000000000000000000, 1.500000000000000222 ) ) ;
#69 = PRODUCT_DEFINITION_FORMATION_WITH_SPECIFIED_SOURCE ( 'ANY', '', #284, .NOT_KNOWN. ) ;
#70 = CARTESIAN_POINT ( 'NONE',  ( -0.06250000000000002776, 0.0000000000000000000, 1.485000000000000764 ) ) ;
#71 =( LENGTH_UNIT ( ) NAMED_UNIT ( * ) SI_UNIT ( $, .METRE. ) );
#72 = ADVANCED_FACE ( 'NONE', ( #90 ), #237, .T. ) ;
#73 = EDGE_CURVE ( 'NONE', #61, #288, #111, .T. ) ;
#74 = AXIS2_PLACEMENT_3D ( 'NONE', #14, #256, #34 ) ;
#75 = VECTOR ( 'NONE', #89, 39.37007874015748143 ) ;
#76 = ADVANCED_FACE ( 'NONE', ( #87 ), #53, .T. ) ;
#77 = VECTOR ( 'NONE', #62, 39.37007874015748143 ) ;
#78 = EDGE_LOOP ( 'NONE', ( #257, #32, #285, #148 ) ) ;
#79 = CARTESIAN_POINT ( 'NONE',  ( -0.06250000000000002776, 0.0000000000000000000, 1.500000000000000222 ) ) ;
#80 = VERTEX_POINT ( 'NONE', #20 ) ;
#81 = DIRECTION ( 'NONE',  ( 0.0000000000000000000, -1.000000000000000000, 0.0000000000000000000 ) ) ;
#82 = VERTEX_POINT ( 'NONE', #70 ) ;
#83 = DIRECTION ( 'NONE',  ( 0.0000000000000000000, 0.0000000000000000000, -1.000000000000000000 ) ) ;
#84 = ORIENTED_EDGE ( 'NONE', *, *, #250, .F. ) ;
#85 = FACE_OUTER_BOUND ( 'NONE', #221, .T. ) ;
#86 = DIRECTION ( 'NONE',  ( 1.000000000000000000, 0.0000000000000000000, 0.0000000000000000000 ) ) ;
#87 = FACE_OUTER_BOUND ( 'NONE', #24, .T. ) ;
#88 = CIRCLE ( 'NONE', #275, 0.02337659999999999738 ) ;
#89 = DIRECTION ( 'NONE',  ( -1.224646799147353700E-16, -0.0000000000000000000, -1.000000000000000000 ) ) ;
#90 = FACE_OUTER_BOUND ( 'NONE', #193, .T. ) ;
#91 =( NAMED_UNIT ( * ) SI_UNIT ( $, .STERADIAN. ) SOLID_ANGLE_UNIT ( ) );
#92 = CONICAL_SURFACE ( 'NONE', #261, 0.04750000000000064587, 0.7853981633974466137 ) ;
#93 = AXIS2_PLACEMENT_3D ( 'NONE', #68, #184, #210 ) ;
#94 = ADVANCED_FACE ( 'NONE', ( #293 ), #132, .T. ) ;
#95 =( LENGTH_UNIT ( ) NAMED_UNIT ( * ) SI_UNIT ( $, .METRE. ) );
#96 = PRESENTATION_LAYER_ASSIGNMENT (  '', '', ( #26 ) ) ;
#97 = COLOUR_RGB ( '',0.7921568627450980005, 0.8196078431372548767, 0.9333333333333333481 ) ;
#98 = ORIENTED_EDGE ( 'NONE', *, *, #317, .T. ) ;
#99 = ADVANCED_FACE ( 'NONE', ( #206 ), #300, .T. ) ;
#100 = ORIENTED_EDGE ( 'NONE', *, *, #120, .T. ) ;
#101 = VERTEX_POINT ( 'NONE', #297 ) ;
#102 = LINE ( 'NONE', #311, #77 ) ;
#103 = ORIENTED_EDGE ( 'NONE', *, *, #196, .F. ) ;
#104 = DIRECTION ( 'NONE',  ( -1.000000000000000000, 0.0000000000000000000, 0.0000000000000000000 ) ) ;
#105 = ORIENTED_EDGE ( 'NONE', *, *, #192, .T. ) ;
#106 = LINE ( 'NONE', #203, #244 ) ;
#107 = DIRECTION ( 'NONE',  ( 0.7071067811865462405, 8.659560562354916834E-17, -0.7071067811865486830 ) ) ;
#108 = CARTESIAN_POINT ( 'NONE',  ( 1.334865011070615584E-17, 0.0000000000000000000, 0.1089999999999999997 ) ) ;
#109 = DIRECTION ( 'NONE',  ( -1.000000000000000000, 0.0000000000000000000, 1.825976613408455680E-16 ) ) ;
#110 = DIRECTION ( 'NONE',  ( -0.7071067811865462405, 0.0000000000000000000, -0.7071067811865486830 ) ) ;
#111 = LINE ( 'NONE', #161, #223 ) ;
#112 = AXIS2_PLACEMENT_3D ( 'NONE', #225, #126, #104 ) ;
#113 = DIRECTION ( 'NONE',  ( 1.000000000000000000, 0.0000000000000000000, 0.0000000000000000000 ) ) ;
#114 = CARTESIAN_POINT ( 'NONE',  ( 0.02337660000000000779, 2.862807836494801830E-18, 0.02337659999999999738 ) ) ;
#115 = FILL_AREA_STYLE ('',( #270 ) ) ;
#116 =( CONVERSION_BASED_UNIT ( 'INCH', #188 ) LENGTH_UNIT ( ) NAMED_UNIT ( #1 ) );
#117 = VECTOR ( 'NONE', #124, 39.37007874015748143 ) ;
#118 = AXIS2_PLACEMENT_3D ( 'NONE', #138, #316, #48 ) ;
#119 = UNCERTAINTY_MEASURE_WITH_UNIT (LENGTH_MEASURE( 1.000000000000000082E-05 ), #245, 'distance_accuracy_value', 'NONE');
#120 = EDGE_CURVE ( 'NONE', #170, #58, #166, .T. ) ;
#121 = ORIENTED_EDGE ( 'NONE', *, *, #40, .T. ) ;
#122 = VERTEX_POINT ( 'NONE', #162 ) ;
#123 = AXIS2_PLACEMENT_3D ( 'NONE', #186, #204, #136 ) ;
#124 = DIRECTION ( 'NONE',  ( -0.0000000000000000000, -0.0000000000000000000, -1.000000000000000000 ) ) ;
#125 = ORIENTED_EDGE ( 'NONE', *, *, #286, .T. ) ;
#126 = DIRECTION ( 'NONE',  ( 0.0000000000000000000, 0.0000000000000000000, -1.000000000000000000 ) ) ;
#127 = ORIENTED_EDGE ( 'NONE', *, *, #248, .T. ) ;
#128 = FACE_OUTER_BOUND ( 'NONE', #254, .T. ) ;
#129 = ORIENTED_EDGE ( 'NONE', *, *, #220, .T. ) ;
#130 = CARTESIAN_POINT ( 'NONE',  ( 1.334865011070615584E-17, 0.0000000000000000000, 0.1089999999999999997 ) ) ;
#131 = AXIS2_PLACEMENT_3D ( 'NONE', #47, #262, #42 ) ;
#132 = SPHERICAL_SURFACE ( 'NONE', #278, 0.02337660000000000432 ) ;
#133 = FACE_OUTER_BOUND ( 'NONE', #241, .T. ) ;
#134 = DIRECTION ( 'NONE',  ( -1.224646799147353700E-16, -0.0000000000000000000, -1.000000000000000000 ) ) ;
#135 = DIRECTION ( 'NONE',  ( -0.0000000000000000000, -0.0000000000000000000, -1.000000000000000000 ) ) ;
#136 = DIRECTION ( 'NONE',  ( 1.000000000000000000, 0.0000000000000000000, 0.0000000000000000000 ) ) ;
#137 = DIRECTION ( 'NONE',  ( 0.0000000000000000000, 0.0000000000000000000, 1.000000000000000000 ) ) ;
#138 = CARTESIAN_POINT ( 'NONE',  ( 4.052109212114275620E-17, 0.0000000000000000000, 0.3308798271416305559 ) ) ;
#139 = SURFACE_STYLE_USAGE ( .BOTH. , #302 ) ;
#140 =( NAMED_UNIT ( * ) PLANE_ANGLE_UNIT ( ) SI_UNIT ( $, .RADIAN. ) );
#141 = LENGTH_MEASURE_WITH_UNIT ( LENGTH_MEASURE( 0.02539999999999999897 ), #273 );
#142 = SURFACE_STYLE_FILL_AREA ( #143 ) ;
#143 = FILL_AREA_STYLE ('',( #301 ) ) ;
#144 = CIRCLE ( 'NONE', #50, 0.02337659999999999738 ) ;
#145 = CIRCLE ( 'NONE', #3, 0.06250000000000002776 ) ;
#146 = ADVANCED_FACE ( 'NONE', ( #265 ), #290, .T. ) ;
#147 = ORIENTED_EDGE ( 'NONE', *, *, #248, .F. ) ;
#148 = ORIENTED_EDGE ( 'NONE', *, *, #25, .F. ) ;
#149 = COLOUR_RGB ( '',0.7921568627450980005, 0.8196078431372548767, 0.9333333333333333481 ) ;
#150 = ORIENTED_EDGE ( 'NONE', *, *, #25, .T. ) ;
#151 = PRODUCT_DEFINITION ( 'UNKNOWN', '', #69, #252 ) ;
#152 = DIRECTION ( 'NONE',  ( 0.0000000000000000000, 0.0000000000000000000, -1.000000000000000000 ) ) ;
#153 = ORIENTED_EDGE ( 'NONE', *, *, #57, .T. ) ;
#154 = CARTESIAN_POINT ( 'NONE',  ( 2.862807836494802985E-18, 0.0000000000000000000, 0.02337660000000000432 ) ) ;
#155 = EDGE_LOOP ( 'NONE', ( #121, #98 ) ) ;
#156 = DIRECTION ( 'NONE',  ( -1.000000000000000000, 0.0000000000000000000, 0.0000000000000000000 ) ) ;
#157 = CARTESIAN_POINT ( 'NONE',  ( 1.334865011070615584E-17, 0.0000000000000000000, 0.1089999999999999997 ) ) ;
#158 = DIRECTION ( 'NONE',  ( 1.000000000000000000, 0.0000000000000000000, 0.0000000000000000000 ) ) ;
#159 = DIRECTION ( 'NONE',  ( 1.000000000000000000, 0.0000000000000000000, 0.0000000000000000000 ) ) ;
#160 = DIRECTION ( 'NONE',  ( -1.000000000000000000, 0.0000000000000000000, 0.0000000000000000000 ) ) ;
#161 = CARTESIAN_POINT ( 'NONE',  ( 0.04750000000000064587, 5.817072295950006528E-18, 1.500000000000000222 ) ) ;
#162 = CARTESIAN_POINT ( 'NONE',  ( 0.06250000000000006939, 7.654042494670963708E-18, 0.3308798271416305559 ) ) ;
#163 = LENGTH_MEASURE_WITH_UNIT ( LENGTH_MEASURE( 0.02539999999999999897 ), #95 );
#164 =( NAMED_UNIT ( * ) PLANE_ANGLE_UNIT ( ) SI_UNIT ( $, .RADIAN. ) );
#165 = AXIS2_PLACEMENT_3D ( 'NONE', #49, #137, #113 ) ;
#166 = CIRCLE ( 'NONE', #294, 0.02337660000000000432 ) ;
#167 = STYLED_ITEM ( 'NONE', ( #19 ), #323 ) ;
#168 = AXIS2_PLACEMENT_3D ( 'NONE', #130, #260, #39 ) ;
#169 = VECTOR ( 'NONE', #173, 39.37007874015748143 ) ;
#170 = VERTEX_POINT ( 'NONE', #15 ) ;
#171 = MECHANICAL_DESIGN_GEOMETRIC_PRESENTATION_REPRESENTATION (  '', ( #26 ), #280 ) ;
#172 = UNCERTAINTY_MEASURE_WITH_UNIT (LENGTH_MEASURE( 1.000000000000000082E-05 ), #212, 'distance_accuracy_value', 'NONE');
#173 = DIRECTION ( 'NONE',  ( -0.0000000000000000000, -0.0000000000000000000, -1.000000000000000000 ) ) ;
#174 = EDGE_LOOP ( 'NONE', ( #84, #310, #31 ) ) ;
#175 = DIRECTION ( 'NONE',  ( -1.000000000000000000, 0.0000000000000000000, 0.0000000000000000000 ) ) ;
#176 = ORIENTED_EDGE ( 'NONE', *, *, #40, .F. ) ;
#177 = CARTESIAN_POINT ( 'NONE',  ( 0.02337660000000000432, 2.862807836494801830E-18, -2.862807836494802985E-18 ) ) ;
#178 = ORIENTED_EDGE ( 'NONE', *, *, #187, .T. ) ;
#179 = EDGE_CURVE ( 'NONE', #6, #80, #88, .T. ) ;
#180 = DIRECTION ( 'NONE',  ( -1.000000000000000000, 1.224646799147352961E-16, 0.0000000000000000000 ) ) ;
#181 = DIRECTION ( 'NONE',  ( 1.224646799147353700E-16, 0.0000000000000000000, 1.000000000000000000 ) ) ;
#182 = CARTESIAN_POINT ( 'NONE',  ( 2.862807836494802985E-18, 0.0000000000000000000, 0.02337660000000000432 ) ) ;
#183 = CIRCLE ( 'NONE', #209, 0.06250000000000002776 ) ;
#184 = DIRECTION ( 'NONE',  ( 0.0000000000000000000, 0.0000000000000000000, 1.000000000000000000 ) ) ;
#185 = DIRECTION ( 'NONE',  ( -0.0000000000000000000, -0.0000000000000000000, -1.000000000000000000 ) ) ;
#186 = CARTESIAN_POINT ( 'NONE',  ( 2.862807836494802985E-18, 0.0000000000000000000, 0.02337660000000000432 ) ) ;
#187 = EDGE_CURVE ( 'NONE', #58, #170, #305, .T. ) ;
#188 = LENGTH_MEASURE_WITH_UNIT ( LENGTH_MEASURE( 0.02539999999999999897 ), #71 );
#189 = APPLICATION_CONTEXT ( 'automotive_design' ) ;
#190 = CIRCLE ( 'NONE', #213, 0.02337660000000000432 ) ;
#191 =( NAMED_UNIT ( * ) PLANE_ANGLE_UNIT ( ) SI_UNIT ( $, .RADIAN. ) );
#192 = EDGE_CURVE ( 'NONE', #6, #122, #102, .T. ) ;
#193 = EDGE_LOOP ( 'NONE', ( #246, #306, #282 ) ) ;
#194 = AXIS2_PLACEMENT_3D ( 'NONE', #46, #64, #198 ) ;
#195 = CARTESIAN_POINT ( 'NONE',  ( 0.02337660000000001126, 0.0000000000000000000, 0.1089999999999999997 ) ) ;
#196 = EDGE_CURVE ( 'NONE', #122, #2, #145, .T. ) ;
#197 = LINE ( 'NONE', #222, #117 ) ;
#198 = DIRECTION ( 'NONE',  ( -1.000000000000000000, 0.0000000000000000000, 1.825976613408455680E-16 ) ) ;
#199 = ORIENTED_EDGE ( 'NONE', *, *, #229, .F. ) ;
#200 = CARTESIAN_POINT ( 'NONE',  ( 0.0000000000000000000, 0.0000000000000000000, 1.485000000000000764 ) ) ;
#201 = ORIENTED_EDGE ( 'NONE', *, *, #179, .F. ) ;
#202 = EDGE_CURVE ( 'NONE', #101, #58, #247, .T. ) ;
#203 = CARTESIAN_POINT ( 'NONE',  ( -0.02337659999999998697, 2.862807836494801445E-18, 0.1089999999999999997 ) ) ;
#204 = DIRECTION ( 'NONE',  ( 0.0000000000000000000, 1.000000000000000000, 0.0000000000000000000 ) ) ;
#205 = DIRECTION ( 'NONE',  ( -1.224646799147353700E-16, -0.0000000000000000000, -1.000000000000000000 ) ) ;
#206 = FACE_OUTER_BOUND ( 'NONE', #155, .T. ) ;
#207 = FACE_OUTER_BOUND ( 'NONE', #78, .T. ) ;
#208 = ADVANCED_FACE ( 'NONE', ( #9 ), #258, .T. ) ;
#209 = AXIS2_PLACEMENT_3D ( 'NONE', #200, #44, #86 ) ;
#210 = DIRECTION ( 'NONE',  ( 1.000000000000000000, 0.0000000000000000000, -0.0000000000000000000 ) ) ;
#211 =( GEOMETRIC_REPRESENTATION_CONTEXT ( 3 ) GLOBAL_UNCERTAINTY_ASSIGNED_CONTEXT ( ( #119 ) ) GLOBAL_UNIT_ASSIGNED_CONTEXT ( ( #245, #140, #23 ) ) REPRESENTATION_CONTEXT ( 'NONE', 'WORKASPACE' ) );
#212 =( CONVERSION_BASED_UNIT ( 'INCH', #141 ) LENGTH_UNIT ( ) NAMED_UNIT ( #55 ) );
#213 = AXIS2_PLACEMENT_3D ( 'NONE', #182, #16, #180 ) ;
#214 = SHAPE_DEFINITION_REPRESENTATION ( #292, #283 ) ;
#215 = EDGE_CURVE ( 'NONE', #52, #82, #299, .T. ) ;
#216 = SURFACE_STYLE_USAGE ( .BOTH. , #239 ) ;
#217 = PRESENTATION_LAYER_ASSIGNMENT (  '', '', ( #167 ) ) ;
#218 = DIRECTION ( 'NONE',  ( 1.000000000000000000, 0.0000000000000000000, 0.0000000000000000000 ) ) ;
#219 = CONICAL_SURFACE ( 'NONE', #168, 0.02337659999999999738, 0.1745329251994338082 ) ;
#220 = EDGE_CURVE ( 'NONE', #80, #170, #37, .T. ) ;
#221 = EDGE_LOOP ( 'NONE', ( #36, #127, #178, #56 ) ) ;
#222 = CARTESIAN_POINT ( 'NONE',  ( 0.06250000000000002776, 7.654042494670959086E-18, 1.500000000000000222 ) ) ;
#223 = VECTOR ( 'NONE', #107, 39.37007874015748854 ) ;
#224 = ORIENTED_EDGE ( 'NONE', *, *, #192, .F. ) ;
#225 = CARTESIAN_POINT ( 'NONE',  ( 0.0000000000000000000, 0.0000000000000000000, 1.500000000000000222 ) ) ;
#226 = EDGE_LOOP ( 'NONE', ( #249, #201, #105, #308 ) ) ;
#227 = CARTESIAN_POINT ( 'NONE',  ( 4.052109212114275620E-17, 0.0000000000000000000, 0.3308798271416305559 ) ) ;
#228 = ADVANCED_FACE ( 'NONE', ( #128 ), #51, .T. ) ;
#229 = EDGE_CURVE ( 'NONE', #288, #82, #183, .T. ) ;
#230 = AXIS2_PLACEMENT_3D ( 'NONE', #289, #185, #156 ) ;
#231 = ORIENTED_EDGE ( 'NONE', *, *, #317, .F. ) ;
#232 = CARTESIAN_POINT ( 'NONE',  ( 0.0000000000000000000, 0.0000000000000000000, 1.500000000000000222 ) ) ;
#233 = DIRECTION ( 'NONE',  ( 1.000000000000000000, 0.0000000000000000000, 0.0000000000000000000 ) ) ;
#234 = DIRECTION ( 'NONE',  ( -1.224646799147353700E-16, -0.0000000000000000000, -1.000000000000000000 ) ) ;
#235 = DIRECTION ( 'NONE',  ( -1.000000000000000000, 0.0000000000000000000, 0.0000000000000000000 ) ) ;
#236 = DIRECTION ( 'NONE',  ( -1.224646799147353700E-16, -0.0000000000000000000, -1.000000000000000000 ) ) ;
#237 = SPHERICAL_SURFACE ( 'NONE', #123, 0.02337660000000000432 ) ;
#238 = AXIS2_PLACEMENT_3D ( 'NONE', #291, #234, #67 ) ;
#239 = SURFACE_SIDE_STYLE ('',( #142 ) ) ;
#240 = DIRECTION ( 'NONE',  ( 1.000000000000000000, 0.0000000000000000000, 0.0000000000000000000 ) ) ;
#241 = EDGE_LOOP ( 'NONE', ( #231, #38, #10, #59 ) ) ;
#242 = APPLICATION_PROTOCOL_DEFINITION ( 'draft international standard', 'automotive_design', 1998, #189 ) ;
#243 = PRODUCT_CONTEXT ( 'NONE', #189, 'mechanical' ) ;
#244 = VECTOR ( 'NONE', #318, 39.37007874015747433 ) ;
#245 =( CONVERSION_BASED_UNIT ( 'INCH', #163 ) LENGTH_UNIT ( ) NAMED_UNIT ( #28 ) );
#246 = ORIENTED_EDGE ( 'NONE', *, *, #202, .F. ) ;
#247 = CIRCLE ( 'NONE', #30, 0.02337660000000000432 ) ;
#248 = EDGE_CURVE ( 'NONE', #6, #58, #313, .T. ) ;
#249 = ORIENTED_EDGE ( 'NONE', *, *, #286, .F. ) ;
#250 = EDGE_CURVE ( 'NONE', #101, #170, #190, .T. ) ;
#251 = EDGE_LOOP ( 'NONE', ( #147, #312, #129, #100 ) ) ;
#252 = PRODUCT_DEFINITION_CONTEXT ( 'detailed design', #277, 'design' ) ;
#253 = CIRCLE ( 'NONE', #165, 0.04750000000000064587 ) ;
#254 = EDGE_LOOP ( 'NONE', ( #8, #176, #259, #199 ) ) ;
#255 = AXIS2_PLACEMENT_3D ( 'NONE', #7, #135, #175 ) ;
#256 = DIRECTION ( 'NONE',  ( 0.0000000000000000000, 0.0000000000000000000, -1.000000000000000000 ) ) ;
#257 = ORIENTED_EDGE ( 'NONE', *, *, #303, .T. ) ;
#258 = CYLINDRICAL_SURFACE ( 'NONE', #255, 0.06250000000000002776 ) ;
#259 = ORIENTED_EDGE ( 'NONE', *, *, #215, .T. ) ;
#260 = DIRECTION ( 'NONE',  ( 1.224646799147353700E-16, 0.0000000000000000000, 1.000000000000000000 ) ) ;
#261 = AXIS2_PLACEMENT_3D ( 'NONE', #232, #152, #11 ) ;
#262 = DIRECTION ( 'NONE',  ( -1.224646799147353700E-16, -0.0000000000000000000, -1.000000000000000000 ) ) ;
#263 = VECTOR ( 'NONE', #110, 39.37007874015748854 ) ;
#264 = CARTESIAN_POINT ( 'NONE',  ( -0.02337660000000000432, 0.0000000000000000000, 2.862807836494802985E-18 ) ) ;
#265 = FACE_OUTER_BOUND ( 'NONE', #251, .T. ) ;
#266 = CYLINDRICAL_SURFACE ( 'NONE', #238, 0.02337660000000000432 ) ;
#267 = ADVANCED_FACE ( 'NONE', ( #207 ), #321, .T. ) ;
#268 = DIRECTION ( 'NONE',  ( 0.0000000000000000000, 0.0000000000000000000, 1.000000000000000000 ) ) ;
#269 =( NAMED_UNIT ( * ) SI_UNIT ( $, .STERADIAN. ) SOLID_ANGLE_UNIT ( ) );
#270 = FILL_AREA_STYLE_COLOUR ( '', #149 ) ;
#271 = CARTESIAN_POINT ( 'NONE',  ( 0.0000000000000000000, 0.0000000000000000000, 1.500000000000000222 ) ) ;
#272 = CARTESIAN_POINT ( 'NONE',  ( 0.0000000000000000000, 0.0000000000000000000, 0.0000000000000000000 ) ) ;
#273 =( LENGTH_UNIT ( ) NAMED_UNIT ( * ) SI_UNIT ( $, .METRE. ) );
#274 = PRESENTATION_STYLE_ASSIGNMENT (( #139 ) ) ;
#275 = AXIS2_PLACEMENT_3D ( 'NONE', #45, #134, #235 ) ;
#276 = ADVANCED_FACE ( 'NONE', ( #295 ), #219, .T. ) ;
#277 = APPLICATION_CONTEXT ( 'automotive_design' ) ;
#278 = AXIS2_PLACEMENT_3D ( 'NONE', #319, #65, #159 ) ;
#279 = ADVANCED_FACE ( 'NONE', ( #133 ), #92, .T. ) ;
#280 =( GEOMETRIC_REPRESENTATION_CONTEXT ( 3 ) GLOBAL_UNCERTAINTY_ASSIGNED_CONTEXT ( ( #172 ) ) GLOBAL_UNIT_ASSIGNED_CONTEXT ( ( #212, #164, #269 ) ) REPRESENTATION_CONTEXT ( 'NONE', 'WORKASPACE' ) );
#281 = ORIENTED_EDGE ( 'NONE', *, *, #13, .F. ) ;
#282 = ORIENTED_EDGE ( 'NONE', *, *, #187, .F. ) ;
#283 = ADVANCED_BREP_SHAPE_REPRESENTATION ( 'Micro_BEM-046-04', ( #323, #307 ), #211 ) ;
#284 = PRODUCT ( 'Micro_BEM-046-04', 'Micro_BEM-046-04', '', ( #243 ) ) ;
#285 = ORIENTED_EDGE ( 'NONE', *, *, #57, .F. ) ;
#286 = EDGE_CURVE ( 'NONE', #80, #2, #106, .T. ) ;
#287 = CARTESIAN_POINT ( 'NONE',  ( -0.04750000000000064587, 0.0000000000000000000, 1.500000000000000222 ) ) ;
#288 = VERTEX_POINT ( 'NONE', #315 ) ;
#289 = CARTESIAN_POINT ( 'NONE',  ( 0.0000000000000000000, 0.0000000000000000000, 1.500000000000000222 ) ) ;
#290 = CYLINDRICAL_SURFACE ( 'NONE', #131, 0.02337660000000000432 ) ;
#291 = CARTESIAN_POINT ( 'NONE',  ( 0.0000000000000000000, 0.0000000000000000000, 0.0000000000000000000 ) ) ;
#292 = PRODUCT_DEFINITION_SHAPE ( 'NONE', 'NONE',  #151 ) ;
#293 = FACE_OUTER_BOUND ( 'NONE', #174, .T. ) ;
#294 = AXIS2_PLACEMENT_3D ( 'NONE', #18, #322, #109 ) ;
#295 = FACE_OUTER_BOUND ( 'NONE', #226, .T. ) ;
#296 = ADVANCED_FACE ( 'NONE', ( #85 ), #266, .T. ) ;
#297 = CARTESIAN_POINT ( 'NONE',  ( 4.294211754742204093E-18, 0.0000000000000000000, 0.0000000000000000000 ) ) ;
#298 = SURFACE_STYLE_FILL_AREA ( #115 ) ;
#299 = LINE ( 'NONE', #287, #263 ) ;
#300 = PLANE ( 'NONE',  #93 ) ;
#301 = FILL_AREA_STYLE_COLOUR ( '', #97 ) ;
#302 = SURFACE_SIDE_STYLE ('',( #298 ) ) ;
#303 = EDGE_CURVE ( 'NONE', #82, #288, #17, .T. ) ;
#304 = CLOSED_SHELL ( 'NONE', ( #72, #296, #76, #279, #267, #208, #99, #228, #276, #146, #94 ) ) ;
#305 = CIRCLE ( 'NONE', #194, 0.02337660000000000432 ) ;
#306 = ORIENTED_EDGE ( 'NONE', *, *, #250, .T. ) ;
#307 = AXIS2_PLACEMENT_3D ( 'NONE', #272, #21, #218 ) ;
#308 = ORIENTED_EDGE ( 'NONE', *, *, #196, .T. ) ;
#309 = EDGE_CURVE ( 'NONE', #80, #6, #144, .T. ) ;
#310 = ORIENTED_EDGE ( 'NONE', *, *, #202, .T. ) ;
#311 = CARTESIAN_POINT ( 'NONE',  ( 0.02337660000000001126, 0.0000000000000000000, 0.1089999999999999997 ) ) ;
#312 = ORIENTED_EDGE ( 'NONE', *, *, #179, .T. ) ;
#313 = LINE ( 'NONE', #177, #75 ) ;
#314 = EDGE_LOOP ( 'NONE', ( #281, #27, #150, #103 ) ) ;
#315 = CARTESIAN_POINT ( 'NONE',  ( 0.06250000000000002776, 7.654042494670959086E-18, 1.485000000000000764 ) ) ;
#316 = DIRECTION ( 'NONE',  ( -1.224646799147353700E-16, -0.0000000000000000000, -1.000000000000000000 ) ) ;
#317 = EDGE_CURVE ( 'NONE', #61, #52, #253, .T. ) ;
#318 = DIRECTION ( 'NONE',  ( -0.1736481776669311083, 2.126576849575782084E-17, 0.9848077530122080203 ) ) ;
#319 = CARTESIAN_POINT ( 'NONE',  ( 2.862807836494802985E-18, 0.0000000000000000000, 0.02337660000000000432 ) ) ;
#320 = AXIS2_PLACEMENT_3D ( 'NONE', #271, #268, #233 ) ;
#321 = CYLINDRICAL_SURFACE ( 'NONE', #230, 0.06250000000000002776 ) ;
#322 = DIRECTION ( 'NONE',  ( 1.224646799147353700E-16, 0.0000000000000000000, 1.000000000000000000 ) ) ;
#323 = MANIFOLD_SOLID_BREP ( 'Fillet1', #304 ) ;
#324 = APPLICATION_PROTOCOL_DEFINITION ( 'draft international standard', 'automotive_design', 1998, #277 ) ;
#325 = VECTOR ( 'NONE', #60, 39.37007874015748143 ) ;
ENDSEC;
END-ISO-10303-21;
