ISO-10303-21;
HEADER;
FILE_DESCRIPTION (( 'STEP AP214' ),
    '1' );
FILE_NAME ('59530.STEP',
    '2023-07-24T15:09:22',
    ( '' ),
    ( '' ),
    'SwSTEP 2.0',
    'SolidWorks 2023',
    '' );
FILE_SCHEMA (( 'AUTOMOTIVE_DESIGN' ));
ENDSEC;

DATA;
#1 = DIRECTION ( 'NONE',  ( -0.000000000000000000, -1.000000000000000000, -0.000000000000000000 ) ) ;
#2 = EDGE_LOOP ( 'NONE', ( #284, #30, #256, #148 ) ) ;
#3 = DIRECTION ( 'NONE',  ( -1.000000000000000000, 0.000000000000000000, 0.000000000000000000 ) ) ;
#4 = EDGE_CURVE ( 'NONE', #57, #33, #238, .T. ) ;
#5 = AXIS2_PLACEMENT_3D ( 'NONE', #221, #270, #143 ) ;
#6 = CIRCLE ( 'NONE', #64, 1.000000000000000000 ) ;
#7 = CARTESIAN_POINT ( 'NONE',  ( 6.288372600415925717E-15, 23.99999999999999289, 0.000000000000000000 ) ) ;
#8 = CARTESIAN_POINT ( 'NONE',  ( 0.000000000000000000, 1.000000000000000000, 0.000000000000000000 ) ) ;
#9 = PRESENTATION_STYLE_ASSIGNMENT (( #350 ) ) ;
#10 = AXIS2_PLACEMENT_3D ( 'NONE', #7, #90, #232 ) ;
#11 = DIRECTION ( 'NONE',  ( -0.000000000000000000, -1.000000000000000000, -0.000000000000000000 ) ) ;
#12 = DIRECTION ( 'NONE',  ( -1.231212018341879827E-16, 1.000000000000000000, -0.000000000000000000 ) ) ;
#13 = SURFACE_STYLE_USAGE ( .BOTH. , #160 ) ;
#14 = FILL_AREA_STYLE ('',( #185 ) ) ;
#15 = STYLED_ITEM ( 'NONE', ( #151 ), #226 ) ;
#16 = ADVANCED_FACE ( 'NONE', ( #318 ), #360, .T. ) ;
#17 = VECTOR ( 'NONE', #21, 1000.000000000000000 ) ;
#18 = DIRECTION ( 'NONE',  ( -1.000000000000000000, -1.231212018341879827E-16, 0.000000000000000000 ) ) ;
#19 = FILL_AREA_STYLE ('',( #169 ) ) ;
#20 = FILL_AREA_STYLE_COLOUR ( '', #119 ) ;
#21 = DIRECTION ( 'NONE',  ( -1.231212018341879827E-16, 1.000000000000000000, -0.000000000000000000 ) ) ;
#22 = DIRECTION ( 'NONE',  ( -0.000000000000000000, -1.000000000000000000, -0.000000000000000000 ) ) ;
#23 = EDGE_CURVE ( 'NONE', #125, #322, #314, .T. ) ;
#24 = VERTEX_POINT ( 'NONE', #215 ) ;
#25 = DIRECTION ( 'NONE',  ( -1.000000000000000000, 0.000000000000000000, 0.000000000000000000 ) ) ;
#26 = DIRECTION ( 'NONE',  ( 0.000000000000000000, 0.000000000000000000, -1.000000000000000000 ) ) ;
#27 = ADVANCED_FACE ( 'NONE', ( #76 ), #131, .T. ) ;
#28 = MECHANICAL_DESIGN_GEOMETRIC_PRESENTATION_REPRESENTATION (  '', ( #282 ), #73 ) ;
#29 =( LENGTH_UNIT ( ) NAMED_UNIT ( * ) SI_UNIT ( .MILLI., .METRE. ) );
#30 = ORIENTED_EDGE ( 'NONE', *, *, #353, .T. ) ;
#31 = EDGE_CURVE ( 'NONE', #42, #281, #265, .T. ) ;
#32 = APPLICATION_CONTEXT ( 'automotive_design' ) ;
#33 = VERTEX_POINT ( 'NONE', #236 ) ;
#34 =( NAMED_UNIT ( * ) PLANE_ANGLE_UNIT ( ) SI_UNIT ( $, .RADIAN. ) );
#35 = MECHANICAL_DESIGN_GEOMETRIC_PRESENTATION_REPRESENTATION (  '', ( #36 ), #208 ) ;
#36 = STYLED_ITEM ( 'NONE', ( #369 ), #88 ) ;
#37 = AXIS2_PLACEMENT_3D ( 'NONE', #312, #65, #283 ) ;
#38 = SURFACE_STYLE_USAGE ( .BOTH. , #175 ) ;
#39 = CARTESIAN_POINT ( 'NONE',  ( 8.000000000000000000, 89.00000000000000000, 9.797174393178825657E-16 ) ) ;
#40 = DIRECTION ( 'NONE',  ( -0.000000000000000000, -1.000000000000000000, -0.000000000000000000 ) ) ;
#41 =( NAMED_UNIT ( * ) SI_UNIT ( $, .STERADIAN. ) SOLID_ANGLE_UNIT ( ) );
#42 = VERTEX_POINT ( 'NONE', #134 ) ;
#43 = STYLED_ITEM ( 'NONE', ( #94 ), #218 ) ;
#44 =( GEOMETRIC_REPRESENTATION_CONTEXT ( 3 ) GLOBAL_UNCERTAINTY_ASSIGNED_CONTEXT ( ( #180 ) ) GLOBAL_UNIT_ASSIGNED_CONTEXT ( ( #159, #156, #354 ) ) REPRESENTATION_CONTEXT ( 'NONE', 'WORKASPACE' ) );
#45 = SURFACE_STYLE_FILL_AREA ( #136 ) ;
#46 = FILL_AREA_STYLE_COLOUR ( '', #154 ) ;
#47 = EDGE_LOOP ( 'NONE', ( #306, #77, #101, #370 ) ) ;
#48 = FILL_AREA_STYLE_COLOUR ( '', #292 ) ;
#49 = PLANE ( 'NONE',  #5 ) ;
#50 = DIRECTION ( 'NONE',  ( -1.224646799147353454E-16, 0.000000000000000000, -1.000000000000000000 ) ) ;
#51 = CARTESIAN_POINT ( 'NONE',  ( 0.000000000000000000, 0.000000000000000000, 0.000000000000000000 ) ) ;
#52 = AXIS2_PLACEMENT_3D ( 'NONE', #212, #40, #71 ) ;
#53 =( GEOMETRIC_REPRESENTATION_CONTEXT ( 3 ) GLOBAL_UNCERTAINTY_ASSIGNED_CONTEXT ( ( #316 ) ) GLOBAL_UNIT_ASSIGNED_CONTEXT ( ( #317, #235, #98 ) ) REPRESENTATION_CONTEXT ( 'NONE', 'WORKASPACE' ) );
#54 = FACE_OUTER_BOUND ( 'NONE', #216, .T. ) ;
#55 = PRODUCT_CONTEXT ( 'NONE', #178, 'mechanical' ) ;
#56 = SURFACE_STYLE_FILL_AREA ( #19 ) ;
#57 = VERTEX_POINT ( 'NONE', #321 ) ;
#58 = SURFACE_STYLE_USAGE ( .BOTH. , #114 ) ;
#59 = PRESENTATION_LAYER_ASSIGNMENT (  '', '', ( #36 ) ) ;
#60 = MECHANICAL_DESIGN_GEOMETRIC_PRESENTATION_REPRESENTATION (  '', ( #15 ), #105 ) ;
#61 = ORIENTED_EDGE ( 'NONE', *, *, #220, .T. ) ;
#62 = DIRECTION ( 'NONE',  ( -0.000000000000000000, -1.000000000000000000, -0.000000000000000000 ) ) ;
#63 = CARTESIAN_POINT ( 'NONE',  ( -1.714505518806293652E-15, 89.00000000000000000, 0.000000000000000000 ) ) ;
#64 = AXIS2_PLACEMENT_3D ( 'NONE', #253, #204, #228 ) ;
#65 = DIRECTION ( 'NONE',  ( 0.000000000000000000, 1.000000000000000000, 0.000000000000000000 ) ) ;
#66 =( LENGTH_UNIT ( ) NAMED_UNIT ( * ) SI_UNIT ( .MILLI., .METRE. ) );
#67 = CIRCLE ( 'NONE', #150, 8.000000000000000000 ) ;
#68 = DIRECTION ( 'NONE',  ( -0.000000000000000000, -1.000000000000000000, -0.000000000000000000 ) ) ;
#69 = SURFACE_SIDE_STYLE ('',( #45 ) ) ;
#70 = FILL_AREA_STYLE ('',( #46 ) ) ;
#71 = DIRECTION ( 'NONE',  ( 0.000000000000000000, 0.000000000000000000, -1.000000000000000000 ) ) ;
#72 = STYLED_ITEM ( 'NONE', ( #269 ), #86 ) ;
#73 =( GEOMETRIC_REPRESENTATION_CONTEXT ( 3 ) GLOBAL_UNCERTAINTY_ASSIGNED_CONTEXT ( ( #75 ) ) GLOBAL_UNIT_ASSIGNED_CONTEXT ( ( #66, #173, #280 ) ) REPRESENTATION_CONTEXT ( 'NONE', 'WORKASPACE' ) );
#74 = FACE_OUTER_BOUND ( 'NONE', #356, .T. ) ;
#75 = UNCERTAINTY_MEASURE_WITH_UNIT (LENGTH_MEASURE( 1.000000000000000082E-05 ), #66, 'distance_accuracy_value', 'NONE');
#76 = FACE_OUTER_BOUND ( 'NONE', #302, .T. ) ;
#77 = ORIENTED_EDGE ( 'NONE', *, *, #31, .T. ) ;
#78 = AXIS2_PLACEMENT_3D ( 'NONE', #142, #301, #80 ) ;
#79 = ORIENTED_EDGE ( 'NONE', *, *, #286, .F. ) ;
#80 = DIRECTION ( 'NONE',  ( 1.000000000000000000, 0.000000000000000000, 0.000000000000000000 ) ) ;
#81 = CARTESIAN_POINT ( 'NONE',  ( 9.797174393178825657E-16, 0.000000000000000000, 8.000000000000000000 ) ) ;
#82 =( NAMED_UNIT ( * ) SI_UNIT ( $, .STERADIAN. ) SOLID_ANGLE_UNIT ( ) );
#83 = CIRCLE ( 'NONE', #146, 7.000000000000000000 ) ;
#84 = AXIS2_PLACEMENT_3D ( 'NONE', #191, #138, #26 ) ;
#85 = CARTESIAN_POINT ( 'NONE',  ( 0.000000000000000000, 24.00000000000000000, 0.000000000000000000 ) ) ;
#86 = ADVANCED_FACE ( 'NONE', ( #74 ), #49, .T. ) ;
#87 = SURFACE_SIDE_STYLE ('',( #56 ) ) ;
#88 = ADVANCED_FACE ( 'NONE', ( #225 ), #99, .T. ) ;
#89 = ORIENTED_EDGE ( 'NONE', *, *, #96, .F. ) ;
#90 = DIRECTION ( 'NONE',  ( -1.231212018341879827E-16, 1.000000000000000000, -0.000000000000000000 ) ) ;
#91 =( GEOMETRIC_REPRESENTATION_CONTEXT ( 3 ) GLOBAL_UNCERTAINTY_ASSIGNED_CONTEXT ( ( #107 ) ) GLOBAL_UNIT_ASSIGNED_CONTEXT ( ( #186, #103, #41 ) ) REPRESENTATION_CONTEXT ( 'NONE', 'WORKASPACE' ) );
#92 = AXIS2_PLACEMENT_3D ( 'NONE', #211, #234, #18 ) ;
#93 = EDGE_CURVE ( 'NONE', #281, #24, #145, .T. ) ;
#94 = PRESENTATION_STYLE_ASSIGNMENT (( #336 ) ) ;
#95 = ADVANCED_BREP_SHAPE_REPRESENTATION ( '59530', ( #331, #328, #78 ), #249 ) ;
#96 = EDGE_CURVE ( 'NONE', #170, #115, #305, .T. ) ;
#97 = UNCERTAINTY_MEASURE_WITH_UNIT (LENGTH_MEASURE( 1.000000000000000082E-05 ), #29, 'distance_accuracy_value', 'NONE');
#98 =( NAMED_UNIT ( * ) SI_UNIT ( $, .STERADIAN. ) SOLID_ANGLE_UNIT ( ) );
#99 = TOROIDAL_SURFACE ( 'NONE', #297, 7.000000000000000000, 1.000000000000000000 ) ;
#100 = AXIS2_PLACEMENT_3D ( 'NONE', #362, #171, #274 ) ;
#101 = ORIENTED_EDGE ( 'NONE', *, *, #197, .F. ) ;
#102 = CARTESIAN_POINT ( 'NONE',  ( 0.000000000000000000, 0.000000000000000000, 0.000000000000000000 ) ) ;
#103 =( NAMED_UNIT ( * ) PLANE_ANGLE_UNIT ( ) SI_UNIT ( $, .RADIAN. ) );
#104 = DIRECTION ( 'NONE',  ( -0.000000000000000000, -1.000000000000000000, -0.000000000000000000 ) ) ;
#105 =( GEOMETRIC_REPRESENTATION_CONTEXT ( 3 ) GLOBAL_UNCERTAINTY_ASSIGNED_CONTEXT ( ( #189 ) ) GLOBAL_UNIT_ASSIGNED_CONTEXT ( ( #255, #121, #126 ) ) REPRESENTATION_CONTEXT ( 'NONE', 'WORKASPACE' ) );
#106 = DIRECTION ( 'NONE',  ( 1.000000000000000000, 1.231212018341879827E-16, 0.000000000000000000 ) ) ;
#107 = UNCERTAINTY_MEASURE_WITH_UNIT (LENGTH_MEASURE( 1.000000000000000082E-05 ), #186, 'distance_accuracy_value', 'NONE');
#108 =( LENGTH_UNIT ( ) NAMED_UNIT ( * ) SI_UNIT ( .MILLI., .METRE. ) );
#109 = APPLICATION_PROTOCOL_DEFINITION ( 'draft international standard', 'automotive_design', 1998, #32 ) ;
#110 = LINE ( 'NONE', #250, #155 ) ;
#111 = EDGE_CURVE ( 'NONE', #170, #33, #307, .T. ) ;
#112 = ORIENTED_EDGE ( 'NONE', *, *, #31, .F. ) ;
#113 = STYLED_ITEM ( 'NONE', ( #241 ), #328 ) ;
#114 = SURFACE_SIDE_STYLE ('',( #365 ) ) ;
#115 = VERTEX_POINT ( 'NONE', #144 ) ;
#116 = DIRECTION ( 'NONE',  ( 0.000000000000000000, 0.000000000000000000, -1.000000000000000000 ) ) ;
#117 = ORIENTED_EDGE ( 'NONE', *, *, #197, .T. ) ;
#118 = DIRECTION ( 'NONE',  ( -1.231212018341879827E-16, 1.000000000000000000, -0.000000000000000000 ) ) ;
#119 = COLOUR_RGB ( '',1.000000000000000000, 0.000000000000000000, 0.000000000000000000 ) ;
#120 = ADVANCED_FACE ( 'NONE', ( #54 ), #137, .T. ) ;
#121 =( NAMED_UNIT ( * ) PLANE_ANGLE_UNIT ( ) SI_UNIT ( $, .RADIAN. ) );
#122 = STYLED_ITEM ( 'NONE', ( #9 ), #27 ) ;
#123 = PRESENTATION_LAYER_ASSIGNMENT (  '', '', ( #43 ) ) ;
#124 = FILL_AREA_STYLE_COLOUR ( '', #341 ) ;
#125 = VERTEX_POINT ( 'NONE', #278 ) ;
#126 =( NAMED_UNIT ( * ) SI_UNIT ( $, .STERADIAN. ) SOLID_ANGLE_UNIT ( ) );
#127 = FACE_OUTER_BOUND ( 'NONE', #291, .T. ) ;
#128 = PRESENTATION_LAYER_ASSIGNMENT (  '', '', ( #15 ) ) ;
#129 = PRODUCT_DEFINITION_SHAPE ( 'NONE', 'NONE',  #258 ) ;
#130 = CARTESIAN_POINT ( 'NONE',  ( 6.288372600415925717E-15, 23.99999999999999289, 0.000000000000000000 ) ) ;
#131 = CYLINDRICAL_SURFACE ( 'NONE', #340, 8.000000000000000000 ) ;
#132 = DIRECTION ( 'NONE',  ( 0.000000000000000000, 0.000000000000000000, -1.000000000000000000 ) ) ;
#133 = EDGE_CURVE ( 'NONE', #115, #57, #110, .T. ) ;
#134 = CARTESIAN_POINT ( 'NONE',  ( 8.000000000000000000, 23.99999999999999289, 9.797174393178825657E-16 ) ) ;
#135 = CIRCLE ( 'NONE', #263, 1.000000000000000000 ) ;
#136 = FILL_AREA_STYLE ('',( #266 ) ) ;
#137 = CYLINDRICAL_SURFACE ( 'NONE', #100, 7.999999999999996447 ) ;
#138 = DIRECTION ( 'NONE',  ( -0.000000000000000000, -1.000000000000000000, -0.000000000000000000 ) ) ;
#139 = CARTESIAN_POINT ( 'NONE',  ( 0.000000000000000000, 1.000000000000000000, 0.000000000000000000 ) ) ;
#140 = VECTOR ( 'NONE', #12, 1000.000000000000000 ) ;
#141 = ORIENTED_EDGE ( 'NONE', *, *, #96, .T. ) ;
#142 = CARTESIAN_POINT ( 'NONE',  ( 0.000000000000000000, 0.000000000000000000, 0.000000000000000000 ) ) ;
#143 = DIRECTION ( 'NONE',  ( 0.000000000000000000, 0.000000000000000000, -1.000000000000000000 ) ) ;
#144 = CARTESIAN_POINT ( 'NONE',  ( 0.000000000000000000, 24.00000000000000000, -8.000000000000000000 ) ) ;
#145 = CIRCLE ( 'NONE', #233, 8.000000000000001776 ) ;
#146 = AXIS2_PLACEMENT_3D ( 'NONE', #102, #11, #351 ) ;
#147 = AXIS2_PLACEMENT_3D ( 'NONE', #237, #359, #106 ) ;
#148 = ORIENTED_EDGE ( 'NONE', *, *, #220, .F. ) ;
#149 = ORIENTED_EDGE ( 'NONE', *, *, #133, .F. ) ;
#150 = AXIS2_PLACEMENT_3D ( 'NONE', #139, #329, #192 ) ;
#151 = PRESENTATION_STYLE_ASSIGNMENT (( #38 ) ) ;
#152 = ORIENTED_EDGE ( 'NONE', *, *, #133, .T. ) ;
#153 = SURFACE_STYLE_FILL_AREA ( #70 ) ;
#154 = COLOUR_RGB ( '',1.000000000000000000, 0.000000000000000000, 0.000000000000000000 ) ;
#155 = VECTOR ( 'NONE', #164, 1000.000000000000000 ) ;
#156 =( NAMED_UNIT ( * ) PLANE_ANGLE_UNIT ( ) SI_UNIT ( $, .RADIAN. ) );
#157 = DIRECTION ( 'NONE',  ( -1.000000000000000000, 0.000000000000000000, 0.000000000000000000 ) ) ;
#158 = EDGE_CURVE ( 'NONE', #33, #57, #67, .T. ) ;
#159 =( LENGTH_UNIT ( ) NAMED_UNIT ( * ) SI_UNIT ( .MILLI., .METRE. ) );
#160 = SURFACE_SIDE_STYLE ('',( #214 ) ) ;
#161 = CARTESIAN_POINT ( 'NONE',  ( 7.999999999999994671, 89.00000000000000000, 9.797174393178821713E-16 ) ) ;
#162 = PRESENTATION_LAYER_ASSIGNMENT (  '', '', ( #282 ) ) ;
#163 = CARTESIAN_POINT ( 'NONE',  ( 9.797174393178825657E-16, 24.00000000000000000, 8.000000000000000000 ) ) ;
#164 = DIRECTION ( 'NONE',  ( -0.000000000000000000, -1.000000000000000000, -0.000000000000000000 ) ) ;
#165 = EDGE_LOOP ( 'NONE', ( #117, #199 ) ) ;
#166 = PRESENTATION_STYLE_ASSIGNMENT (( #58 ) ) ;
#167 =( GEOMETRIC_REPRESENTATION_CONTEXT ( 3 ) GLOBAL_UNCERTAINTY_ASSIGNED_CONTEXT ( ( #240 ) ) GLOBAL_UNIT_ASSIGNED_CONTEXT ( ( #108, #332, #224 ) ) REPRESENTATION_CONTEXT ( 'NONE', 'WORKASPACE' ) );
#168 =( GEOMETRIC_REPRESENTATION_CONTEXT ( 3 ) GLOBAL_UNCERTAINTY_ASSIGNED_CONTEXT ( ( #97 ) ) GLOBAL_UNIT_ASSIGNED_CONTEXT ( ( #29, #34, #257 ) ) REPRESENTATION_CONTEXT ( 'NONE', 'WORKASPACE' ) );
#169 = FILL_AREA_STYLE_COLOUR ( '', #287 ) ;
#170 = VERTEX_POINT ( 'NONE', #163 ) ;
#171 = DIRECTION ( 'NONE',  ( -1.231212018341879827E-16, 1.000000000000000000, -0.000000000000000000 ) ) ;
#172 = EDGE_LOOP ( 'NONE', ( #207, #89 ) ) ;
#173 =( NAMED_UNIT ( * ) PLANE_ANGLE_UNIT ( ) SI_UNIT ( $, .RADIAN. ) );
#174 = PRODUCT_DEFINITION_CONTEXT ( 'detailed design', #32, 'design' ) ;
#175 = SURFACE_SIDE_STYLE ('',( #289 ) ) ;
#176 = FACE_OUTER_BOUND ( 'NONE', #2, .T. ) ;
#177 = ORIENTED_EDGE ( 'NONE', *, *, #357, .T. ) ;
#178 = APPLICATION_CONTEXT ( 'automotive_design' ) ;
#179 = FILL_AREA_STYLE ('',( #48 ) ) ;
#180 = UNCERTAINTY_MEASURE_WITH_UNIT (LENGTH_MEASURE( 1.000000000000000082E-05 ), #159, 'distance_accuracy_value', 'NONE');
#181 = SURFACE_STYLE_USAGE ( .BOTH. , #69 ) ;
#182 = CARTESIAN_POINT ( 'NONE',  ( -1.714505518806293849E-15, 89.00000000000000000, 0.000000000000000000 ) ) ;
#183 = FACE_OUTER_BOUND ( 'NONE', #165, .T. ) ;
#184 = ADVANCED_FACE ( 'NONE', ( #303 ), #271, .T. ) ;
#185 = FILL_AREA_STYLE_COLOUR ( '', #229 ) ;
#186 =( LENGTH_UNIT ( ) NAMED_UNIT ( * ) SI_UNIT ( .MILLI., .METRE. ) );
#187 = PRODUCT ( '59530', '59530', '', ( #55 ) ) ;
#188 = ORIENTED_EDGE ( 'NONE', *, *, #23, .T. ) ;
#189 = UNCERTAINTY_MEASURE_WITH_UNIT (LENGTH_MEASURE( 1.000000000000000082E-05 ), #255, 'distance_accuracy_value', 'NONE');
#190 = MECHANICAL_DESIGN_GEOMETRIC_PRESENTATION_REPRESENTATION (  '', ( #251 ), #44 ) ;
#191 = CARTESIAN_POINT ( 'NONE',  ( 0.000000000000000000, 24.00000000000000000, 0.000000000000000000 ) ) ;
#192 = DIRECTION ( 'NONE',  ( 0.000000000000000000, 0.000000000000000000, -1.000000000000000000 ) ) ;
#193 = SURFACE_STYLE_USAGE ( .BOTH. , #87 ) ;
#194 = CLOSED_SHELL ( 'NONE', ( #16, #324, #120, #338 ) ) ;
#195 = VECTOR ( 'NONE', #62, 1000.000000000000000 ) ;
#196 = DIRECTION ( 'NONE',  ( 0.000000000000000000, 0.000000000000000000, -1.000000000000000000 ) ) ;
#197 = EDGE_CURVE ( 'NONE', #24, #281, #275, .T. ) ;
#198 = DIRECTION ( 'NONE',  ( 0.000000000000000000, 0.000000000000000000, -1.000000000000000000 ) ) ;
#199 = ORIENTED_EDGE ( 'NONE', *, *, #93, .T. ) ;
#200 = SURFACE_STYLE_FILL_AREA ( #342 ) ;
#201 = MECHANICAL_DESIGN_GEOMETRIC_PRESENTATION_REPRESENTATION (  '', ( #122 ), #91 ) ;
#202 = EDGE_CURVE ( 'NONE', #42, #277, #230, .T. ) ;
#203 = AXIS2_PLACEMENT_3D ( 'NONE', #85, #330, #196 ) ;
#204 = DIRECTION ( 'NONE',  ( -1.000000000000000000, 0.000000000000000000, 0.000000000000000000 ) ) ;
#205 = PLANE ( 'NONE',  #37 ) ;
#206 = DIRECTION ( 'NONE',  ( -1.231212018341879827E-16, 1.000000000000000000, -0.000000000000000000 ) ) ;
#207 = ORIENTED_EDGE ( 'NONE', *, *, #366, .F. ) ;
#208 =( GEOMETRIC_REPRESENTATION_CONTEXT ( 3 ) GLOBAL_UNCERTAINTY_ASSIGNED_CONTEXT ( ( #311 ) ) GLOBAL_UNIT_ASSIGNED_CONTEXT ( ( #244, #304, #300 ) ) REPRESENTATION_CONTEXT ( 'NONE', 'WORKASPACE' ) );
#209 = MECHANICAL_DESIGN_GEOMETRIC_PRESENTATION_REPRESENTATION (  '', ( #113 ), #53 ) ;
#210 = CARTESIAN_POINT ( 'NONE',  ( 9.184850993605147944E-16, 0.000000000000000000, 7.000000000000000000 ) ) ;
#211 = CARTESIAN_POINT ( 'NONE',  ( 6.288372600415925717E-15, 24.00000000000000000, 0.000000000000000000 ) ) ;
#212 = CARTESIAN_POINT ( 'NONE',  ( 0.000000000000000000, 1.000000000000000000, 0.000000000000000000 ) ) ;
#213 = ORIENTED_EDGE ( 'NONE', *, *, #111, .T. ) ;
#214 = SURFACE_STYLE_FILL_AREA ( #179 ) ;
#215 = CARTESIAN_POINT ( 'NONE',  ( -8.000000000000003553, 89.00000000000000000, 0.000000000000000000 ) ) ;
#216 = EDGE_LOOP ( 'NONE', ( #112, #346, #177, #296 ) ) ;
#217 = CARTESIAN_POINT ( 'NONE',  ( 8.572527594031473190E-16, 1.000000000000000000, 7.000000000000000000 ) ) ;
#218 = ADVANCED_FACE ( 'NONE', ( #313 ), #205, .T. ) ;
#219 = SURFACE_SIDE_STYLE ('',( #239 ) ) ;
#220 = EDGE_CURVE ( 'NONE', #57, #125, #6, .T. ) ;
#221 = CARTESIAN_POINT ( 'NONE',  ( 0.000000000000000000, 0.000000000000000000, 0.000000000000000000 ) ) ;
#222 = COLOUR_RGB ( '',1.000000000000000000, 0.000000000000000000, 0.000000000000000000 ) ;
#223 = PRODUCT_DEFINITION_FORMATION_WITH_SPECIFIED_SOURCE ( 'ANY', '', #187, .NOT_KNOWN. ) ;
#224 =( NAMED_UNIT ( * ) SI_UNIT ( $, .STERADIAN. ) SOLID_ANGLE_UNIT ( ) );
#225 = FACE_OUTER_BOUND ( 'NONE', #335, .T. ) ;
#226 = ADVANCED_FACE ( 'NONE', ( #176 ), #262, .T. ) ;
#227 = ORIENTED_EDGE ( 'NONE', *, *, #158, .F. ) ;
#228 = DIRECTION ( 'NONE',  ( 0.000000000000000000, 0.000000000000000000, 1.000000000000000000 ) ) ;
#229 = COLOUR_RGB ( '',1.000000000000000000, 0.000000000000000000, 0.000000000000000000 ) ;
#230 = CIRCLE ( 'NONE', #10, 7.999999999999992895 ) ;
#231 = FILL_AREA_STYLE_COLOUR ( '', #222 ) ;
#232 = DIRECTION ( 'NONE',  ( -1.000000000000000000, 0.000000000000000000, 0.000000000000000000 ) ) ;
#233 = AXIS2_PLACEMENT_3D ( 'NONE', #276, #118, #25 ) ;
#234 = DIRECTION ( 'NONE',  ( -1.231212018341879827E-16, 1.000000000000000000, 0.000000000000000000 ) ) ;
#235 =( NAMED_UNIT ( * ) PLANE_ANGLE_UNIT ( ) SI_UNIT ( $, .RADIAN. ) );
#236 = CARTESIAN_POINT ( 'NONE',  ( 9.797174393178825657E-16, 1.000000000000000000, 8.000000000000000000 ) ) ;
#237 = CARTESIAN_POINT ( 'NONE',  ( 8.000000000000000000, 89.00000000000000000, 0.000000000000000000 ) ) ;
#238 = CIRCLE ( 'NONE', #52, 8.000000000000000000 ) ;
#239 = SURFACE_STYLE_FILL_AREA ( #14 ) ;
#240 = UNCERTAINTY_MEASURE_WITH_UNIT (LENGTH_MEASURE( 1.000000000000000082E-05 ), #108, 'distance_accuracy_value', 'NONE');
#241 = PRESENTATION_STYLE_ASSIGNMENT (( #181 ) ) ;
#242 = DIRECTION ( 'NONE',  ( -1.231212018341879827E-16, 1.000000000000000000, -0.000000000000000000 ) ) ;
#243 = CARTESIAN_POINT ( 'NONE',  ( -7.999999999999998224, 89.00000000000000000, 0.000000000000000000 ) ) ;
#244 =( LENGTH_UNIT ( ) NAMED_UNIT ( * ) SI_UNIT ( .MILLI., .METRE. ) );
#245 = ORIENTED_EDGE ( 'NONE', *, *, #202, .F. ) ;
#246 =( LENGTH_UNIT ( ) NAMED_UNIT ( * ) SI_UNIT ( .MILLI., .METRE. ) );
#247 = FILL_AREA_STYLE ('',( #20 ) ) ;
#248 = AXIS2_PLACEMENT_3D ( 'NONE', #8, #68, #294 ) ;
#249 =( GEOMETRIC_REPRESENTATION_CONTEXT ( 3 ) GLOBAL_UNCERTAINTY_ASSIGNED_CONTEXT ( ( #344 ) ) GLOBAL_UNIT_ASSIGNED_CONTEXT ( ( #246, #298, #82 ) ) REPRESENTATION_CONTEXT ( 'NONE', 'WORKASPACE' ) );
#250 = CARTESIAN_POINT ( 'NONE',  ( 0.000000000000000000, 0.000000000000000000, -8.000000000000000000 ) ) ;
#251 = STYLED_ITEM ( 'NONE', ( #264 ), #331 ) ;
#252 = PRODUCT_RELATED_PRODUCT_CATEGORY ( 'part', '', ( #187 ) ) ;
#253 = CARTESIAN_POINT ( 'NONE',  ( 0.000000000000000000, 1.000000000000000000, -7.000000000000000000 ) ) ;
#254 = ORIENTED_EDGE ( 'NONE', *, *, #279, .F. ) ;
#255 =( LENGTH_UNIT ( ) NAMED_UNIT ( * ) SI_UNIT ( .MILLI., .METRE. ) );
#256 = ORIENTED_EDGE ( 'NONE', *, *, #23, .F. ) ;
#257 =( NAMED_UNIT ( * ) SI_UNIT ( $, .STERADIAN. ) SOLID_ANGLE_UNIT ( ) );
#258 = PRODUCT_DEFINITION ( 'UNKNOWN', '', #223, #174 ) ;
#259 = EDGE_LOOP ( 'NONE', ( #337, #213, #310, #149 ) ) ;
#260 = PLANE ( 'NONE',  #92 ) ;
#261 = DIRECTION ( 'NONE',  ( -0.000000000000000000, -1.000000000000000000, -0.000000000000000000 ) ) ;
#262 = TOROIDAL_SURFACE ( 'NONE', #248, 7.000000000000000000, 1.000000000000000000 ) ;
#263 = AXIS2_PLACEMENT_3D ( 'NONE', #217, #323, #50 ) ;
#264 = PRESENTATION_STYLE_ASSIGNMENT (( #13 ) ) ;
#265 = LINE ( 'NONE', #161, #140 ) ;
#266 = FILL_AREA_STYLE_COLOUR ( '', #288 ) ;
#267 = DIRECTION ( 'NONE',  ( -1.231212018341879827E-16, 1.000000000000000000, -0.000000000000000000 ) ) ;
#268 = AXIS2_PLACEMENT_3D ( 'NONE', #130, #267, #295 ) ;
#269 = PRESENTATION_STYLE_ASSIGNMENT (( #325 ) ) ;
#270 = DIRECTION ( 'NONE',  ( 0.000000000000000000, -1.000000000000000000, -0.000000000000000000 ) ) ;
#271 = CYLINDRICAL_SURFACE ( 'NONE', #320, 8.000000000000000000 ) ;
#272 = LINE ( 'NONE', #243, #17 ) ;
#273 = PRESENTATION_LAYER_ASSIGNMENT (  '', '', ( #72 ) ) ;
#274 = DIRECTION ( 'NONE',  ( -1.000000000000000000, 0.000000000000000000, 0.000000000000000000 ) ) ;
#275 = CIRCLE ( 'NONE', #315, 8.000000000000001776 ) ;
#276 = CARTESIAN_POINT ( 'NONE',  ( -1.714505518806293652E-15, 89.00000000000000000, 0.000000000000000000 ) ) ;
#277 = VERTEX_POINT ( 'NONE', #285 ) ;
#278 = CARTESIAN_POINT ( 'NONE',  ( 0.000000000000000000, 0.000000000000000000, -7.000000000000000000 ) ) ;
#279 = EDGE_CURVE ( 'NONE', #277, #42, #299, .T. ) ;
#280 =( NAMED_UNIT ( * ) SI_UNIT ( $, .STERADIAN. ) SOLID_ANGLE_UNIT ( ) );
#281 = VERTEX_POINT ( 'NONE', #39 ) ;
#282 = STYLED_ITEM ( 'NONE', ( #166 ), #184 ) ;
#283 = DIRECTION ( 'NONE',  ( 0.000000000000000000, -0.000000000000000000, 1.000000000000000000 ) ) ;
#284 = ORIENTED_EDGE ( 'NONE', *, *, #4, .T. ) ;
#285 = CARTESIAN_POINT ( 'NONE',  ( -7.999999999999986677, 23.99999999999999289, 0.000000000000000000 ) ) ;
#286 = EDGE_CURVE ( 'NONE', #322, #125, #83, .T. ) ;
#287 = COLOUR_RGB ( '',1.000000000000000000, 0.000000000000000000, 0.000000000000000000 ) ;
#288 = COLOUR_RGB ( '',0.7921568627450980005, 0.8196078431372548767, 0.9333333333333333481 ) ;
#289 = SURFACE_STYLE_FILL_AREA ( #343 ) ;
#290 = PLANE ( 'NONE',  #147 ) ;
#291 = EDGE_LOOP ( 'NONE', ( #254, #245 ) ) ;
#292 = COLOUR_RGB ( '',0.7921568627450980005, 0.8196078431372548767, 0.9333333333333333481 ) ;
#293 = DIRECTION ( 'NONE',  ( 0.000000000000000000, 0.000000000000000000, -1.000000000000000000 ) ) ;
#294 = DIRECTION ( 'NONE',  ( 0.000000000000000000, 0.000000000000000000, -1.000000000000000000 ) ) ;
#295 = DIRECTION ( 'NONE',  ( -1.000000000000000000, 0.000000000000000000, 0.000000000000000000 ) ) ;
#296 = ORIENTED_EDGE ( 'NONE', *, *, #93, .F. ) ;
#297 = AXIS2_PLACEMENT_3D ( 'NONE', #367, #22, #116 ) ;
#298 =( NAMED_UNIT ( * ) PLANE_ANGLE_UNIT ( ) SI_UNIT ( $, .RADIAN. ) );
#299 = CIRCLE ( 'NONE', #268, 7.999999999999992895 ) ;
#300 =( NAMED_UNIT ( * ) SI_UNIT ( $, .STERADIAN. ) SOLID_ANGLE_UNIT ( ) );
#301 = DIRECTION ( 'NONE',  ( 0.000000000000000000, 0.000000000000000000, 1.000000000000000000 ) ) ;
#302 = EDGE_LOOP ( 'NONE', ( #327, #141, #152, #227 ) ) ;
#303 = FACE_OUTER_BOUND ( 'NONE', #259, .T. ) ;
#304 =( NAMED_UNIT ( * ) PLANE_ANGLE_UNIT ( ) SI_UNIT ( $, .RADIAN. ) );
#305 = CIRCLE ( 'NONE', #203, 8.000000000000000000 ) ;
#306 = ORIENTED_EDGE ( 'NONE', *, *, #279, .T. ) ;
#307 = LINE ( 'NONE', #81, #195 ) ;
#308 = ORIENTED_EDGE ( 'NONE', *, *, #353, .F. ) ;
#309 = AXIS2_PLACEMENT_3D ( 'NONE', #355, #261, #132 ) ;
#310 = ORIENTED_EDGE ( 'NONE', *, *, #4, .F. ) ;
#311 = UNCERTAINTY_MEASURE_WITH_UNIT (LENGTH_MEASURE( 1.000000000000000082E-05 ), #244, 'distance_accuracy_value', 'NONE');
#312 = CARTESIAN_POINT ( 'NONE',  ( 0.000000000000000000, 24.00000000000000000, 0.000000000000000000 ) ) ;
#313 = FACE_OUTER_BOUND ( 'NONE', #172, .T. ) ;
#314 = CIRCLE ( 'NONE', #309, 7.000000000000000000 ) ;
#315 = AXIS2_PLACEMENT_3D ( 'NONE', #63, #206, #3 ) ;
#316 = UNCERTAINTY_MEASURE_WITH_UNIT (LENGTH_MEASURE( 1.000000000000000082E-05 ), #317, 'distance_accuracy_value', 'NONE');
#317 =( LENGTH_UNIT ( ) NAMED_UNIT ( * ) SI_UNIT ( .MILLI., .METRE. ) );
#318 = FACE_OUTER_BOUND ( 'NONE', #47, .T. ) ;
#319 = MECHANICAL_DESIGN_GEOMETRIC_PRESENTATION_REPRESENTATION (  '', ( #72 ), #167 ) ;
#320 = AXIS2_PLACEMENT_3D ( 'NONE', #345, #1, #198 ) ;
#321 = CARTESIAN_POINT ( 'NONE',  ( 0.000000000000000000, 1.000000000000000000, -8.000000000000000000 ) ) ;
#322 = VERTEX_POINT ( 'NONE', #210 ) ;
#323 = DIRECTION ( 'NONE',  ( 1.000000000000000000, 0.000000000000000000, -1.224646799147353207E-16 ) ) ;
#324 = ADVANCED_FACE ( 'NONE', ( #127 ), #260, .F. ) ;
#325 = SURFACE_STYLE_USAGE ( .BOTH. , #219 ) ;
#326 = ORIENTED_EDGE ( 'NONE', *, *, #286, .T. ) ;
#327 = ORIENTED_EDGE ( 'NONE', *, *, #111, .F. ) ;
#328 = MANIFOLD_SOLID_BREP ( 'Revolve - Tool Body (Straight Shanked)', #194 ) ;
#329 = DIRECTION ( 'NONE',  ( -0.000000000000000000, -1.000000000000000000, -0.000000000000000000 ) ) ;
#330 = DIRECTION ( 'NONE',  ( -0.000000000000000000, -1.000000000000000000, -0.000000000000000000 ) ) ;
#331 = MANIFOLD_SOLID_BREP ( 'Revolve - Cutting Edge', #334 ) ;
#332 =( NAMED_UNIT ( * ) PLANE_ANGLE_UNIT ( ) SI_UNIT ( $, .RADIAN. ) );
#333 = ORIENTED_EDGE ( 'NONE', *, *, #158, .T. ) ;
#334 = CLOSED_SHELL ( 'NONE', ( #184, #226, #86, #88, #27, #218 ) ) ;
#335 = EDGE_LOOP ( 'NONE', ( #308, #333, #61, #79 ) ) ;
#336 = SURFACE_STYLE_USAGE ( .BOTH. , #339 ) ;
#337 = ORIENTED_EDGE ( 'NONE', *, *, #366, .T. ) ;
#338 = ADVANCED_FACE ( 'NONE', ( #183 ), #290, .F. ) ;
#339 = SURFACE_SIDE_STYLE ('',( #200 ) ) ;
#340 = AXIS2_PLACEMENT_3D ( 'NONE', #51, #104, #293 ) ;
#341 = COLOUR_RGB ( '',1.000000000000000000, 0.000000000000000000, 0.000000000000000000 ) ;
#342 = FILL_AREA_STYLE ('',( #231 ) ) ;
#343 = FILL_AREA_STYLE ('',( #124 ) ) ;
#344 = UNCERTAINTY_MEASURE_WITH_UNIT (LENGTH_MEASURE( 1.000000000000000082E-05 ), #246, 'distance_accuracy_value', 'NONE');
#345 = CARTESIAN_POINT ( 'NONE',  ( 0.000000000000000000, 0.000000000000000000, 0.000000000000000000 ) ) ;
#346 = ORIENTED_EDGE ( 'NONE', *, *, #202, .T. ) ;
#347 = AXIS2_PLACEMENT_3D ( 'NONE', #182, #242, #157 ) ;
#348 = PRESENTATION_LAYER_ASSIGNMENT (  '', '', ( #251 ) ) ;
#349 = CIRCLE ( 'NONE', #84, 8.000000000000000000 ) ;
#350 = SURFACE_STYLE_USAGE ( .BOTH. , #352 ) ;
#351 = DIRECTION ( 'NONE',  ( 0.000000000000000000, 0.000000000000000000, -1.000000000000000000 ) ) ;
#352 = SURFACE_SIDE_STYLE ('',( #153 ) ) ;
#353 = EDGE_CURVE ( 'NONE', #33, #322, #135, .T. ) ;
#354 =( NAMED_UNIT ( * ) SI_UNIT ( $, .STERADIAN. ) SOLID_ANGLE_UNIT ( ) );
#355 = CARTESIAN_POINT ( 'NONE',  ( 0.000000000000000000, 0.000000000000000000, 0.000000000000000000 ) ) ;
#356 = EDGE_LOOP ( 'NONE', ( #188, #326 ) ) ;
#357 = EDGE_CURVE ( 'NONE', #277, #24, #272, .T. ) ;
#358 = MECHANICAL_DESIGN_GEOMETRIC_PRESENTATION_REPRESENTATION (  '', ( #43 ), #168 ) ;
#359 = DIRECTION ( 'NONE',  ( 1.231212018341879827E-16, -1.000000000000000000, 0.000000000000000000 ) ) ;
#360 = CYLINDRICAL_SURFACE ( 'NONE', #347, 7.999999999999996447 ) ;
#361 = APPLICATION_PROTOCOL_DEFINITION ( 'draft international standard', 'automotive_design', 1998, #178 ) ;
#362 = CARTESIAN_POINT ( 'NONE',  ( -1.714505518806293849E-15, 89.00000000000000000, 0.000000000000000000 ) ) ;
#363 = PRESENTATION_LAYER_ASSIGNMENT (  '', '', ( #122 ) ) ;
#364 = SHAPE_DEFINITION_REPRESENTATION ( #129, #95 ) ;
#365 = SURFACE_STYLE_FILL_AREA ( #247 ) ;
#366 = EDGE_CURVE ( 'NONE', #115, #170, #349, .T. ) ;
#367 = CARTESIAN_POINT ( 'NONE',  ( 0.000000000000000000, 1.000000000000000000, 0.000000000000000000 ) ) ;
#368 = PRESENTATION_LAYER_ASSIGNMENT (  '', '', ( #113 ) ) ;
#369 = PRESENTATION_STYLE_ASSIGNMENT (( #193 ) ) ;
#370 = ORIENTED_EDGE ( 'NONE', *, *, #357, .F. ) ;
ENDSEC;
END-ISO-10303-21;
