ISO-10303-21;
HEADER;
FILE_DESCRIPTION (( 'STEP AP214' ),
    '1' );
FILE_NAME ('Micro_MMBM-015-20X.STEP',
    '2021-09-03T16:29:29',
    ( '' ),
    ( '' ),
    'SwSTEP 2.0',
    'SolidWorks 2020',
    '' );
FILE_SCHEMA (( 'AUTOMOTIVE_DESIGN' ));
ENDSEC;

DATA;
#1 = VECTOR ( 'NONE', #296, 39.37007874015748143 ) ;
#2 = COLOUR_RGB ( '',0.7921568627450980005, 0.8196078431372548767, 0.9333333333333333481 ) ;
#3 = CARTESIAN_POINT ( 'NONE',  ( -0.1181100000000000066, 0.0000000000000000000, 2.229093999999999465 ) ) ;
#4 = EDGE_LOOP ( 'NONE', ( #135, #69 ) ) ;
#5 = FACE_OUTER_BOUND ( 'NONE', #165, .T. ) ;
#6 = DIRECTION ( 'NONE',  ( -0.0000000000000000000, -0.0000000000000000000, -1.000000000000000000 ) ) ;
#7 = DIRECTION ( 'NONE',  ( 0.0000000000000000000, 0.0000000000000000000, 1.000000000000000000 ) ) ;
#8 =( NAMED_UNIT ( * ) SI_UNIT ( $, .STERADIAN. ) SOLID_ANGLE_UNIT ( ) );
#9 = VERTEX_POINT ( 'NONE', #12 ) ;
#10 = CIRCLE ( 'NONE', #115, 0.02952454724999999808 ) ;
#11 = LINE ( 'NONE', #47, #190 ) ;
#12 = CARTESIAN_POINT ( 'NONE',  ( 0.02854350000000009310, 3.495570591146259201E-18, 0.7874019999999999353 ) ) ;
#13 = DIRECTION ( 'NONE',  ( 1.000000000000000000, 0.0000000000000000000, 0.0000000000000000000 ) ) ;
#14 = DIRECTION ( 'NONE',  ( -1.000000000000000000, 0.0000000000000000000, 0.0000000000000000000 ) ) ;
#15 = FILL_AREA_STYLE ('',( #267 ) ) ;
#16 = ADVANCED_FACE ( 'NONE', ( #128, #281 ), #147, .T. ) ;
#17 = LINE ( 'NONE', #239, #1 ) ;
#18 = AXIS2_PLACEMENT_3D ( 'NONE', #87, #196, #148 ) ;
#19 =( NAMED_UNIT ( * ) PLANE_ANGLE_UNIT ( ) SI_UNIT ( $, .RADIAN. ) );
#20 = DIRECTION ( 'NONE',  ( 0.0000000000000000000, 0.0000000000000000000, 1.000000000000000000 ) ) ;
#21 = LINE ( 'NONE', #52, #343 ) ;
#22 = EDGE_CURVE ( 'NONE', #283, #38, #149, .T. ) ;
#23 = VECTOR ( 'NONE', #345, 39.37007874015748143 ) ;
#24 = EDGE_LOOP ( 'NONE', ( #185, #76, #111, #216 ) ) ;
#25 = EDGE_CURVE ( 'NONE', #38, #218, #131, .T. ) ;
#26 = AXIS2_PLACEMENT_3D ( 'NONE', #197, #7, #286 ) ;
#27 = CARTESIAN_POINT ( 'NONE',  ( 0.0000000000000000000, 0.0000000000000000000, 0.05905500000000000332 ) ) ;
#28 = APPLICATION_PROTOCOL_DEFINITION ( 'draft international standard', 'automotive_design', 1998, #342 ) ;
#29 = VERTEX_POINT ( 'NONE', #3 ) ;
#30 = DIRECTION ( 'NONE',  ( -0.0000000000000000000, -0.0000000000000000000, -1.000000000000000000 ) ) ;
#31 = AXIS2_PLACEMENT_3D ( 'NONE', #74, #105, #183 ) ;
#32 = PRESENTATION_LAYER_ASSIGNMENT (  '', '', ( #209 ) ) ;
#33 = ORIENTED_EDGE ( 'NONE', *, *, #242, .T. ) ;
#34 = LINE ( 'NONE', #170, #23 ) ;
#35 = DIRECTION ( 'NONE',  ( -0.0000000000000000000, -0.0000000000000000000, -1.000000000000000000 ) ) ;
#36 = ORIENTED_EDGE ( 'NONE', *, *, #285, .F. ) ;
#37 = LENGTH_MEASURE_WITH_UNIT ( LENGTH_MEASURE( 0.02539999999999999897 ), #259 );
#38 = VERTEX_POINT ( 'NONE', #324 ) ;
#39 = DIRECTION ( 'NONE',  ( -0.7071067811865358044, 0.0000000000000000000, -0.7071067811865590080 ) ) ;
#40 = CLOSED_SHELL ( 'NONE', ( #60, #373, #368, #93, #59, #338, #145, #317, #16, #151, #85, #276, #143 ) ) ;
#41 = DIRECTION ( 'NONE',  ( -1.000000000000000000, 0.0000000000000000000, 0.0000000000000000000 ) ) ;
#42 = AXIS2_PLACEMENT_3D ( 'NONE', #262, #43, #155 ) ;
#43 = DIRECTION ( 'NONE',  ( 0.0000000000000000000, 0.0000000000000000000, 1.000000000000000000 ) ) ;
#44 = CARTESIAN_POINT ( 'NONE',  ( 0.0000000000000000000, 0.0000000000000000000, 0.0000000000000000000 ) ) ;
#45 = DIRECTION ( 'NONE',  ( -0.0000000000000000000, -0.0000000000000000000, -1.000000000000000000 ) ) ;
#46 = EDGE_CURVE ( 'NONE', #152, #140, #70, .T. ) ;
#47 = CARTESIAN_POINT ( 'NONE',  ( 0.02952454724999999808, 3.615714228598728577E-18, 0.05905500000000000332 ) ) ;
#48 = DIMENSIONAL_EXPONENTS ( 1.000000000000000000, 0.0000000000000000000, 0.0000000000000000000, 0.0000000000000000000, 0.0000000000000000000, 0.0000000000000000000, 0.0000000000000000000 ) ;
#49 = CARTESIAN_POINT ( 'NONE',  ( 0.0000000000000000000, 0.0000000000000000000, 0.0000000000000000000 ) ) ;
#50 = VECTOR ( 'NONE', #212, 39.37007874015748143 ) ;
#51 = CIRCLE ( 'NONE', #18, 0.1181100000000000066 ) ;
#52 = CARTESIAN_POINT ( 'NONE',  ( 0.02854350000000005147, 3.495570591146253809E-18, 0.0000000000000000000 ) ) ;
#53 = ORIENTED_EDGE ( 'NONE', *, *, #184, .T. ) ;
#54 = FACE_OUTER_BOUND ( 'NONE', #201, .T. ) ;
#55 = ORIENTED_EDGE ( 'NONE', *, *, #215, .F. ) ;
#56 = ORIENTED_EDGE ( 'NONE', *, *, #167, .T. ) ;
#57 = VECTOR ( 'NONE', #6, 39.37007874015748143 ) ;
#58 = AXIS2_PLACEMENT_3D ( 'NONE', #358, #127, #13 ) ;
#59 = ADVANCED_FACE ( 'NONE', ( #199 ), #64, .T. ) ;
#60 = ADVANCED_FACE ( 'NONE', ( #299 ), #335, .T. ) ;
#61 = CARTESIAN_POINT ( 'NONE',  ( -0.1031100000000002570, 0.0000000000000000000, 2.244094000000000033 ) ) ;
#62 = DIRECTION ( 'NONE',  ( -1.000000000000000000, 0.0000000000000000000, 0.0000000000000000000 ) ) ;
#63 =( CONVERSION_BASED_UNIT ( 'INCH', #68 ) LENGTH_UNIT ( ) NAMED_UNIT ( #357 ) );
#64 = CYLINDRICAL_SURFACE ( 'NONE', #374, 0.1181100000000000066 ) ;
#65 = EDGE_CURVE ( 'NONE', #218, #38, #278, .T. ) ;
#66 =( GEOMETRIC_REPRESENTATION_CONTEXT ( 3 ) GLOBAL_UNCERTAINTY_ASSIGNED_CONTEXT ( ( #138 ) ) GLOBAL_UNIT_ASSIGNED_CONTEXT ( ( #336, #19, #187 ) ) REPRESENTATION_CONTEXT ( 'NONE', 'WORKASPACE' ) );
#67 = VERTEX_POINT ( 'NONE', #112 ) ;
#68 = LENGTH_MEASURE_WITH_UNIT ( LENGTH_MEASURE( 0.02539999999999999897 ), #89 );
#69 = ORIENTED_EDGE ( 'NONE', *, *, #169, .T. ) ;
#70 = CIRCLE ( 'NONE', #327, 0.02952454724999999808 ) ;
#71 = ORIENTED_EDGE ( 'NONE', *, *, #191, .T. ) ;
#72 = AXIS2_PLACEMENT_3D ( 'NONE', #347, #344, #257 ) ;
#73 = LINE ( 'NONE', #295, #194 ) ;
#74 = CARTESIAN_POINT ( 'NONE',  ( 0.0000000000000000000, 0.0000000000000000000, 2.244094000000000033 ) ) ;
#75 = DIRECTION ( 'NONE',  ( 0.0000000000000000000, 0.0000000000000000000, 1.000000000000000000 ) ) ;
#76 = ORIENTED_EDGE ( 'NONE', *, *, #300, .T. ) ;
#77 = DIRECTION ( 'NONE',  ( -0.0000000000000000000, -0.0000000000000000000, -1.000000000000000000 ) ) ;
#78 = EDGE_CURVE ( 'NONE', #9, #283, #246, .T. ) ;
#79 =( LENGTH_UNIT ( ) NAMED_UNIT ( * ) SI_UNIT ( $, .METRE. ) );
#80 = DIRECTION ( 'NONE',  ( 1.000000000000000000, 0.0000000000000000000, 0.0000000000000000000 ) ) ;
#81 = ORIENTED_EDGE ( 'NONE', *, *, #167, .F. ) ;
#82 = CARTESIAN_POINT ( 'NONE',  ( 0.0000000000000000000, 0.0000000000000000000, 0.7874019999999999353 ) ) ;
#83 = CARTESIAN_POINT ( 'NONE',  ( 0.02952454724999999808, 3.615714228598728577E-18, 0.05905500000000000332 ) ) ;
#84 = VERTEX_POINT ( 'NONE', #337 ) ;
#85 = ADVANCED_FACE ( 'NONE', ( #217 ), #132, .T. ) ;
#86 = EDGE_CURVE ( 'NONE', #316, #67, #17, .T. ) ;
#87 = CARTESIAN_POINT ( 'NONE',  ( 0.0000000000000000000, 0.0000000000000000000, 0.7874019999999998243 ) ) ;
#88 = CIRCLE ( 'NONE', #26, 0.1031100000000002570 ) ;
#89 =( LENGTH_UNIT ( ) NAMED_UNIT ( * ) SI_UNIT ( $, .METRE. ) );
#90 = CARTESIAN_POINT ( 'NONE',  ( 0.0000000000000000000, 0.0000000000000000000, 0.0000000000000000000 ) ) ;
#91 = SURFACE_STYLE_USAGE ( .BOTH. , #289 ) ;
#92 = ORIENTED_EDGE ( 'NONE', *, *, #113, .F. ) ;
#93 = ADVANCED_FACE ( 'NONE', ( #181 ), #192, .T. ) ;
#94 = AXIS2_PLACEMENT_3D ( 'NONE', #235, #360, #103 ) ;
#95 = ORIENTED_EDGE ( 'NONE', *, *, #308, .T. ) ;
#96 = PRODUCT_CONTEXT ( 'NONE', #342, 'mechanical' ) ;
#97 = ORIENTED_EDGE ( 'NONE', *, *, #323, .T. ) ;
#98 = DIRECTION ( 'NONE',  ( -0.0000000000000000000, -0.0000000000000000000, -1.000000000000000000 ) ) ;
#99 = EDGE_CURVE ( 'NONE', #274, #67, #102, .T. ) ;
#100 = ORIENTED_EDGE ( 'NONE', *, *, #46, .F. ) ;
#101 = LINE ( 'NONE', #211, #279 ) ;
#102 = CIRCLE ( 'NONE', #237, 0.1181100000000000066 ) ;
#103 = DIRECTION ( 'NONE',  ( 1.000000000000000000, 0.0000000000000000000, 0.0000000000000000000 ) ) ;
#104 = CARTESIAN_POINT ( 'NONE',  ( -0.02952454724999999808, 0.0000000000000000000, 0.05905500000000000332 ) ) ;
#105 = DIRECTION ( 'NONE',  ( 0.0000000000000000000, 0.0000000000000000000, -1.000000000000000000 ) ) ;
#106 = PRODUCT_RELATED_PRODUCT_CATEGORY ( 'part', '', ( #221 ) ) ;
#107 = FACE_OUTER_BOUND ( 'NONE', #288, .T. ) ;
#108 = DIRECTION ( 'NONE',  ( -1.000000000000000000, 0.0000000000000000000, 0.0000000000000000000 ) ) ;
#109 = CARTESIAN_POINT ( 'NONE',  ( 0.0000000000000000000, 0.0000000000000000000, 2.244094000000000033 ) ) ;
#110 = AXIS2_PLACEMENT_3D ( 'NONE', #49, #77, #156 ) ;
#111 = ORIENTED_EDGE ( 'NONE', *, *, #242, .F. ) ;
#112 = CARTESIAN_POINT ( 'NONE',  ( 0.1181100000000000066, 1.446430334472939084E-17, 0.7874019999999998243 ) ) ;
#113 = EDGE_CURVE ( 'NONE', #316, #29, #219, .T. ) ;
#114 = ORIENTED_EDGE ( 'NONE', *, *, #119, .F. ) ;
#115 = AXIS2_PLACEMENT_3D ( 'NONE', #355, #98, #182 ) ;
#116 = ADVANCED_BREP_SHAPE_REPRESENTATION ( 'Micro_MMBM-015-20X', ( #330, #311 ), #162 ) ;
#117 = AXIS2_PLACEMENT_3D ( 'NONE', #27, #195, #312 ) ;
#118 = ORIENTED_EDGE ( 'NONE', *, *, #348, .T. ) ;
#119 = EDGE_CURVE ( 'NONE', #29, #274, #244, .T. ) ;
#120 = ORIENTED_EDGE ( 'NONE', *, *, #300, .F. ) ;
#121 = DIRECTION ( 'NONE',  ( -1.000000000000000000, 0.0000000000000000000, 0.0000000000000000000 ) ) ;
#122 = ORIENTED_EDGE ( 'NONE', *, *, #22, .F. ) ;
#123 =( CONVERSION_BASED_UNIT ( 'INCH', #37 ) LENGTH_UNIT ( ) NAMED_UNIT ( #48 ) );
#124 = AXIS2_PLACEMENT_3D ( 'NONE', #306, #20, #136 ) ;
#125 = MECHANICAL_DESIGN_GEOMETRIC_PRESENTATION_REPRESENTATION (  '', ( #370 ), #66 ) ;
#126 = EDGE_LOOP ( 'NONE', ( #53, #56, #100, #36 ) ) ;
#127 = DIRECTION ( 'NONE',  ( 0.0000000000000000000, 0.0000000000000000000, -1.000000000000000000 ) ) ;
#128 = FACE_BOUND ( 'NONE', #319, .T. ) ;
#129 = EDGE_LOOP ( 'NONE', ( #225, #142, #252, #326 ) ) ;
#130 = SURFACE_STYLE_FILL_AREA ( #15 ) ;
#131 = CIRCLE ( 'NONE', #320, 0.02854350000000000637 ) ;
#132 = CYLINDRICAL_SURFACE ( 'NONE', #110, 0.02854350000000005147 ) ;
#133 = AXIS2_PLACEMENT_3D ( 'NONE', #137, #153, #243 ) ;
#134 = CARTESIAN_POINT ( 'NONE',  ( 0.0000000000000000000, 0.0000000000000000000, 0.0000000000000000000 ) ) ;
#135 = ORIENTED_EDGE ( 'NONE', *, *, #46, .T. ) ;
#136 = DIRECTION ( 'NONE',  ( 1.000000000000000000, 0.0000000000000000000, -0.0000000000000000000 ) ) ;
#137 = CARTESIAN_POINT ( 'NONE',  ( 0.0000000000000000000, 0.0000000000000000000, 0.7874019999999999353 ) ) ;
#138 = UNCERTAINTY_MEASURE_WITH_UNIT (LENGTH_MEASURE( 1.000000000000000082E-05 ), #336, 'distance_accuracy_value', 'NONE');
#139 = CARTESIAN_POINT ( 'NONE',  ( -0.1181100000000000066, 0.0000000000000000000, 2.244094000000000033 ) ) ;
#140 = VERTEX_POINT ( 'NONE', #332 ) ;
#141 = CIRCLE ( 'NONE', #253, 0.02952454724999999808 ) ;
#142 = ORIENTED_EDGE ( 'NONE', *, *, #78, .T. ) ;
#143 = ADVANCED_FACE ( 'NONE', ( #303 ), #271, .F. ) ;
#144 = DIRECTION ( 'NONE',  ( -0.0000000000000000000, 0.0000000000000000000, -1.000000000000000000 ) ) ;
#145 = ADVANCED_FACE ( 'NONE', ( #54 ), #273, .T. ) ;
#146 = APPLICATION_CONTEXT ( 'automotive_design' ) ;
#147 = PLANE ( 'NONE',  #293 ) ;
#148 = DIRECTION ( 'NONE',  ( -1.000000000000000000, 0.0000000000000000000, 0.0000000000000000000 ) ) ;
#149 = LINE ( 'NONE', #258, #57 ) ;
#150 = DIRECTION ( 'NONE',  ( -1.000000000000000000, 0.0000000000000000000, 0.0000000000000000000 ) ) ;
#151 = ADVANCED_FACE ( 'NONE', ( #376 ), #270, .T. ) ;
#152 = VERTEX_POINT ( 'NONE', #280 ) ;
#153 = DIRECTION ( 'NONE',  ( -0.0000000000000000000, -0.0000000000000000000, -1.000000000000000000 ) ) ;
#154 = ORIENTED_EDGE ( 'NONE', *, *, #25, .F. ) ;
#155 = DIRECTION ( 'NONE',  ( 1.000000000000000000, 0.0000000000000000000, 0.0000000000000000000 ) ) ;
#156 = DIRECTION ( 'NONE',  ( -1.000000000000000000, 0.0000000000000000000, 0.0000000000000000000 ) ) ;
#157 = CARTESIAN_POINT ( 'NONE',  ( 0.1181100000000000066, 1.446430334472939084E-17, 2.229093999999999465 ) ) ;
#158 = CARTESIAN_POINT ( 'NONE',  ( 0.0000000000000000000, 0.0000000000000000000, 0.06461879543311090102 ) ) ;
#159 = EDGE_CURVE ( 'NONE', #189, #84, #88, .T. ) ;
#160 = AXIS2_PLACEMENT_3D ( 'NONE', #134, #328, #229 ) ;
#161 = DIRECTION ( 'NONE',  ( -0.0000000000000000000, -0.0000000000000000000, -1.000000000000000000 ) ) ;
#162 =( GEOMETRIC_REPRESENTATION_CONTEXT ( 3 ) GLOBAL_UNCERTAINTY_ASSIGNED_CONTEXT ( ( #302 ) ) GLOBAL_UNIT_ASSIGNED_CONTEXT ( ( #63, #168, #8 ) ) REPRESENTATION_CONTEXT ( 'NONE', 'WORKASPACE' ) );
#163 = CARTESIAN_POINT ( 'NONE',  ( -0.1181100000000000066, 0.0000000000000000000, 0.7874019999999998243 ) ) ;
#164 = ORIENTED_EDGE ( 'NONE', *, *, #119, .T. ) ;
#165 = EDGE_LOOP ( 'NONE', ( #349, #95, #154, #122 ) ) ;
#166 = DIRECTION ( 'NONE',  ( 0.0000000000000000000, 0.0000000000000000000, 1.000000000000000000 ) ) ;
#167 = EDGE_CURVE ( 'NONE', #207, #140, #34, .T. ) ;
#168 =( NAMED_UNIT ( * ) PLANE_ANGLE_UNIT ( ) SI_UNIT ( $, .RADIAN. ) );
#169 = EDGE_CURVE ( 'NONE', #140, #152, #141, .T. ) ;
#170 = CARTESIAN_POINT ( 'NONE',  ( 0.02952454724999999808, 3.615714228598728577E-18, 0.0000000000000000000 ) ) ;
#171 = FACE_OUTER_BOUND ( 'NONE', #177, .T. ) ;
#172 = CARTESIAN_POINT ( 'NONE',  ( 0.0000000000000000000, 0.0000000000000000000, 2.244094000000000033 ) ) ;
#173 = AXIS2_PLACEMENT_3D ( 'NONE', #82, #45, #186 ) ;
#174 = CARTESIAN_POINT ( 'NONE',  ( 0.0000000000000000000, 0.0000000000000000000, 0.05905500000000000332 ) ) ;
#175 = CIRCLE ( 'NONE', #133, 0.02854350000000010004 ) ;
#176 = PRODUCT_DEFINITION_CONTEXT ( 'detailed design', #146, 'design' ) ;
#177 = EDGE_LOOP ( 'NONE', ( #341, #290, #164, #356 ) ) ;
#178 = FILL_AREA_STYLE_COLOUR ( '', #2 ) ;
#179 = ORIENTED_EDGE ( 'NONE', *, *, #233, .T. ) ;
#180 = ORIENTED_EDGE ( 'NONE', *, *, #184, .F. ) ;
#181 = FACE_OUTER_BOUND ( 'NONE', #24, .T. ) ;
#182 = DIRECTION ( 'NONE',  ( -1.000000000000000000, 0.0000000000000000000, 0.0000000000000000000 ) ) ;
#183 = DIRECTION ( 'NONE',  ( -1.000000000000000000, 0.0000000000000000000, 0.0000000000000000000 ) ) ;
#184 = EDGE_CURVE ( 'NONE', #329, #207, #247, .T. ) ;
#185 = ORIENTED_EDGE ( 'NONE', *, *, #191, .F. ) ;
#186 = DIRECTION ( 'NONE',  ( -1.000000000000000000, 0.0000000000000000000, 0.0000000000000000000 ) ) ;
#187 =( NAMED_UNIT ( * ) SI_UNIT ( $, .STERADIAN. ) SOLID_ANGLE_UNIT ( ) );
#188 = CYLINDRICAL_SURFACE ( 'NONE', #160, 0.02952454724999999808 ) ;
#189 = VERTEX_POINT ( 'NONE', #61 ) ;
#190 = VECTOR ( 'NONE', #291, 39.37007874015748854 ) ;
#191 = EDGE_CURVE ( 'NONE', #84, #189, #261, .T. ) ;
#192 = CONICAL_SURFACE ( 'NONE', #31, 0.1031100000000002570, 0.7853981633974318477 ) ;
#193 = COLOUR_RGB ( '',0.7921568627450980005, 0.8196078431372548767, 0.9333333333333333481 ) ;
#194 = VECTOR ( 'NONE', #232, 39.37007874015748143 ) ;
#195 = DIRECTION ( 'NONE',  ( -0.0000000000000000000, -0.0000000000000000000, -1.000000000000000000 ) ) ;
#196 = DIRECTION ( 'NONE',  ( -0.0000000000000000000, -0.0000000000000000000, -1.000000000000000000 ) ) ;
#197 = CARTESIAN_POINT ( 'NONE',  ( 0.0000000000000000000, 0.0000000000000000000, 2.244094000000000033 ) ) ;
#198 = PRESENTATION_STYLE_ASSIGNMENT (( #91 ) ) ;
#199 = FACE_OUTER_BOUND ( 'NONE', #359, .T. ) ;
#200 =( NAMED_UNIT ( * ) PLANE_ANGLE_UNIT ( ) SI_UNIT ( $, .RADIAN. ) );
#201 = EDGE_LOOP ( 'NONE', ( #226, #71 ) ) ;
#202 = AXIS2_PLACEMENT_3D ( 'NONE', #363, #268, #340 ) ;
#203 = AXIS2_PLACEMENT_3D ( 'NONE', #301, #366, #108 ) ;
#204 = CARTESIAN_POINT ( 'NONE',  ( 0.0000000000000000000, 0.0000000000000000000, 0.0000000000000000000 ) ) ;
#205 = ORIENTED_EDGE ( 'NONE', *, *, #169, .F. ) ;
#206 = DIRECTION ( 'NONE',  ( -1.000000000000000000, 0.0000000000000000000, 0.0000000000000000000 ) ) ;
#207 = VERTEX_POINT ( 'NONE', #83 ) ;
#208 = DIRECTION ( 'NONE',  ( 0.7071067811865358044, 8.659560562354788645E-17, -0.7071067811865590080 ) ) ;
#209 = STYLED_ITEM ( 'NONE', ( #198 ), #116 ) ;
#210 = DIRECTION ( 'NONE',  ( -1.000000000000000000, 0.0000000000000000000, 0.0000000000000000000 ) ) ;
#211 = CARTESIAN_POINT ( 'NONE',  ( 0.1031100000000002570, 1.262733314600838667E-17, 2.244094000000000033 ) ) ;
#212 = DIRECTION ( 'NONE',  ( -0.0000000000000000000, -0.0000000000000000000, -1.000000000000000000 ) ) ;
#213 = CARTESIAN_POINT ( 'NONE',  ( -0.02952454724999999808, 0.0000000000000000000, 0.05905500000000000332 ) ) ;
#214 = ORIENTED_EDGE ( 'NONE', *, *, #310, .F. ) ;
#215 = EDGE_CURVE ( 'NONE', #218, #207, #11, .T. ) ;
#216 = ORIENTED_EDGE ( 'NONE', *, *, #222, .F. ) ;
#217 = FACE_OUTER_BOUND ( 'NONE', #129, .T. ) ;
#218 = VERTEX_POINT ( 'NONE', #240 ) ;
#219 = CIRCLE ( 'NONE', #94, 0.1181100000000000066 ) ;
#220 = PRESENTATION_LAYER_ASSIGNMENT (  '', '', ( #370 ) ) ;
#221 = PRODUCT ( 'Micro_MMBM-015-20X', 'Micro_MMBM-015-20X', '', ( #96 ) ) ;
#222 = EDGE_CURVE ( 'NONE', #189, #29, #361, .T. ) ;
#223 =( NAMED_UNIT ( * ) SI_UNIT ( $, .STERADIAN. ) SOLID_ANGLE_UNIT ( ) );
#224 = CONICAL_SURFACE ( 'NONE', #72, 0.02952454724999999808, 0.1745329251994336694 ) ;
#225 = ORIENTED_EDGE ( 'NONE', *, *, #308, .F. ) ;
#226 = ORIENTED_EDGE ( 'NONE', *, *, #159, .T. ) ;
#227 = ORIENTED_EDGE ( 'NONE', *, *, #233, .F. ) ;
#228 = EDGE_LOOP ( 'NONE', ( #249, #245, #180, #227 ) ) ;
#229 = DIRECTION ( 'NONE',  ( -1.000000000000000000, 0.0000000000000000000, 0.0000000000000000000 ) ) ;
#230 = APPLICATION_PROTOCOL_DEFINITION ( 'draft international standard', 'automotive_design', 1998, #146 ) ;
#231 = ORIENTED_EDGE ( 'NONE', *, *, #285, .T. ) ;
#232 = DIRECTION ( 'NONE',  ( -0.0000000000000000000, -0.0000000000000000000, -1.000000000000000000 ) ) ;
#233 = EDGE_CURVE ( 'NONE', #38, #329, #265, .T. ) ;
#234 = EDGE_LOOP ( 'NONE', ( #81, #97, #231, #205 ) ) ;
#235 = CARTESIAN_POINT ( 'NONE',  ( 0.0000000000000000000, 0.0000000000000000000, 2.229093999999999465 ) ) ;
#236 = CARTESIAN_POINT ( 'NONE',  ( -0.1031100000000002570, 0.0000000000000000000, 2.244094000000000033 ) ) ;
#237 = AXIS2_PLACEMENT_3D ( 'NONE', #266, #161, #14 ) ;
#238 = MECHANICAL_DESIGN_GEOMETRIC_PRESENTATION_REPRESENTATION (  '', ( #209 ), #284 ) ;
#239 = CARTESIAN_POINT ( 'NONE',  ( 0.1181100000000000066, 1.446430334472939084E-17, 2.244094000000000033 ) ) ;
#240 = CARTESIAN_POINT ( 'NONE',  ( 0.02854350000000000637, 3.555642409872488112E-18, 0.06461879543311090102 ) ) ;
#241 = ORIENTED_EDGE ( 'NONE', *, *, #86, .T. ) ;
#242 = EDGE_CURVE ( 'NONE', #29, #316, #305, .T. ) ;
#243 = DIRECTION ( 'NONE',  ( -1.000000000000000000, 0.0000000000000000000, 0.0000000000000000000 ) ) ;
#244 = LINE ( 'NONE', #139, #50 ) ;
#245 = ORIENTED_EDGE ( 'NONE', *, *, #215, .T. ) ;
#246 = CIRCLE ( 'NONE', #173, 0.02854350000000010004 ) ;
#247 = CIRCLE ( 'NONE', #117, 0.02952454724999999808 ) ;
#248 = DIRECTION ( 'NONE',  ( -0.0000000000000000000, -0.0000000000000000000, -1.000000000000000000 ) ) ;
#249 = ORIENTED_EDGE ( 'NONE', *, *, #25, .T. ) ;
#250 = AXIS2_PLACEMENT_3D ( 'NONE', #109, #166, #277 ) ;
#251 = DIRECTION ( 'NONE',  ( -1.000000000000000000, 0.0000000000000000000, 0.0000000000000000000 ) ) ;
#252 = ORIENTED_EDGE ( 'NONE', *, *, #22, .T. ) ;
#253 = AXIS2_PLACEMENT_3D ( 'NONE', #353, #256, #121 ) ;
#254 = CARTESIAN_POINT ( 'NONE',  ( 0.0000000000000000000, 0.0000000000000000000, 2.244094000000000033 ) ) ;
#255 = CARTESIAN_POINT ( 'NONE',  ( 0.02854350000000010004, 0.0000000000000000000, 0.7874019999999999353 ) ) ;
#256 = DIRECTION ( 'NONE',  ( -0.0000000000000000000, -0.0000000000000000000, -1.000000000000000000 ) ) ;
#257 = DIRECTION ( 'NONE',  ( -1.000000000000000000, 0.0000000000000000000, 0.0000000000000000000 ) ) ;
#258 = CARTESIAN_POINT ( 'NONE',  ( -0.02854350000000005147, 0.0000000000000000000, 0.0000000000000000000 ) ) ;
#259 =( LENGTH_UNIT ( ) NAMED_UNIT ( * ) SI_UNIT ( $, .METRE. ) );
#260 = EDGE_LOOP ( 'NONE', ( #350, #118 ) ) ;
#261 = CIRCLE ( 'NONE', #42, 0.1031100000000002570 ) ;
#262 = CARTESIAN_POINT ( 'NONE',  ( 0.0000000000000000000, 0.0000000000000000000, 2.244094000000000033 ) ) ;
#263 = SHAPE_DEFINITION_REPRESENTATION ( #313, #116 ) ;
#264 = ORIENTED_EDGE ( 'NONE', *, *, #222, .T. ) ;
#265 = LINE ( 'NONE', #104, #352 ) ;
#266 = CARTESIAN_POINT ( 'NONE',  ( 0.0000000000000000000, 0.0000000000000000000, 0.7874019999999998243 ) ) ;
#267 = FILL_AREA_STYLE_COLOUR ( '', #193 ) ;
#268 = DIRECTION ( 'NONE',  ( -0.0000000000000000000, -0.0000000000000000000, -1.000000000000000000 ) ) ;
#269 = LENGTH_MEASURE_WITH_UNIT ( LENGTH_MEASURE( 0.02539999999999999897 ), #79 );
#270 = CONICAL_SURFACE ( 'NONE', #309, 0.02952454724999999808, 0.1745329251994336694 ) ;
#271 = PLANE ( 'NONE',  #124 ) ;
#272 = CARTESIAN_POINT ( 'NONE',  ( -0.02854350000000010004, 0.0000000000000000000, 0.7874019999999999353 ) ) ;
#273 = PLANE ( 'NONE',  #250 ) ;
#274 = VERTEX_POINT ( 'NONE', #163 ) ;
#275 = AXIS2_PLACEMENT_3D ( 'NONE', #204, #30, #150 ) ;
#276 = ADVANCED_FACE ( 'NONE', ( #304 ), #188, .T. ) ;
#277 = DIRECTION ( 'NONE',  ( 1.000000000000000000, 0.0000000000000000000, -0.0000000000000000000 ) ) ;
#278 = CIRCLE ( 'NONE', #369, 0.02854350000000000637 ) ;
#279 = VECTOR ( 'NONE', #208, 39.37007874015748854 ) ;
#280 = CARTESIAN_POINT ( 'NONE',  ( -0.02952454724999999808, 0.0000000000000000000, 0.0000000000000000000 ) ) ;
#281 = FACE_OUTER_BOUND ( 'NONE', #260, .T. ) ;
#282 = CYLINDRICAL_SURFACE ( 'NONE', #275, 0.02854350000000005147 ) ;
#283 = VERTEX_POINT ( 'NONE', #272 ) ;
#284 =( GEOMETRIC_REPRESENTATION_CONTEXT ( 3 ) GLOBAL_UNCERTAINTY_ASSIGNED_CONTEXT ( ( #318 ) ) GLOBAL_UNIT_ASSIGNED_CONTEXT ( ( #123, #200, #223 ) ) REPRESENTATION_CONTEXT ( 'NONE', 'WORKASPACE' ) );
#285 = EDGE_CURVE ( 'NONE', #329, #152, #73, .T. ) ;
#286 = DIRECTION ( 'NONE',  ( 1.000000000000000000, 0.0000000000000000000, 0.0000000000000000000 ) ) ;
#287 = CYLINDRICAL_SURFACE ( 'NONE', #321, 0.1181100000000000066 ) ;
#288 = EDGE_LOOP ( 'NONE', ( #120, #334, #264, #92 ) ) ;
#289 = SURFACE_SIDE_STYLE ('',( #379 ) ) ;
#290 = ORIENTED_EDGE ( 'NONE', *, *, #113, .T. ) ;
#291 = DIRECTION ( 'NONE',  ( 0.1736481776669310528, 2.126576849575780543E-17, -0.9848077530122080203 ) ) ;
#292 = DIRECTION ( 'NONE',  ( -0.0000000000000000000, -0.0000000000000000000, -1.000000000000000000 ) ) ;
#293 = AXIS2_PLACEMENT_3D ( 'NONE', #255, #144, #322 ) ;
#294 = CONICAL_SURFACE ( 'NONE', #203, 0.1031100000000002570, 0.7853981633974318477 ) ;
#295 = CARTESIAN_POINT ( 'NONE',  ( -0.02952454724999999808, 0.0000000000000000000, 0.0000000000000000000 ) ) ;
#296 = DIRECTION ( 'NONE',  ( -0.0000000000000000000, -0.0000000000000000000, -1.000000000000000000 ) ) ;
#297 = DIRECTION ( 'NONE',  ( -0.0000000000000000000, -0.0000000000000000000, -1.000000000000000000 ) ) ;
#298 = ORIENTED_EDGE ( 'NONE', *, *, #99, .F. ) ;
#299 = FACE_OUTER_BOUND ( 'NONE', #126, .T. ) ;
#300 = EDGE_CURVE ( 'NONE', #84, #316, #101, .T. ) ;
#301 = CARTESIAN_POINT ( 'NONE',  ( 0.0000000000000000000, 0.0000000000000000000, 2.244094000000000033 ) ) ;
#302 = UNCERTAINTY_MEASURE_WITH_UNIT (LENGTH_MEASURE( 1.000000000000000082E-05 ), #63, 'distance_accuracy_value', 'NONE');
#303 = FACE_OUTER_BOUND ( 'NONE', #4, .T. ) ;
#304 = FACE_OUTER_BOUND ( 'NONE', #234, .T. ) ;
#305 = CIRCLE ( 'NONE', #58, 0.1181100000000000066 ) ;
#306 = CARTESIAN_POINT ( 'NONE',  ( 0.0000000000000000000, 0.0000000000000000000, 0.0000000000000000000 ) ) ;
#307 = ORIENTED_EDGE ( 'NONE', *, *, #78, .F. ) ;
#308 = EDGE_CURVE ( 'NONE', #9, #218, #21, .T. ) ;
#309 = AXIS2_PLACEMENT_3D ( 'NONE', #174, #314, #62 ) ;
#310 = EDGE_CURVE ( 'NONE', #283, #9, #175, .T. ) ;
#311 = AXIS2_PLACEMENT_3D ( 'NONE', #44, #75, #80 ) ;
#312 = DIRECTION ( 'NONE',  ( -1.000000000000000000, 0.0000000000000000000, 0.0000000000000000000 ) ) ;
#313 = PRODUCT_DEFINITION_SHAPE ( 'NONE', 'NONE',  #362 ) ;
#314 = DIRECTION ( 'NONE',  ( -0.0000000000000000000, -0.0000000000000000000, -1.000000000000000000 ) ) ;
#315 = FILL_AREA_STYLE ('',( #178 ) ) ;
#316 = VERTEX_POINT ( 'NONE', #157 ) ;
#317 = ADVANCED_FACE ( 'NONE', ( #107 ), #294, .T. ) ;
#318 = UNCERTAINTY_MEASURE_WITH_UNIT (LENGTH_MEASURE( 1.000000000000000082E-05 ), #123, 'distance_accuracy_value', 'NONE');
#319 = EDGE_LOOP ( 'NONE', ( #214, #307 ) ) ;
#320 = AXIS2_PLACEMENT_3D ( 'NONE', #354, #351, #206 ) ;
#321 = AXIS2_PLACEMENT_3D ( 'NONE', #254, #35, #251 ) ;
#322 = DIRECTION ( 'NONE',  ( -1.000000000000000000, 0.0000000000000000000, 0.0000000000000000000 ) ) ;
#323 = EDGE_CURVE ( 'NONE', #207, #329, #10, .T. ) ;
#324 = CARTESIAN_POINT ( 'NONE',  ( -0.02854350000000000637, 0.0000000000000000000, 0.06461879543311090102 ) ) ;
#325 = SURFACE_STYLE_USAGE ( .BOTH. , #331 ) ;
#326 = ORIENTED_EDGE ( 'NONE', *, *, #65, .F. ) ;
#327 = AXIS2_PLACEMENT_3D ( 'NONE', #90, #292, #41 ) ;
#328 = DIRECTION ( 'NONE',  ( -0.0000000000000000000, -0.0000000000000000000, -1.000000000000000000 ) ) ;
#329 = VERTEX_POINT ( 'NONE', #213 ) ;
#330 = MANIFOLD_SOLID_BREP ( 'Cut-Revolve1', #40 ) ;
#331 = SURFACE_SIDE_STYLE ('',( #130 ) ) ;
#332 = CARTESIAN_POINT ( 'NONE',  ( 0.02952454724999999808, 3.615714228598728577E-18, 0.0000000000000000000 ) ) ;
#333 = PRESENTATION_STYLE_ASSIGNMENT (( #325 ) ) ;
#334 = ORIENTED_EDGE ( 'NONE', *, *, #159, .F. ) ;
#335 = CYLINDRICAL_SURFACE ( 'NONE', #202, 0.02952454724999999808 ) ;
#336 =( CONVERSION_BASED_UNIT ( 'INCH', #269 ) LENGTH_UNIT ( ) NAMED_UNIT ( #377 ) );
#337 = CARTESIAN_POINT ( 'NONE',  ( 0.1031100000000002570, 1.354581824536888722E-17, 2.244094000000000033 ) ) ;
#338 = ADVANCED_FACE ( 'NONE', ( #171 ), #287, .T. ) ;
#339 = ORIENTED_EDGE ( 'NONE', *, *, #323, .F. ) ;
#340 = DIRECTION ( 'NONE',  ( -1.000000000000000000, 0.0000000000000000000, 0.0000000000000000000 ) ) ;
#341 = ORIENTED_EDGE ( 'NONE', *, *, #86, .F. ) ;
#342 = APPLICATION_CONTEXT ( 'automotive_design' ) ;
#343 = VECTOR ( 'NONE', #297, 39.37007874015748143 ) ;
#344 = DIRECTION ( 'NONE',  ( -0.0000000000000000000, -0.0000000000000000000, -1.000000000000000000 ) ) ;
#345 = DIRECTION ( 'NONE',  ( -0.0000000000000000000, -0.0000000000000000000, -1.000000000000000000 ) ) ;
#346 = VECTOR ( 'NONE', #39, 39.37007874015748854 ) ;
#347 = CARTESIAN_POINT ( 'NONE',  ( 0.0000000000000000000, 0.0000000000000000000, 0.05905500000000000332 ) ) ;
#348 = EDGE_CURVE ( 'NONE', #67, #274, #51, .T. ) ;
#349 = ORIENTED_EDGE ( 'NONE', *, *, #310, .T. ) ;
#350 = ORIENTED_EDGE ( 'NONE', *, *, #99, .T. ) ;
#351 = DIRECTION ( 'NONE',  ( -0.0000000000000000000, -0.0000000000000000000, -1.000000000000000000 ) ) ;
#352 = VECTOR ( 'NONE', #364, 39.37007874015748854 ) ;
#353 = CARTESIAN_POINT ( 'NONE',  ( 0.0000000000000000000, 0.0000000000000000000, 0.0000000000000000000 ) ) ;
#354 = CARTESIAN_POINT ( 'NONE',  ( 0.0000000000000000000, 0.0000000000000000000, 0.06461879543311090102 ) ) ;
#355 = CARTESIAN_POINT ( 'NONE',  ( 0.0000000000000000000, 0.0000000000000000000, 0.05905500000000000332 ) ) ;
#356 = ORIENTED_EDGE ( 'NONE', *, *, #348, .F. ) ;
#357 = DIMENSIONAL_EXPONENTS ( 1.000000000000000000, 0.0000000000000000000, 0.0000000000000000000, 0.0000000000000000000, 0.0000000000000000000, 0.0000000000000000000, 0.0000000000000000000 ) ;
#358 = CARTESIAN_POINT ( 'NONE',  ( 0.0000000000000000000, 0.0000000000000000000, 2.229093999999999465 ) ) ;
#359 = EDGE_LOOP ( 'NONE', ( #33, #241, #298, #114 ) ) ;
#360 = DIRECTION ( 'NONE',  ( 0.0000000000000000000, 0.0000000000000000000, -1.000000000000000000 ) ) ;
#361 = LINE ( 'NONE', #236, #346 ) ;
#362 = PRODUCT_DEFINITION ( 'UNKNOWN', '', #375, #176 ) ;
#363 = CARTESIAN_POINT ( 'NONE',  ( 0.0000000000000000000, 0.0000000000000000000, 0.0000000000000000000 ) ) ;
#364 = DIRECTION ( 'NONE',  ( -0.1736481776669310528, 0.0000000000000000000, -0.9848077530122080203 ) ) ;
#365 = EDGE_LOOP ( 'NONE', ( #55, #372, #179, #339 ) ) ;
#366 = DIRECTION ( 'NONE',  ( 0.0000000000000000000, 0.0000000000000000000, -1.000000000000000000 ) ) ;
#367 = DIRECTION ( 'NONE',  ( -0.0000000000000000000, -0.0000000000000000000, -1.000000000000000000 ) ) ;
#368 = ADVANCED_FACE ( 'NONE', ( #378 ), #224, .T. ) ;
#369 = AXIS2_PLACEMENT_3D ( 'NONE', #158, #367, #210 ) ;
#370 = STYLED_ITEM ( 'NONE', ( #333 ), #330 ) ;
#371 = DIRECTION ( 'NONE',  ( -1.000000000000000000, 0.0000000000000000000, 0.0000000000000000000 ) ) ;
#372 = ORIENTED_EDGE ( 'NONE', *, *, #65, .T. ) ;
#373 = ADVANCED_FACE ( 'NONE', ( #5 ), #282, .T. ) ;
#374 = AXIS2_PLACEMENT_3D ( 'NONE', #172, #248, #371 ) ;
#375 = PRODUCT_DEFINITION_FORMATION_WITH_SPECIFIED_SOURCE ( 'ANY', '', #221, .NOT_KNOWN. ) ;
#376 = FACE_OUTER_BOUND ( 'NONE', #365, .T. ) ;
#377 = DIMENSIONAL_EXPONENTS ( 1.000000000000000000, 0.0000000000000000000, 0.0000000000000000000, 0.0000000000000000000, 0.0000000000000000000, 0.0000000000000000000, 0.0000000000000000000 ) ;
#378 = FACE_OUTER_BOUND ( 'NONE', #228, .T. ) ;
#379 = SURFACE_STYLE_FILL_AREA ( #315 ) ;
ENDSEC;
END-ISO-10303-21;
