ISO-10303-21;
HEADER;
FILE_DESCRIPTION (( 'STEP AP214' ),
    '1' );
FILE_NAME ('81555.STEP',
    '2023-06-23T01:47:32',
    ( '' ),
    ( '' ),
    'SwSTEP 2.0',
    'SolidWorks 2023',
    '' );
FILE_SCHEMA (( 'AUTOMOTIVE_DESIGN' ));
ENDSEC;

DATA;
#1 = DIRECTION ( 'NONE',  ( 0.000000000000000000, 0.000000000000000000, -1.000000000000000000 ) ) ;
#2 = DIRECTION ( 'NONE',  ( -4.082155997157848133E-17, 1.000000000000000000, -0.000000000000000000 ) ) ;
#3 = VERTEX_POINT ( 'NONE', #80 ) ;
#4 = PRODUCT_RELATED_PRODUCT_CATEGORY ( 'part', '', ( #307 ) ) ;
#5 = DIRECTION ( 'NONE',  ( -1.000000000000000000, 0.000000000000000000, 0.000000000000000000 ) ) ;
#6 = DIRECTION ( 'NONE',  ( -4.082155997157848133E-17, 1.000000000000000000, -0.000000000000000000 ) ) ;
#7 = FILL_AREA_STYLE_COLOUR ( '', #13 ) ;
#8 = DIRECTION ( 'NONE',  ( 0.000000000000000000, 0.000000000000000000, 1.000000000000000000 ) ) ;
#9 = AXIS2_PLACEMENT_3D ( 'NONE', #10, #280, #206 ) ;
#10 = CARTESIAN_POINT ( 'NONE',  ( -6.123233995736772199E-17, 3.000000000000000444, 0.000000000000000000 ) ) ;
#11 = EDGE_CURVE ( 'NONE', #225, #286, #179, .T. ) ;
#12 = CARTESIAN_POINT ( 'NONE',  ( 1.530808498934191509E-17, 0.000000000000000000, 0.1250000000000000000 ) ) ;
#13 = COLOUR_RGB ( '',0.7921568627450980005, 0.8196078431372548767, 0.9333333333333333481 ) ;
#14 = AXIS2_PLACEMENT_3D ( 'NONE', #145, #16, #64 ) ;
#15 = DIRECTION ( 'NONE',  ( 4.082155997157848133E-17, -1.000000000000000000, 0.000000000000000000 ) ) ;
#16 = DIRECTION ( 'NONE',  ( 0.000000000000000000, -1.000000000000000000, -0.000000000000000000 ) ) ;
#17 = STYLED_ITEM ( 'NONE', ( #87 ), #91 ) ;
#18 = MECHANICAL_DESIGN_GEOMETRIC_PRESENTATION_REPRESENTATION (  '', ( #119 ), #42 ) ;
#19 = DIRECTION ( 'NONE',  ( -0.000000000000000000, -1.000000000000000000, -0.000000000000000000 ) ) ;
#20 = EDGE_LOOP ( 'NONE', ( #66, #23, #276, #240 ) ) ;
#21 =( NAMED_UNIT ( * ) PLANE_ANGLE_UNIT ( ) SI_UNIT ( $, .RADIAN. ) );
#22 = EDGE_LOOP ( 'NONE', ( #75, #25 ) ) ;
#23 = ORIENTED_EDGE ( 'NONE', *, *, #249, .T. ) ;
#24 = SURFACE_SIDE_STYLE ('',( #187 ) ) ;
#25 = ORIENTED_EDGE ( 'NONE', *, *, #244, .T. ) ;
#26 = AXIS2_PLACEMENT_3D ( 'NONE', #138, #301, #159 ) ;
#27 = AXIS2_PLACEMENT_3D ( 'NONE', #193, #8, #135 ) ;
#28 = ORIENTED_EDGE ( 'NONE', *, *, #11, .F. ) ;
#29 = DIRECTION ( 'NONE',  ( -0.000000000000000000, -1.000000000000000000, -0.000000000000000000 ) ) ;
#30 = ADVANCED_FACE ( 'NONE', ( #78 ), #177, .F. ) ;
#31 = CYLINDRICAL_SURFACE ( 'NONE', #211, 0.1250000000000000278 ) ;
#32 = LENGTH_MEASURE_WITH_UNIT ( LENGTH_MEASURE( 0.02539999999999999897 ), #149 );
#33 = DIRECTION ( 'NONE',  ( -4.082155997157848133E-17, 1.000000000000000000, -0.000000000000000000 ) ) ;
#34 = DIRECTION ( 'NONE',  ( -0.000000000000000000, -1.000000000000000000, -0.000000000000000000 ) ) ;
#35 = EDGE_LOOP ( 'NONE', ( #236, #168 ) ) ;
#36 = VECTOR ( 'NONE', #6, 39.37007874015748143 ) ;
#37 = MECHANICAL_DESIGN_GEOMETRIC_PRESENTATION_REPRESENTATION (  '', ( #171 ), #132 ) ;
#38 = LENGTH_MEASURE_WITH_UNIT ( LENGTH_MEASURE( 0.02539999999999999897 ), #220 );
#39 = SURFACE_STYLE_USAGE ( .BOTH. , #224 ) ;
#40 = UNCERTAINTY_MEASURE_WITH_UNIT (LENGTH_MEASURE( 1.000000000000000082E-05 ), #158, 'distance_accuracy_value', 'NONE');
#41 = SURFACE_STYLE_USAGE ( .BOTH. , #24 ) ;
#42 =( GEOMETRIC_REPRESENTATION_CONTEXT ( 3 ) GLOBAL_UNCERTAINTY_ASSIGNED_CONTEXT ( ( #229 ) ) GLOBAL_UNIT_ASSIGNED_CONTEXT ( ( #267, #94, #102 ) ) REPRESENTATION_CONTEXT ( 'NONE', 'WORKASPACE' ) );
#43 = DIMENSIONAL_EXPONENTS ( 1.000000000000000000, 0.000000000000000000, 0.000000000000000000, 0.000000000000000000, 0.000000000000000000, 0.000000000000000000, 0.000000000000000000 ) ;
#44 = PRODUCT_CONTEXT ( 'NONE', #265, 'mechanical' ) ;
#45 = EDGE_CURVE ( 'NONE', #189, #3, #72, .T. ) ;
#46 = CARTESIAN_POINT ( 'NONE',  ( 0.1249999999999999584, 3.000000000000000444, 1.530808498934191817E-17 ) ) ;
#47 = SURFACE_STYLE_FILL_AREA ( #223 ) ;
#48 = ORIENTED_EDGE ( 'NONE', *, *, #303, .T. ) ;
#49 = SURFACE_STYLE_USAGE ( .BOTH. , #174 ) ;
#50 = COLOUR_RGB ( '',1.000000000000000000, 0.000000000000000000, 0.000000000000000000 ) ;
#51 = CARTESIAN_POINT ( 'NONE',  ( 1.041499849070736517E-34, 1.500000000000000222, 0.000000000000000000 ) ) ;
#52 = DIRECTION ( 'NONE',  ( 0.000000000000000000, -0.000000000000000000, 1.000000000000000000 ) ) ;
#53 = ADVANCED_FACE ( 'NONE', ( #84 ), #290, .T. ) ;
#54 = CIRCLE ( 'NONE', #148, 0.1250000000000000000 ) ;
#55 = SURFACE_STYLE_USAGE ( .BOTH. , #302 ) ;
#56 = DIRECTION ( 'NONE',  ( -1.000000000000000000, 0.000000000000000000, 0.000000000000000000 ) ) ;
#57 = DIMENSIONAL_EXPONENTS ( 1.000000000000000000, 0.000000000000000000, 0.000000000000000000, 0.000000000000000000, 0.000000000000000000, 0.000000000000000000, 0.000000000000000000 ) ;
#58 = EDGE_LOOP ( 'NONE', ( #62, #162, #70, #104 ) ) ;
#59 = VERTEX_POINT ( 'NONE', #260 ) ;
#60 = COLOUR_RGB ( '',1.000000000000000000, 0.000000000000000000, 0.000000000000000000 ) ;
#61 =( NAMED_UNIT ( * ) SI_UNIT ( $, .STERADIAN. ) SOLID_ANGLE_UNIT ( ) );
#62 = ORIENTED_EDGE ( 'NONE', *, *, #11, .T. ) ;
#63 = DIRECTION ( 'NONE',  ( -1.000000000000000000, 0.000000000000000000, 0.000000000000000000 ) ) ;
#64 = DIRECTION ( 'NONE',  ( 0.000000000000000000, 0.000000000000000000, -1.000000000000000000 ) ) ;
#65 = CARTESIAN_POINT ( 'NONE',  ( 0.000000000000000000, 0.000000000000000000, 0.000000000000000000 ) ) ;
#66 = ORIENTED_EDGE ( 'NONE', *, *, #113, .F. ) ;
#67 =( LENGTH_UNIT ( ) NAMED_UNIT ( * ) SI_UNIT ( $, .METRE. ) );
#68 = DIRECTION ( 'NONE',  ( -4.082155997157848133E-17, 1.000000000000000000, -0.000000000000000000 ) ) ;
#69 = DIRECTION ( 'NONE',  ( -4.082155997157848133E-17, 1.000000000000000000, -0.000000000000000000 ) ) ;
#70 = ORIENTED_EDGE ( 'NONE', *, *, #282, .F. ) ;
#71 = FACE_OUTER_BOUND ( 'NONE', #208, .T. ) ;
#72 = CIRCLE ( 'NONE', #115, 0.1250000000000000555 ) ;
#73 = CARTESIAN_POINT ( 'NONE',  ( -0.1250000000000001110, 3.000000000000000444, 0.000000000000000000 ) ) ;
#74 = FILL_AREA_STYLE ('',( #7 ) ) ;
#75 = ORIENTED_EDGE ( 'NONE', *, *, #45, .T. ) ;
#76 = DIMENSIONAL_EXPONENTS ( 1.000000000000000000, 0.000000000000000000, 0.000000000000000000, 0.000000000000000000, 0.000000000000000000, 0.000000000000000000, 0.000000000000000000 ) ;
#77 = PRESENTATION_LAYER_ASSIGNMENT (  '', '', ( #103 ) ) ;
#78 = FACE_OUTER_BOUND ( 'NONE', #214, .T. ) ;
#79 = EDGE_CURVE ( 'NONE', #297, #118, #130, .T. ) ;
#80 = CARTESIAN_POINT ( 'NONE',  ( 0.1250000000000000278, 3.000000000000000444, 1.530808498934192125E-17 ) ) ;
#81 =( NAMED_UNIT ( * ) SI_UNIT ( $, .STERADIAN. ) SOLID_ANGLE_UNIT ( ) );
#82 = UNCERTAINTY_MEASURE_WITH_UNIT (LENGTH_MEASURE( 1.000000000000000082E-05 ), #278, 'distance_accuracy_value', 'NONE');
#83 = UNCERTAINTY_MEASURE_WITH_UNIT (LENGTH_MEASURE( 1.000000000000000082E-05 ), #147, 'distance_accuracy_value', 'NONE');
#84 = FACE_OUTER_BOUND ( 'NONE', #258, .T. ) ;
#85 = FILL_AREA_STYLE ('',( #125 ) ) ;
#86 = ORIENTED_EDGE ( 'NONE', *, *, #79, .T. ) ;
#87 = PRESENTATION_STYLE_ASSIGNMENT (( #39 ) ) ;
#88 =( GEOMETRIC_REPRESENTATION_CONTEXT ( 3 ) GLOBAL_UNCERTAINTY_ASSIGNED_CONTEXT ( ( #279 ) ) GLOBAL_UNIT_ASSIGNED_CONTEXT ( ( #108, #200, #182 ) ) REPRESENTATION_CONTEXT ( 'NONE', 'WORKASPACE' ) );
#89 = PRESENTATION_LAYER_ASSIGNMENT (  '', '', ( #171 ) ) ;
#90 =( CONVERSION_BASED_UNIT ( 'INCH', #308 ) LENGTH_UNIT ( ) NAMED_UNIT ( #270 ) );
#91 = MANIFOLD_SOLID_BREP ( 'Revolve - Tool Body (Straight Shanked)', #155 ) ;
#92 = FACE_OUTER_BOUND ( 'NONE', #35, .T. ) ;
#93 = LINE ( 'NONE', #263, #304 ) ;
#94 =( NAMED_UNIT ( * ) PLANE_ANGLE_UNIT ( ) SI_UNIT ( $, .RADIAN. ) );
#95 = MECHANICAL_DESIGN_GEOMETRIC_PRESENTATION_REPRESENTATION (  '', ( #235 ), #88 ) ;
#96 = FILL_AREA_STYLE_COLOUR ( '', #201 ) ;
#97 = AXIS2_PLACEMENT_3D ( 'NONE', #215, #29, #1 ) ;
#98 = PLANE ( 'NONE',  #185 ) ;
#99 = DIRECTION ( 'NONE',  ( -0.000000000000000000, -1.000000000000000000, -0.000000000000000000 ) ) ;
#100 = CARTESIAN_POINT ( 'NONE',  ( -6.123233995736772199E-17, 3.000000000000000444, 0.000000000000000000 ) ) ;
#101 = EDGE_CURVE ( 'NONE', #225, #59, #261, .T. ) ;
#102 =( NAMED_UNIT ( * ) SI_UNIT ( $, .STERADIAN. ) SOLID_ANGLE_UNIT ( ) );
#103 = STYLED_ITEM ( 'NONE', ( #238 ), #53 ) ;
#104 = ORIENTED_EDGE ( 'NONE', *, *, #101, .F. ) ;
#105 = CIRCLE ( 'NONE', #252, 0.1250000000000000000 ) ;
#106 =( NAMED_UNIT ( * ) PLANE_ANGLE_UNIT ( ) SI_UNIT ( $, .RADIAN. ) );
#107 = CARTESIAN_POINT ( 'NONE',  ( 0.1250000000000000000, 3.000000000000000444, 0.000000000000000000 ) ) ;
#108 =( CONVERSION_BASED_UNIT ( 'INCH', #38 ) LENGTH_UNIT ( ) NAMED_UNIT ( #212 ) );
#109 = AXIS2_PLACEMENT_3D ( 'NONE', #107, #15, #152 ) ;
#110 = CIRCLE ( 'NONE', #274, 0.1250000000000000000 ) ;
#111 = ADVANCED_BREP_SHAPE_REPRESENTATION ( '81555', ( #203, #91, #27 ), #141 ) ;
#112 = FACE_OUTER_BOUND ( 'NONE', #22, .T. ) ;
#113 = EDGE_CURVE ( 'NONE', #118, #3, #262, .T. ) ;
#114 = PLANE ( 'NONE',  #109 ) ;
#115 = AXIS2_PLACEMENT_3D ( 'NONE', #188, #2, #56 ) ;
#116 = CARTESIAN_POINT ( 'NONE',  ( -0.1250000000000000000, 1.500000000000000222, 0.000000000000000000 ) ) ;
#117 =( NAMED_UNIT ( * ) PLANE_ANGLE_UNIT ( ) SI_UNIT ( $, .RADIAN. ) );
#118 = VERTEX_POINT ( 'NONE', #178 ) ;
#119 = STYLED_ITEM ( 'NONE', ( #291 ), #264 ) ;
#120 = CARTESIAN_POINT ( 'NONE',  ( 0.000000000000000000, 0.000000000000000000, 0.000000000000000000 ) ) ;
#121 = FACE_OUTER_BOUND ( 'NONE', #163, .T. ) ;
#122 =( LENGTH_UNIT ( ) NAMED_UNIT ( * ) SI_UNIT ( $, .METRE. ) );
#123 = ORIENTED_EDGE ( 'NONE', *, *, #127, .F. ) ;
#124 = CARTESIAN_POINT ( 'NONE',  ( 0.000000000000000000, 0.000000000000000000, 0.000000000000000000 ) ) ;
#125 = FILL_AREA_STYLE_COLOUR ( '', #305 ) ;
#126 =( NAMED_UNIT ( * ) SI_UNIT ( $, .STERADIAN. ) SOLID_ANGLE_UNIT ( ) );
#127 = EDGE_CURVE ( 'NONE', #142, #59, #54, .T. ) ;
#128 = FILL_AREA_STYLE ('',( #172 ) ) ;
#129 = CARTESIAN_POINT ( 'NONE',  ( 0.000000000000000000, 1.500000000000000222, -0.1250000000000000000 ) ) ;
#130 = CIRCLE ( 'NONE', #292, 0.1250000000000000000 ) ;
#131 = DIRECTION ( 'NONE',  ( -1.000000000000000000, 0.000000000000000000, 0.000000000000000000 ) ) ;
#132 =( GEOMETRIC_REPRESENTATION_CONTEXT ( 3 ) GLOBAL_UNCERTAINTY_ASSIGNED_CONTEXT ( ( #284 ) ) GLOBAL_UNIT_ASSIGNED_CONTEXT ( ( #136, #106, #228 ) ) REPRESENTATION_CONTEXT ( 'NONE', 'WORKASPACE' ) );
#133 = DIRECTION ( 'NONE',  ( -0.000000000000000000, -1.000000000000000000, -0.000000000000000000 ) ) ;
#134 = ADVANCED_FACE ( 'NONE', ( #71 ), #31, .T. ) ;
#135 = DIRECTION ( 'NONE',  ( 1.000000000000000000, 0.000000000000000000, 0.000000000000000000 ) ) ;
#136 =( CONVERSION_BASED_UNIT ( 'INCH', #250 ) LENGTH_UNIT ( ) NAMED_UNIT ( #205 ) );
#137 =( GEOMETRIC_REPRESENTATION_CONTEXT ( 3 ) GLOBAL_UNCERTAINTY_ASSIGNED_CONTEXT ( ( #40 ) ) GLOBAL_UNIT_ASSIGNED_CONTEXT ( ( #158, #202, #81 ) ) REPRESENTATION_CONTEXT ( 'NONE', 'WORKASPACE' ) );
#138 = CARTESIAN_POINT ( 'NONE',  ( 0.000000000000000000, 0.000000000000000000, 0.000000000000000000 ) ) ;
#139 = LENGTH_MEASURE_WITH_UNIT ( LENGTH_MEASURE( 0.02539999999999999897 ), #234 );
#140 = DIRECTION ( 'NONE',  ( -1.000000000000000000, -4.082155997157848133E-17, 0.000000000000000000 ) ) ;
#141 =( GEOMETRIC_REPRESENTATION_CONTEXT ( 3 ) GLOBAL_UNCERTAINTY_ASSIGNED_CONTEXT ( ( #82 ) ) GLOBAL_UNIT_ASSIGNED_CONTEXT ( ( #278, #21, #126 ) ) REPRESENTATION_CONTEXT ( 'NONE', 'WORKASPACE' ) );
#142 = VERTEX_POINT ( 'NONE', #12 ) ;
#143 = PRESENTATION_LAYER_ASSIGNMENT (  '', '', ( #277 ) ) ;
#144 = PRODUCT_DEFINITION_SHAPE ( 'NONE', 'NONE',  #209 ) ;
#145 = CARTESIAN_POINT ( 'NONE',  ( 0.000000000000000000, 0.000000000000000000, 0.000000000000000000 ) ) ;
#146 =( NAMED_UNIT ( * ) SI_UNIT ( $, .STERADIAN. ) SOLID_ANGLE_UNIT ( ) );
#147 =( CONVERSION_BASED_UNIT ( 'INCH', #186 ) LENGTH_UNIT ( ) NAMED_UNIT ( #76 ) );
#148 = AXIS2_PLACEMENT_3D ( 'NONE', #124, #133, #222 ) ;
#149 =( LENGTH_UNIT ( ) NAMED_UNIT ( * ) SI_UNIT ( $, .METRE. ) );
#150 = FACE_OUTER_BOUND ( 'NONE', #20, .T. ) ;
#151 = APPLICATION_PROTOCOL_DEFINITION ( 'draft international standard', 'automotive_design', 1998, #173 ) ;
#152 = DIRECTION ( 'NONE',  ( 1.000000000000000000, 4.082155997157848133E-17, 0.000000000000000000 ) ) ;
#153 = PRESENTATION_STYLE_ASSIGNMENT (( #49 ) ) ;
#154 = ORIENTED_EDGE ( 'NONE', *, *, #101, .T. ) ;
#155 = CLOSED_SHELL ( 'NONE', ( #134, #30, #275, #192 ) ) ;
#156 = LINE ( 'NONE', #73, #36 ) ;
#157 = CYLINDRICAL_SURFACE ( 'NONE', #26, 0.1250000000000000000 ) ;
#158 =( CONVERSION_BASED_UNIT ( 'INCH', #139 ) LENGTH_UNIT ( ) NAMED_UNIT ( #289 ) );
#159 = DIRECTION ( 'NONE',  ( 0.000000000000000000, 0.000000000000000000, -1.000000000000000000 ) ) ;
#160 = PRESENTATION_STYLE_ASSIGNMENT (( #232 ) ) ;
#161 = FILL_AREA_STYLE_COLOUR ( '', #60 ) ;
#162 = ORIENTED_EDGE ( 'NONE', *, *, #239, .T. ) ;
#163 = EDGE_LOOP ( 'NONE', ( #28, #296 ) ) ;
#164 = SURFACE_SIDE_STYLE ('',( #169 ) ) ;
#165 = APPLICATION_PROTOCOL_DEFINITION ( 'draft international standard', 'automotive_design', 1998, #265 ) ;
#166 =( LENGTH_UNIT ( ) NAMED_UNIT ( * ) SI_UNIT ( $, .METRE. ) );
#167 = DIRECTION ( 'NONE',  ( 0.000000000000000000, 0.000000000000000000, -1.000000000000000000 ) ) ;
#168 = ORIENTED_EDGE ( 'NONE', *, *, #127, .T. ) ;
#169 = SURFACE_STYLE_FILL_AREA ( #74 ) ;
#170 = ADVANCED_FACE ( 'NONE', ( #196 ), #157, .T. ) ;
#171 = STYLED_ITEM ( 'NONE', ( #248 ), #254 ) ;
#172 = FILL_AREA_STYLE_COLOUR ( '', #50 ) ;
#173 = APPLICATION_CONTEXT ( 'automotive_design' ) ;
#174 = SURFACE_SIDE_STYLE ('',( #217 ) ) ;
#175 = ORIENTED_EDGE ( 'NONE', *, *, #113, .T. ) ;
#176 = PRODUCT_DEFINITION_CONTEXT ( 'detailed design', #173, 'design' ) ;
#177 = PLANE ( 'NONE',  #257 ) ;
#178 = CARTESIAN_POINT ( 'NONE',  ( 0.1250000000000000278, 1.500000000000000222, 1.530808498934192125E-17 ) ) ;
#179 = CIRCLE ( 'NONE', #288, 0.1250000000000000000 ) ;
#180 = CARTESIAN_POINT ( 'NONE',  ( -0.1250000000000001388, 3.000000000000000444, 0.000000000000000000 ) ) ;
#181 = CLOSED_SHELL ( 'NONE', ( #170, #264, #53, #254 ) ) ;
#182 =( NAMED_UNIT ( * ) SI_UNIT ( $, .STERADIAN. ) SOLID_ANGLE_UNIT ( ) );
#183 = CARTESIAN_POINT ( 'NONE',  ( 1.530808498934191509E-17, 1.500000000000000222, 0.1250000000000000000 ) ) ;
#184 = MECHANICAL_DESIGN_GEOMETRIC_PRESENTATION_REPRESENTATION (  '', ( #277 ), #137 ) ;
#185 = AXIS2_PLACEMENT_3D ( 'NONE', #197, #300, #52 ) ;
#186 = LENGTH_MEASURE_WITH_UNIT ( LENGTH_MEASURE( 0.02539999999999999897 ), #166 );
#187 = SURFACE_STYLE_FILL_AREA ( #256 ) ;
#188 = CARTESIAN_POINT ( 'NONE',  ( -6.123233995736772199E-17, 3.000000000000000444, 0.000000000000000000 ) ) ;
#189 = VERTEX_POINT ( 'NONE', #180 ) ;
#190 =( GEOMETRIC_REPRESENTATION_CONTEXT ( 3 ) GLOBAL_UNCERTAINTY_ASSIGNED_CONTEXT ( ( #83 ) ) GLOBAL_UNIT_ASSIGNED_CONTEXT ( ( #147, #117, #146 ) ) REPRESENTATION_CONTEXT ( 'NONE', 'WORKASPACE' ) );
#191 = DIRECTION ( 'NONE',  ( -4.082155997157848133E-17, 1.000000000000000000, -0.000000000000000000 ) ) ;
#192 = ADVANCED_FACE ( 'NONE', ( #112 ), #114, .F. ) ;
#193 = CARTESIAN_POINT ( 'NONE',  ( 0.000000000000000000, 0.000000000000000000, 0.000000000000000000 ) ) ;
#194 = DIRECTION ( 'NONE',  ( -1.000000000000000000, 0.000000000000000000, 0.000000000000000000 ) ) ;
#195 = AXIS2_PLACEMENT_3D ( 'NONE', #65, #19, #167 ) ;
#196 = FACE_OUTER_BOUND ( 'NONE', #58, .T. ) ;
#197 = CARTESIAN_POINT ( 'NONE',  ( 0.000000000000000000, 1.500000000000000222, 0.000000000000000000 ) ) ;
#198 = FILL_AREA_STYLE ('',( #96 ) ) ;
#199 = DIRECTION ( 'NONE',  ( 0.000000000000000000, 0.000000000000000000, -1.000000000000000000 ) ) ;
#200 =( NAMED_UNIT ( * ) PLANE_ANGLE_UNIT ( ) SI_UNIT ( $, .RADIAN. ) );
#201 = COLOUR_RGB ( '',0.7921568627450980005, 0.8196078431372548767, 0.9333333333333333481 ) ;
#202 =( NAMED_UNIT ( * ) PLANE_ANGLE_UNIT ( ) SI_UNIT ( $, .RADIAN. ) );
#203 = MANIFOLD_SOLID_BREP ( 'Revolve - Cutting Edge', #181 ) ;
#204 = UNCERTAINTY_MEASURE_WITH_UNIT (LENGTH_MEASURE( 1.000000000000000082E-05 ), #90, 'distance_accuracy_value', 'NONE');
#205 = DIMENSIONAL_EXPONENTS ( 1.000000000000000000, 0.000000000000000000, 0.000000000000000000, 0.000000000000000000, 0.000000000000000000, 0.000000000000000000, 0.000000000000000000 ) ;
#206 = DIRECTION ( 'NONE',  ( -1.000000000000000000, 0.000000000000000000, 0.000000000000000000 ) ) ;
#207 = CIRCLE ( 'NONE', #9, 0.1250000000000000555 ) ;
#208 = EDGE_LOOP ( 'NONE', ( #86, #175, #269, #237 ) ) ;
#209 = PRODUCT_DEFINITION ( 'UNKNOWN', '', #283, #176 ) ;
#210 = ORIENTED_EDGE ( 'NONE', *, *, #79, .F. ) ;
#211 = AXIS2_PLACEMENT_3D ( 'NONE', #100, #266, #5 ) ;
#212 = DIMENSIONAL_EXPONENTS ( 1.000000000000000000, 0.000000000000000000, 0.000000000000000000, 0.000000000000000000, 0.000000000000000000, 0.000000000000000000, 0.000000000000000000 ) ;
#213 = SURFACE_STYLE_FILL_AREA ( #85 ) ;
#214 = EDGE_LOOP ( 'NONE', ( #210, #241 ) ) ;
#215 = CARTESIAN_POINT ( 'NONE',  ( 0.000000000000000000, 1.500000000000000222, 0.000000000000000000 ) ) ;
#216 = SURFACE_SIDE_STYLE ('',( #213 ) ) ;
#217 = SURFACE_STYLE_FILL_AREA ( #128 ) ;
#218 = CARTESIAN_POINT ( 'NONE',  ( 7.582401355855259480E-33, 1.500000000000000222, 0.000000000000000000 ) ) ;
#219 = DIRECTION ( 'NONE',  ( -0.000000000000000000, -1.000000000000000000, -0.000000000000000000 ) ) ;
#220 =( LENGTH_UNIT ( ) NAMED_UNIT ( * ) SI_UNIT ( $, .METRE. ) );
#221 = CARTESIAN_POINT ( 'NONE',  ( 0.000000000000000000, 1.500000000000000222, 0.000000000000000000 ) ) ;
#222 = DIRECTION ( 'NONE',  ( 0.000000000000000000, 0.000000000000000000, -1.000000000000000000 ) ) ;
#223 = FILL_AREA_STYLE ('',( #259 ) ) ;
#224 = SURFACE_SIDE_STYLE ('',( #295 ) ) ;
#225 = VERTEX_POINT ( 'NONE', #129 ) ;
#226 = EDGE_CURVE ( 'NONE', #297, #189, #156, .T. ) ;
#227 = MECHANICAL_DESIGN_GEOMETRIC_PRESENTATION_REPRESENTATION (  '', ( #103 ), #298 ) ;
#228 =( NAMED_UNIT ( * ) SI_UNIT ( $, .STERADIAN. ) SOLID_ANGLE_UNIT ( ) );
#229 = UNCERTAINTY_MEASURE_WITH_UNIT (LENGTH_MEASURE( 1.000000000000000082E-05 ), #267, 'distance_accuracy_value', 'NONE');
#230 = DIRECTION ( 'NONE',  ( -0.000000000000000000, -1.000000000000000000, -0.000000000000000000 ) ) ;
#231 = VECTOR ( 'NONE', #68, 39.37007874015748143 ) ;
#232 = SURFACE_STYLE_USAGE ( .BOTH. , #164 ) ;
#233 = COLOUR_RGB ( '',1.000000000000000000, 0.000000000000000000, 0.000000000000000000 ) ;
#234 =( LENGTH_UNIT ( ) NAMED_UNIT ( * ) SI_UNIT ( $, .METRE. ) );
#235 = STYLED_ITEM ( 'NONE', ( #153 ), #170 ) ;
#236 = ORIENTED_EDGE ( 'NONE', *, *, #282, .T. ) ;
#237 = ORIENTED_EDGE ( 'NONE', *, *, #226, .F. ) ;
#238 = PRESENTATION_STYLE_ASSIGNMENT (( #41 ) ) ;
#239 = EDGE_CURVE ( 'NONE', #286, #142, #93, .T. ) ;
#240 = ORIENTED_EDGE ( 'NONE', *, *, #244, .F. ) ;
#241 = ORIENTED_EDGE ( 'NONE', *, *, #249, .F. ) ;
#242 = PRESENTATION_LAYER_ASSIGNMENT (  '', '', ( #119 ) ) ;
#243 = SHAPE_DEFINITION_REPRESENTATION ( #144, #111 ) ;
#244 = EDGE_CURVE ( 'NONE', #3, #189, #207, .T. ) ;
#245 = CARTESIAN_POINT ( 'NONE',  ( 7.582401355855259480E-33, 1.500000000000000222, 0.000000000000000000 ) ) ;
#246 = VECTOR ( 'NONE', #34, 39.37007874015748143 ) ;
#247 = CARTESIAN_POINT ( 'NONE',  ( 0.000000000000000000, 0.000000000000000000, -0.1250000000000000000 ) ) ;
#248 = PRESENTATION_STYLE_ASSIGNMENT (( #293 ) ) ;
#249 = EDGE_CURVE ( 'NONE', #118, #297, #105, .T. ) ;
#250 = LENGTH_MEASURE_WITH_UNIT ( LENGTH_MEASURE( 0.02539999999999999897 ), #251 );
#251 =( LENGTH_UNIT ( ) NAMED_UNIT ( * ) SI_UNIT ( $, .METRE. ) );
#252 = AXIS2_PLACEMENT_3D ( 'NONE', #245, #191, #63 ) ;
#253 = DIRECTION ( 'NONE',  ( 0.000000000000000000, 0.000000000000000000, -1.000000000000000000 ) ) ;
#254 = ADVANCED_FACE ( 'NONE', ( #92 ), #306, .T. ) ;
#255 = CIRCLE ( 'NONE', #97, 0.1250000000000000000 ) ;
#256 = FILL_AREA_STYLE ('',( #161 ) ) ;
#257 = AXIS2_PLACEMENT_3D ( 'NONE', #51, #272, #140 ) ;
#258 = EDGE_LOOP ( 'NONE', ( #285, #48, #154, #123 ) ) ;
#259 = FILL_AREA_STYLE_COLOUR ( '', #233 ) ;
#260 = CARTESIAN_POINT ( 'NONE',  ( 0.000000000000000000, 0.000000000000000000, -0.1250000000000000000 ) ) ;
#261 = LINE ( 'NONE', #247, #246 ) ;
#262 = LINE ( 'NONE', #46, #231 ) ;
#263 = CARTESIAN_POINT ( 'NONE',  ( 1.530808498934191509E-17, 0.000000000000000000, 0.1250000000000000000 ) ) ;
#264 = ADVANCED_FACE ( 'NONE', ( #121 ), #98, .T. ) ;
#265 = APPLICATION_CONTEXT ( 'automotive_design' ) ;
#266 = DIRECTION ( 'NONE',  ( -4.082155997157848133E-17, 1.000000000000000000, -0.000000000000000000 ) ) ;
#267 =( CONVERSION_BASED_UNIT ( 'INCH', #32 ) LENGTH_UNIT ( ) NAMED_UNIT ( #43 ) );
#268 = CYLINDRICAL_SURFACE ( 'NONE', #299, 0.1250000000000000278 ) ;
#269 = ORIENTED_EDGE ( 'NONE', *, *, #45, .F. ) ;
#270 = DIMENSIONAL_EXPONENTS ( 1.000000000000000000, 0.000000000000000000, 0.000000000000000000, 0.000000000000000000, 0.000000000000000000, 0.000000000000000000, 0.000000000000000000 ) ;
#271 = CARTESIAN_POINT ( 'NONE',  ( -6.123233995736772199E-17, 3.000000000000000444, 0.000000000000000000 ) ) ;
#272 = DIRECTION ( 'NONE',  ( -4.082155997157848133E-17, 1.000000000000000000, 0.000000000000000000 ) ) ;
#273 = PRESENTATION_LAYER_ASSIGNMENT (  '', '', ( #17 ) ) ;
#274 = AXIS2_PLACEMENT_3D ( 'NONE', #120, #230, #253 ) ;
#275 = ADVANCED_FACE ( 'NONE', ( #150 ), #268, .T. ) ;
#276 = ORIENTED_EDGE ( 'NONE', *, *, #226, .T. ) ;
#277 = STYLED_ITEM ( 'NONE', ( #160 ), #203 ) ;
#278 =( CONVERSION_BASED_UNIT ( 'INCH', #294 ) LENGTH_UNIT ( ) NAMED_UNIT ( #57 ) );
#279 = UNCERTAINTY_MEASURE_WITH_UNIT (LENGTH_MEASURE( 1.000000000000000082E-05 ), #108, 'distance_accuracy_value', 'NONE');
#280 = DIRECTION ( 'NONE',  ( -4.082155997157848133E-17, 1.000000000000000000, -0.000000000000000000 ) ) ;
#281 = PRESENTATION_LAYER_ASSIGNMENT (  '', '', ( #235 ) ) ;
#282 = EDGE_CURVE ( 'NONE', #59, #142, #110, .T. ) ;
#283 = PRODUCT_DEFINITION_FORMATION_WITH_SPECIFIED_SOURCE ( 'ANY', '', #307, .NOT_KNOWN. ) ;
#284 = UNCERTAINTY_MEASURE_WITH_UNIT (LENGTH_MEASURE( 1.000000000000000082E-05 ), #136, 'distance_accuracy_value', 'NONE');
#285 = ORIENTED_EDGE ( 'NONE', *, *, #239, .F. ) ;
#286 = VERTEX_POINT ( 'NONE', #183 ) ;
#287 = MECHANICAL_DESIGN_GEOMETRIC_PRESENTATION_REPRESENTATION (  '', ( #17 ), #190 ) ;
#288 = AXIS2_PLACEMENT_3D ( 'NONE', #221, #99, #199 ) ;
#289 = DIMENSIONAL_EXPONENTS ( 1.000000000000000000, 0.000000000000000000, 0.000000000000000000, 0.000000000000000000, 0.000000000000000000, 0.000000000000000000, 0.000000000000000000 ) ;
#290 = CYLINDRICAL_SURFACE ( 'NONE', #195, 0.1250000000000000000 ) ;
#291 = PRESENTATION_STYLE_ASSIGNMENT (( #55 ) ) ;
#292 = AXIS2_PLACEMENT_3D ( 'NONE', #218, #69, #194 ) ;
#293 = SURFACE_STYLE_USAGE ( .BOTH. , #216 ) ;
#294 = LENGTH_MEASURE_WITH_UNIT ( LENGTH_MEASURE( 0.02539999999999999897 ), #67 );
#295 = SURFACE_STYLE_FILL_AREA ( #198 ) ;
#296 = ORIENTED_EDGE ( 'NONE', *, *, #303, .F. ) ;
#297 = VERTEX_POINT ( 'NONE', #116 ) ;
#298 =( GEOMETRIC_REPRESENTATION_CONTEXT ( 3 ) GLOBAL_UNCERTAINTY_ASSIGNED_CONTEXT ( ( #204 ) ) GLOBAL_UNIT_ASSIGNED_CONTEXT ( ( #90, #309, #61 ) ) REPRESENTATION_CONTEXT ( 'NONE', 'WORKASPACE' ) );
#299 = AXIS2_PLACEMENT_3D ( 'NONE', #271, #33, #131 ) ;
#300 = DIRECTION ( 'NONE',  ( 0.000000000000000000, 1.000000000000000000, 0.000000000000000000 ) ) ;
#301 = DIRECTION ( 'NONE',  ( -0.000000000000000000, -1.000000000000000000, -0.000000000000000000 ) ) ;
#302 = SURFACE_SIDE_STYLE ('',( #47 ) ) ;
#303 = EDGE_CURVE ( 'NONE', #286, #225, #255, .T. ) ;
#304 = VECTOR ( 'NONE', #219, 39.37007874015748143 ) ;
#305 = COLOUR_RGB ( '',1.000000000000000000, 0.000000000000000000, 0.000000000000000000 ) ;
#306 = PLANE ( 'NONE',  #14 ) ;
#307 = PRODUCT ( '81555', '81555', '', ( #44 ) ) ;
#308 = LENGTH_MEASURE_WITH_UNIT ( LENGTH_MEASURE( 0.02539999999999999897 ), #122 );
#309 =( NAMED_UNIT ( * ) PLANE_ANGLE_UNIT ( ) SI_UNIT ( $, .RADIAN. ) );
ENDSEC;
END-ISO-10303-21;
