ISO-10303-21;
HEADER;
FILE_DESCRIPTION (( 'STEP AP214' ),
    '1' );
FILE_NAME ('81931.STEP',
    '2023-06-30T22:35:09',
    ( '' ),
    ( '' ),
    'SwSTEP 2.0',
    'SolidWorks 2023',
    '' );
FILE_SCHEMA (( 'AUTOMOTIVE_DESIGN' ));
ENDSEC;

DATA;
#1 = AXIS2_PLACEMENT_3D ( 'NONE', #262, #168, #371 ) ;
#2 = VERTEX_POINT ( 'NONE', #202 ) ;
#3 = ORIENTED_EDGE ( 'NONE', *, *, #319, .T. ) ;
#4 = ORIENTED_EDGE ( 'NONE', *, *, #327, .F. ) ;
#5 = PRESENTATION_STYLE_ASSIGNMENT (( #90 ) ) ;
#6 = ORIENTED_EDGE ( 'NONE', *, *, #93, .F. ) ;
#7 = STYLED_ITEM ( 'NONE', ( #121 ), #119 ) ;
#8 = EDGE_CURVE ( 'NONE', #227, #166, #226, .T. ) ;
#9 = ORIENTED_EDGE ( 'NONE', *, *, #297, .T. ) ;
#10 = FILL_AREA_STYLE_COLOUR ( '', #193 ) ;
#11 = CYLINDRICAL_SURFACE ( 'NONE', #97, 0.2499999999999997224 ) ;
#12 =( GEOMETRIC_REPRESENTATION_CONTEXT ( 3 ) GLOBAL_UNCERTAINTY_ASSIGNED_CONTEXT ( ( #301 ) ) GLOBAL_UNIT_ASSIGNED_CONTEXT ( ( #309, #157, #274 ) ) REPRESENTATION_CONTEXT ( 'NONE', 'WORKASPACE' ) );
#13 =( NAMED_UNIT ( * ) SI_UNIT ( $, .STERADIAN. ) SOLID_ANGLE_UNIT ( ) );
#14 = DIRECTION ( 'NONE',  ( -0.000000000000000000, -1.000000000000000000, -0.000000000000000000 ) ) ;
#15 =( CONVERSION_BASED_UNIT ( 'INCH', #366 ) LENGTH_UNIT ( ) NAMED_UNIT ( #332 ) );
#16 = DIRECTION ( 'NONE',  ( -0.000000000000000000, -1.000000000000000000, -0.000000000000000000 ) ) ;
#17 = FILL_AREA_STYLE ('',( #341 ) ) ;
#18 = PRESENTATION_LAYER_ASSIGNMENT (  '', '', ( #345 ) ) ;
#19 = STYLED_ITEM ( 'NONE', ( #142 ), #215 ) ;
#20 = STYLED_ITEM ( 'NONE', ( #357 ), #344 ) ;
#21 = FACE_OUTER_BOUND ( 'NONE', #351, .T. ) ;
#22 = MECHANICAL_DESIGN_GEOMETRIC_PRESENTATION_REPRESENTATION (  '', ( #7 ), #116 ) ;
#23 = ADVANCED_FACE ( 'NONE', ( #169 ), #94, .T. ) ;
#24 =( LENGTH_UNIT ( ) NAMED_UNIT ( * ) SI_UNIT ( $, .METRE. ) );
#25 = CARTESIAN_POINT ( 'NONE',  ( -3.061616997868383018E-17, 0.2500000000000000000, 0.000000000000000000 ) ) ;
#26 = ORIENTED_EDGE ( 'NONE', *, *, #207, .T. ) ;
#27 = AXIS2_PLACEMENT_3D ( 'NONE', #296, #273, #336 ) ;
#28 = ORIENTED_EDGE ( 'NONE', *, *, #330, .F. ) ;
#29 = AXIS2_PLACEMENT_3D ( 'NONE', #103, #214, #100 ) ;
#30 = FACE_OUTER_BOUND ( 'NONE', #313, .T. ) ;
#31 = CARTESIAN_POINT ( 'NONE',  ( -1.530808498934191201E-17, -3.414809992080329023E-17, 0.000000000000000000 ) ) ;
#32 = SURFACE_SIDE_STYLE ('',( #64 ) ) ;
#33 = APPLICATION_CONTEXT ( 'automotive_design' ) ;
#34 = FILL_AREA_STYLE ('',( #285 ) ) ;
#35 = ADVANCED_FACE ( 'NONE', ( #30 ), #65, .T. ) ;
#36 = VECTOR ( 'NONE', #88, 39.37007874015748143 ) ;
#37 = SURFACE_STYLE_USAGE ( .BOTH. , #265 ) ;
#38 = AXIS2_PLACEMENT_3D ( 'NONE', #239, #47, #153 ) ;
#39 = DIRECTION ( 'NONE',  ( 0.000000000000000000, 0.000000000000000000, -1.000000000000000000 ) ) ;
#40 = UNCERTAINTY_MEASURE_WITH_UNIT (LENGTH_MEASURE( 1.000000000000000082E-05 ), #363, 'distance_accuracy_value', 'NONE');
#41 = LENGTH_MEASURE_WITH_UNIT ( LENGTH_MEASURE( 0.02539999999999999897 ), #326 );
#42 = MECHANICAL_DESIGN_GEOMETRIC_PRESENTATION_REPRESENTATION (  '', ( #86 ), #293 ) ;
#43 = ADVANCED_FACE ( 'NONE', ( #73 ), #11, .T. ) ;
#44 =( NAMED_UNIT ( * ) PLANE_ANGLE_UNIT ( ) SI_UNIT ( $, .RADIAN. ) );
#45 = APPLICATION_PROTOCOL_DEFINITION ( 'draft international standard', 'automotive_design', 1998, #33 ) ;
#46 = SURFACE_STYLE_FILL_AREA ( #17 ) ;
#47 = DIRECTION ( 'NONE',  ( 0.000000000000000000, 1.000000000000000000, 0.000000000000000000 ) ) ;
#48 = DIRECTION ( 'NONE',  ( 1.000000000000000000, 0.000000000000000000, 0.000000000000000000 ) ) ;
#49 = CARTESIAN_POINT ( 'NONE',  ( 0.2499999999999999167, 0.6250000000000000000, 3.061616997868380553E-17 ) ) ;
#50 = FACE_OUTER_BOUND ( 'NONE', #180, .T. ) ;
#51 = AXIS2_PLACEMENT_3D ( 'NONE', #107, #247, #271 ) ;
#52 = APPLICATION_CONTEXT ( 'automotive_design' ) ;
#53 = CARTESIAN_POINT ( 'NONE',  ( 0.000000000000000000, 0.2500000000000000555, 0.000000000000000000 ) ) ;
#54 = PRODUCT_DEFINITION_CONTEXT ( 'detailed design', #33, 'design' ) ;
#55 = FACE_OUTER_BOUND ( 'NONE', #141, .T. ) ;
#56 = PRESENTATION_LAYER_ASSIGNMENT (  '', '', ( #302 ) ) ;
#57 = PRESENTATION_LAYER_ASSIGNMENT (  '', '', ( #20 ) ) ;
#58 = CARTESIAN_POINT ( 'NONE',  ( 0.000000000000000000, 0.6250000000000000000, -0.2499999999999999167 ) ) ;
#59 = SPHERICAL_SURFACE ( 'NONE', #244, 0.2500000000000000555 ) ;
#60 = ORIENTED_EDGE ( 'NONE', *, *, #297, .F. ) ;
#61 = FILL_AREA_STYLE ('',( #87 ) ) ;
#62 =( GEOMETRIC_REPRESENTATION_CONTEXT ( 3 ) GLOBAL_UNCERTAINTY_ASSIGNED_CONTEXT ( ( #72 ) ) GLOBAL_UNIT_ASSIGNED_CONTEXT ( ( #96, #81, #13 ) ) REPRESENTATION_CONTEXT ( 'NONE', 'WORKASPACE' ) );
#63 = ORIENTED_EDGE ( 'NONE', *, *, #102, .F. ) ;
#64 = SURFACE_STYLE_FILL_AREA ( #315 ) ;
#65 = PLANE ( 'NONE',  #38 ) ;
#66 = DIRECTION ( 'NONE',  ( 0.000000000000000000, 0.000000000000000000, -1.000000000000000000 ) ) ;
#67 = EDGE_CURVE ( 'NONE', #120, #136, #368, .T. ) ;
#68 = ORIENTED_EDGE ( 'NONE', *, *, #319, .F. ) ;
#69 = CARTESIAN_POINT ( 'NONE',  ( 6.123233995736772199E-17, 2.500000000000000000, 0.000000000000000000 ) ) ;
#70 = ORIENTED_EDGE ( 'NONE', *, *, #372, .T. ) ;
#71 = FACE_OUTER_BOUND ( 'NONE', #114, .T. ) ;
#72 = UNCERTAINTY_MEASURE_WITH_UNIT (LENGTH_MEASURE( 1.000000000000000082E-05 ), #96, 'distance_accuracy_value', 'NONE');
#73 = FACE_OUTER_BOUND ( 'NONE', #232, .T. ) ;
#74 =( NAMED_UNIT ( * ) SI_UNIT ( $, .STERADIAN. ) SOLID_ANGLE_UNIT ( ) );
#75 = LINE ( 'NONE', #295, #147 ) ;
#76 = COLOUR_RGB ( '',1.000000000000000000, 0.000000000000000000, 0.000000000000000000 ) ;
#77 = AXIS2_PLACEMENT_3D ( 'NONE', #257, #318, #66 ) ;
#78 = CARTESIAN_POINT ( 'NONE',  ( 3.061616997868382402E-17, 0.6250000000000000000, 0.2499999999999999167 ) ) ;
#79 = CARTESIAN_POINT ( 'NONE',  ( 0.000000000000000000, 0.000000000000000000, 0.000000000000000000 ) ) ;
#80 = SURFACE_SIDE_STYLE ('',( #46 ) ) ;
#81 =( NAMED_UNIT ( * ) PLANE_ANGLE_UNIT ( ) SI_UNIT ( $, .RADIAN. ) );
#82 = CARTESIAN_POINT ( 'NONE',  ( -0.2499999999999998057, 2.500000000000000000, 0.000000000000000000 ) ) ;
#83 = COLOUR_RGB ( '',1.000000000000000000, 0.000000000000000000, 0.000000000000000000 ) ;
#84 =( NAMED_UNIT ( * ) PLANE_ANGLE_UNIT ( ) SI_UNIT ( $, .RADIAN. ) );
#85 = SURFACE_SIDE_STYLE ('',( #343 ) ) ;
#86 = STYLED_ITEM ( 'NONE', ( #279 ), #186 ) ;
#87 = FILL_AREA_STYLE_COLOUR ( '', #282 ) ;
#88 = DIRECTION ( 'NONE',  ( -1.226208398481208123E-16, 1.000000000000000000, -0.000000000000000000 ) ) ;
#89 = ORIENTED_EDGE ( 'NONE', *, *, #330, .T. ) ;
#90 = SURFACE_STYLE_USAGE ( .BOTH. , #32 ) ;
#91 = AXIS2_PLACEMENT_3D ( 'NONE', #249, #195, #304 ) ;
#92 = ORIENTED_EDGE ( 'NONE', *, *, #359, .F. ) ;
#93 = EDGE_CURVE ( 'NONE', #348, #166, #250, .T. ) ;
#94 = CYLINDRICAL_SURFACE ( 'NONE', #289, 0.2499999999999997224 ) ;
#95 = ORIENTED_EDGE ( 'NONE', *, *, #342, .F. ) ;
#96 =( CONVERSION_BASED_UNIT ( 'INCH', #98 ) LENGTH_UNIT ( ) NAMED_UNIT ( #254 ) );
#97 = AXIS2_PLACEMENT_3D ( 'NONE', #365, #290, #235 ) ;
#98 = LENGTH_MEASURE_WITH_UNIT ( LENGTH_MEASURE( 0.02539999999999999897 ), #329 );
#99 = CARTESIAN_POINT ( 'NONE',  ( 0.000000000000000000, 0.000000000000000000, 0.000000000000000000 ) ) ;
#100 = DIRECTION ( 'NONE',  ( -1.000000000000000000, 0.000000000000000000, 0.000000000000000000 ) ) ;
#101 = PLANE ( 'NONE',  #27 ) ;
#102 = EDGE_CURVE ( 'NONE', #136, #143, #75, .T. ) ;
#103 = CARTESIAN_POINT ( 'NONE',  ( 2.911464146725942389E-16, 0.6250000000000000000, 0.000000000000000000 ) ) ;
#104 =( NAMED_UNIT ( * ) SI_UNIT ( $, .STERADIAN. ) SOLID_ANGLE_UNIT ( ) );
#105 = DIRECTION ( 'NONE',  ( 0.000000000000000000, 0.000000000000000000, -1.000000000000000000 ) ) ;
#106 =( GEOMETRIC_REPRESENTATION_CONTEXT ( 3 ) GLOBAL_UNCERTAINTY_ASSIGNED_CONTEXT ( ( #108 ) ) GLOBAL_UNIT_ASSIGNED_CONTEXT ( ( #146, #355, #74 ) ) REPRESENTATION_CONTEXT ( 'NONE', 'WORKASPACE' ) );
#107 = CARTESIAN_POINT ( 'NONE',  ( 0.000000000000000000, 0.000000000000000000, 0.000000000000000000 ) ) ;
#108 = UNCERTAINTY_MEASURE_WITH_UNIT (LENGTH_MEASURE( 1.000000000000000082E-05 ), #146, 'distance_accuracy_value', 'NONE');
#109 = AXIS2_PLACEMENT_3D ( 'NONE', #182, #118, #39 ) ;
#110 = ORIENTED_EDGE ( 'NONE', *, *, #93, .T. ) ;
#111 = DIRECTION ( 'NONE',  ( -0.000000000000000000, -1.000000000000000000, -0.000000000000000000 ) ) ;
#112 = EDGE_LOOP ( 'NONE', ( #68, #205, #175, #117, #95 ) ) ;
#113 =( NAMED_UNIT ( * ) SI_UNIT ( $, .STERADIAN. ) SOLID_ANGLE_UNIT ( ) );
#114 = EDGE_LOOP ( 'NONE', ( #311, #3, #60, #92, #63 ) ) ;
#115 = LENGTH_MEASURE_WITH_UNIT ( LENGTH_MEASURE( 0.02539999999999999897 ), #203 );
#116 =( GEOMETRIC_REPRESENTATION_CONTEXT ( 3 ) GLOBAL_UNCERTAINTY_ASSIGNED_CONTEXT ( ( #130 ) ) GLOBAL_UNIT_ASSIGNED_CONTEXT ( ( #184, #44, #335 ) ) REPRESENTATION_CONTEXT ( 'NONE', 'WORKASPACE' ) );
#117 = ORIENTED_EDGE ( 'NONE', *, *, #207, .F. ) ;
#118 = DIRECTION ( 'NONE',  ( -0.000000000000000000, -1.000000000000000000, -0.000000000000000000 ) ) ;
#119 = ADVANCED_FACE ( 'NONE', ( #71 ), #240, .T. ) ;
#120 = VERTEX_POINT ( 'NONE', #78 ) ;
#121 = PRESENTATION_STYLE_ASSIGNMENT (( #127 ) ) ;
#122 = SURFACE_SIDE_STYLE ('',( #125 ) ) ;
#123 = STYLED_ITEM ( 'NONE', ( #245 ), #284 ) ;
#124 = EDGE_CURVE ( 'NONE', #234, #348, #187, .T. ) ;
#125 = SURFACE_STYLE_FILL_AREA ( #362 ) ;
#126 =( NAMED_UNIT ( * ) SI_UNIT ( $, .STERADIAN. ) SOLID_ANGLE_UNIT ( ) );
#127 = SURFACE_STYLE_USAGE ( .BOTH. , #122 ) ;
#128 = PRESENTATION_LAYER_ASSIGNMENT (  '', '', ( #86 ) ) ;
#129 = DIRECTION ( 'NONE',  ( -1.226208398481208123E-16, 1.000000000000000000, -0.000000000000000000 ) ) ;
#130 = UNCERTAINTY_MEASURE_WITH_UNIT (LENGTH_MEASURE( 1.000000000000000082E-05 ), #184, 'distance_accuracy_value', 'NONE');
#131 = SURFACE_STYLE_USAGE ( .BOTH. , #308 ) ;
#132 = CARTESIAN_POINT ( 'NONE',  ( -3.061616997868383018E-17, 0.2500000000000000000, 0.000000000000000000 ) ) ;
#133 = SPHERICAL_SURFACE ( 'NONE', #91, 0.2500000000000000555 ) ;
#134 = CARTESIAN_POINT ( 'NONE',  ( 3.061616997868383018E-17, 0.000000000000000000, 0.2500000000000000000 ) ) ;
#135 = COLOUR_RGB ( '',0.7921568627450980005, 0.8196078431372548767, 0.9333333333333333481 ) ;
#136 = VERTEX_POINT ( 'NONE', #58 ) ;
#137 = FILL_AREA_STYLE ('',( #222 ) ) ;
#138 = ORIENTED_EDGE ( 'NONE', *, *, #8, .F. ) ;
#139 = LENGTH_MEASURE_WITH_UNIT ( LENGTH_MEASURE( 0.02539999999999999897 ), #225 );
#140 = CIRCLE ( 'NONE', #323, 0.2499999999999996114 ) ;
#141 = EDGE_LOOP ( 'NONE', ( #346, #26, #354, #208 ) ) ;
#142 = PRESENTATION_STYLE_ASSIGNMENT (( #190 ) ) ;
#143 = VERTEX_POINT ( 'NONE', #246 ) ;
#144 = DIMENSIONAL_EXPONENTS ( 1.000000000000000000, 0.000000000000000000, 0.000000000000000000, 0.000000000000000000, 0.000000000000000000, 0.000000000000000000, 0.000000000000000000 ) ;
#145 = SURFACE_STYLE_FILL_AREA ( #34 ) ;
#146 =( CONVERSION_BASED_UNIT ( 'INCH', #41 ) LENGTH_UNIT ( ) NAMED_UNIT ( #321 ) );
#147 = VECTOR ( 'NONE', #16, 39.37007874015748143 ) ;
#148 = VERTEX_POINT ( 'NONE', #200 ) ;
#149 = UNCERTAINTY_MEASURE_WITH_UNIT (LENGTH_MEASURE( 1.000000000000000082E-05 ), #230, 'distance_accuracy_value', 'NONE');
#150 = SURFACE_STYLE_FILL_AREA ( #288 ) ;
#151 = CARTESIAN_POINT ( 'NONE',  ( 0.000000000000000000, 0.2500000000000000555, 0.000000000000000000 ) ) ;
#152 = CIRCLE ( 'NONE', #314, 0.2500000000000000555 ) ;
#153 = DIRECTION ( 'NONE',  ( 0.000000000000000000, -0.000000000000000000, 1.000000000000000000 ) ) ;
#154 =( NAMED_UNIT ( * ) PLANE_ANGLE_UNIT ( ) SI_UNIT ( $, .RADIAN. ) );
#155 = CARTESIAN_POINT ( 'NONE',  ( 0.000000000000000000, 0.6250000000000000000, 0.000000000000000000 ) ) ;
#156 = FACE_OUTER_BOUND ( 'NONE', #268, .T. ) ;
#157 =( NAMED_UNIT ( * ) PLANE_ANGLE_UNIT ( ) SI_UNIT ( $, .RADIAN. ) );
#158 = AXIS2_PLACEMENT_3D ( 'NONE', #155, #209, #211 ) ;
#159 = CARTESIAN_POINT ( 'NONE',  ( 2.911464146725942389E-16, 0.6250000000000000000, 0.000000000000000000 ) ) ;
#160 = EDGE_CURVE ( 'NONE', #223, #320, #197, .T. ) ;
#161 = DIRECTION ( 'NONE',  ( -0.000000000000000000, -1.000000000000000000, -0.000000000000000000 ) ) ;
#162 = AXIS2_PLACEMENT_3D ( 'NONE', #328, #269, #325 ) ;
#163 = CARTESIAN_POINT ( 'NONE',  ( 0.2499999999999999167, 2.500000000000000000, 3.061616997868380553E-17 ) ) ;
#164 = EDGE_LOOP ( 'NONE', ( #138, #356, #206, #28 ) ) ;
#165 = DIRECTION ( 'NONE',  ( -1.226208398481208123E-16, 1.000000000000000000, -0.000000000000000000 ) ) ;
#166 = VERTEX_POINT ( 'NONE', #163 ) ;
#167 = DIMENSIONAL_EXPONENTS ( 1.000000000000000000, 0.000000000000000000, 0.000000000000000000, 0.000000000000000000, 0.000000000000000000, 0.000000000000000000, 0.000000000000000000 ) ;
#168 = DIRECTION ( 'NONE',  ( 1.224646799147353207E-16, -0.000000000000000000, 1.000000000000000000 ) ) ;
#169 = FACE_OUTER_BOUND ( 'NONE', #164, .T. ) ;
#170 = DIRECTION ( 'NONE',  ( 0.000000000000000000, 0.000000000000000000, -1.000000000000000000 ) ) ;
#171 = CIRCLE ( 'NONE', #258, 0.2500000000000000555 ) ;
#172 = CIRCLE ( 'NONE', #370, 0.2500000000000000555 ) ;
#173 = ORIENTED_EDGE ( 'NONE', *, *, #124, .F. ) ;
#174 = PRODUCT_DEFINITION_SHAPE ( 'NONE', 'NONE',  #305 ) ;
#175 = ORIENTED_EDGE ( 'NONE', *, *, #102, .T. ) ;
#176 = DIRECTION ( 'NONE',  ( -1.000000000000000000, 0.000000000000000000, 0.000000000000000000 ) ) ;
#177 = ORIENTED_EDGE ( 'NONE', *, *, #8, .T. ) ;
#178 = DIMENSIONAL_EXPONENTS ( 1.000000000000000000, 0.000000000000000000, 0.000000000000000000, 0.000000000000000000, 0.000000000000000000, 0.000000000000000000, 0.000000000000000000 ) ;
#179 = MECHANICAL_DESIGN_GEOMETRIC_PRESENTATION_REPRESENTATION (  '', ( #302 ), #331 ) ;
#180 = EDGE_LOOP ( 'NONE', ( #322, #199, #263, #9 ) ) ;
#181 = UNCERTAINTY_MEASURE_WITH_UNIT (LENGTH_MEASURE( 1.000000000000000082E-05 ), #15, 'distance_accuracy_value', 'NONE');
#182 = CARTESIAN_POINT ( 'NONE',  ( 0.000000000000000000, 0.2500000000000000555, 0.000000000000000000 ) ) ;
#183 =( LENGTH_UNIT ( ) NAMED_UNIT ( * ) SI_UNIT ( $, .METRE. ) );
#184 =( CONVERSION_BASED_UNIT ( 'INCH', #292 ) LENGTH_UNIT ( ) NAMED_UNIT ( #310 ) );
#185 = PRODUCT_DEFINITION_FORMATION_WITH_SPECIFIED_SOURCE ( 'ANY', '', #201, .NOT_KNOWN. ) ;
#186 = ADVANCED_FACE ( 'NONE', ( #55 ), #59, .T. ) ;
#187 = LINE ( 'NONE', #298, #237 ) ;
#188 = DIRECTION ( 'NONE',  ( 0.000000000000000000, 0.000000000000000000, 1.000000000000000000 ) ) ;
#189 = CYLINDRICAL_SURFACE ( 'NONE', #51, 0.2500000000000000000 ) ;
#190 = SURFACE_STYLE_USAGE ( .BOTH. , #85 ) ;
#191 =( LENGTH_UNIT ( ) NAMED_UNIT ( * ) SI_UNIT ( $, .METRE. ) );
#192 = DIRECTION ( 'NONE',  ( 0.000000000000000000, 0.000000000000000000, -1.000000000000000000 ) ) ;
#193 = COLOUR_RGB ( '',1.000000000000000000, 0.000000000000000000, 0.000000000000000000 ) ;
#194 = CARTESIAN_POINT ( 'NONE',  ( -0.2499999999999993061, 0.6250000000000000000, 0.000000000000000000 ) ) ;
#195 = DIRECTION ( 'NONE',  ( 0.000000000000000000, 0.000000000000000000, 1.000000000000000000 ) ) ;
#196 = CLOSED_SHELL ( 'NONE', ( #284, #119, #35, #220, #186 ) ) ;
#197 = CIRCLE ( 'NONE', #1, 0.2500000000000000555 ) ;
#198 =( GEOMETRIC_REPRESENTATION_CONTEXT ( 3 ) GLOBAL_UNCERTAINTY_ASSIGNED_CONTEXT ( ( #40 ) ) GLOBAL_UNIT_ASSIGNED_CONTEXT ( ( #363, #154, #126 ) ) REPRESENTATION_CONTEXT ( 'NONE', 'WORKASPACE' ) );
#199 = ORIENTED_EDGE ( 'NONE', *, *, #160, .T. ) ;
#200 = CARTESIAN_POINT ( 'NONE',  ( 3.061616997868383634E-17, 0.2500000000000000555, 0.2500000000000000555 ) ) ;
#201 = PRODUCT ( '81931', '81931', '', ( #248 ) ) ;
#202 = CARTESIAN_POINT ( 'NONE',  ( 0.2500000000000000000, 0.2500000000000000555, 0.000000000000000000 ) ) ;
#203 =( LENGTH_UNIT ( ) NAMED_UNIT ( * ) SI_UNIT ( $, .METRE. ) );
#204 = MECHANICAL_DESIGN_GEOMETRIC_PRESENTATION_REPRESENTATION (  '', ( #20 ), #106 ) ;
#205 = ORIENTED_EDGE ( 'NONE', *, *, #67, .T. ) ;
#206 = ORIENTED_EDGE ( 'NONE', *, *, #124, .T. ) ;
#207 = EDGE_CURVE ( 'NONE', #223, #143, #171, .T. ) ;
#208 = ORIENTED_EDGE ( 'NONE', *, *, #233, .T. ) ;
#209 = DIRECTION ( 'NONE',  ( -0.000000000000000000, -1.000000000000000000, -0.000000000000000000 ) ) ;
#210 = FILL_AREA_STYLE_COLOUR ( '', #135 ) ;
#211 = DIRECTION ( 'NONE',  ( 0.000000000000000000, 0.000000000000000000, -1.000000000000000000 ) ) ;
#212 = APPLICATION_PROTOCOL_DEFINITION ( 'draft international standard', 'automotive_design', 1998, #52 ) ;
#213 = DIRECTION ( 'NONE',  ( -0.000000000000000000, -1.000000000000000000, -0.000000000000000000 ) ) ;
#214 = DIRECTION ( 'NONE',  ( -1.226208398481208123E-16, 1.000000000000000000, -0.000000000000000000 ) ) ;
#215 = MANIFOLD_SOLID_BREP ( 'Revolve - Cutting Edge', #196 ) ;
#216 = CARTESIAN_POINT ( 'NONE',  ( -0.2500000000000000555, 0.2500000000000000555, 3.061616997868383018E-17 ) ) ;
#217 = DIRECTION ( 'NONE',  ( 0.000000000000000000, 0.000000000000000000, -1.000000000000000000 ) ) ;
#218 = MECHANICAL_DESIGN_GEOMETRIC_PRESENTATION_REPRESENTATION (  '', ( #123 ), #219 ) ;
#219 =( GEOMETRIC_REPRESENTATION_CONTEXT ( 3 ) GLOBAL_UNCERTAINTY_ASSIGNED_CONTEXT ( ( #181 ) ) GLOBAL_UNIT_ASSIGNED_CONTEXT ( ( #15, #334, #221 ) ) REPRESENTATION_CONTEXT ( 'NONE', 'WORKASPACE' ) );
#220 = ADVANCED_FACE ( 'NONE', ( #349 ), #189, .T. ) ;
#221 =( NAMED_UNIT ( * ) SI_UNIT ( $, .STERADIAN. ) SOLID_ANGLE_UNIT ( ) );
#222 = FILL_AREA_STYLE_COLOUR ( '', #76 ) ;
#223 = VERTEX_POINT ( 'NONE', #216 ) ;
#224 = MECHANICAL_DESIGN_GEOMETRIC_PRESENTATION_REPRESENTATION (  '', ( #345 ), #62 ) ;
#225 =( LENGTH_UNIT ( ) NAMED_UNIT ( * ) SI_UNIT ( $, .METRE. ) );
#226 = LINE ( 'NONE', #287, #36 ) ;
#227 = VERTEX_POINT ( 'NONE', #49 ) ;
#228 = ORIENTED_EDGE ( 'NONE', *, *, #260, .F. ) ;
#229 = COLOUR_RGB ( '',1.000000000000000000, 0.000000000000000000, 0.000000000000000000 ) ;
#230 =( CONVERSION_BASED_UNIT ( 'INCH', #115 ) LENGTH_UNIT ( ) NAMED_UNIT ( #178 ) );
#231 = CIRCLE ( 'NONE', #109, 0.2500000000000000555 ) ;
#232 = EDGE_LOOP ( 'NONE', ( #70, #177, #6, #173 ) ) ;
#233 = EDGE_CURVE ( 'NONE', #2, #320, #152, .T. ) ;
#234 = VERTEX_POINT ( 'NONE', #194 ) ;
#235 = DIRECTION ( 'NONE',  ( -1.000000000000000000, 0.000000000000000000, 0.000000000000000000 ) ) ;
#236 = SURFACE_SIDE_STYLE ('',( #150 ) ) ;
#237 = VECTOR ( 'NONE', #165, 39.37007874015748143 ) ;
#238 = CIRCLE ( 'NONE', #29, 0.2499999999999996114 ) ;
#239 = CARTESIAN_POINT ( 'NONE',  ( 0.000000000000000000, 0.6250000000000000000, 0.000000000000000000 ) ) ;
#240 = CYLINDRICAL_SURFACE ( 'NONE', #267, 0.2500000000000000000 ) ;
#241 = DIRECTION ( 'NONE',  ( -1.000000000000000000, 0.000000000000000000, 0.000000000000000000 ) ) ;
#242 = PRODUCT_RELATED_PRODUCT_CATEGORY ( 'part', '', ( #201 ) ) ;
#243 = COLOUR_RGB ( '',1.000000000000000000, 0.000000000000000000, 0.000000000000000000 ) ;
#244 = AXIS2_PLACEMENT_3D ( 'NONE', #25, #347, #373 ) ;
#245 = PRESENTATION_STYLE_ASSIGNMENT (( #337 ) ) ;
#246 = CARTESIAN_POINT ( 'NONE',  ( 0.000000000000000000, 0.2500000000000000555, -0.2500000000000000555 ) ) ;
#247 = DIRECTION ( 'NONE',  ( -0.000000000000000000, -1.000000000000000000, -0.000000000000000000 ) ) ;
#248 = PRODUCT_CONTEXT ( 'NONE', #52, 'mechanical' ) ;
#249 = CARTESIAN_POINT ( 'NONE',  ( -3.061616997868383018E-17, 0.2500000000000000000, 0.000000000000000000 ) ) ;
#250 = CIRCLE ( 'NONE', #162, 0.2499999999999998612 ) ;
#251 = CIRCLE ( 'NONE', #77, 0.2499999999999999167 ) ;
#252 = PLANE ( 'NONE',  #358 ) ;
#253 = AXIS2_PLACEMENT_3D ( 'NONE', #79, #188, #48 ) ;
#254 = DIMENSIONAL_EXPONENTS ( 1.000000000000000000, 0.000000000000000000, 0.000000000000000000, 0.000000000000000000, 0.000000000000000000, 0.000000000000000000, 0.000000000000000000 ) ;
#255 = SURFACE_STYLE_FILL_AREA ( #137 ) ;
#256 = ORIENTED_EDGE ( 'NONE', *, *, #372, .F. ) ;
#257 = CARTESIAN_POINT ( 'NONE',  ( 0.000000000000000000, 0.6250000000000000000, 0.000000000000000000 ) ) ;
#258 = AXIS2_PLACEMENT_3D ( 'NONE', #352, #111, #170 ) ;
#259 =( CONVERSION_BASED_UNIT ( 'INCH', #312 ) LENGTH_UNIT ( ) NAMED_UNIT ( #167 ) );
#260 = EDGE_CURVE ( 'NONE', #227, #234, #140, .T. ) ;
#261 = ORIENTED_EDGE ( 'NONE', *, *, #67, .F. ) ;
#262 = CARTESIAN_POINT ( 'NONE',  ( -3.061616997868383018E-17, 0.2500000000000000000, 0.000000000000000000 ) ) ;
#263 = ORIENTED_EDGE ( 'NONE', *, *, #233, .F. ) ;
#264 = ADVANCED_FACE ( 'NONE', ( #156 ), #252, .F. ) ;
#265 = SURFACE_SIDE_STYLE ('',( #145 ) ) ;
#266 = CLOSED_SHELL ( 'NONE', ( #43, #264, #23, #272 ) ) ;
#267 = AXIS2_PLACEMENT_3D ( 'NONE', #99, #213, #333 ) ;
#268 = EDGE_LOOP ( 'NONE', ( #256, #228 ) ) ;
#269 = DIRECTION ( 'NONE',  ( -1.226208398481208123E-16, 1.000000000000000000, -0.000000000000000000 ) ) ;
#270 = CIRCLE ( 'NONE', #294, 0.2499999999999998612 ) ;
#271 = DIRECTION ( 'NONE',  ( 0.000000000000000000, 0.000000000000000000, -1.000000000000000000 ) ) ;
#272 = ADVANCED_FACE ( 'NONE', ( #21 ), #101, .F. ) ;
#273 = DIRECTION ( 'NONE',  ( 1.226208398481208123E-16, -1.000000000000000000, 0.000000000000000000 ) ) ;
#274 =( NAMED_UNIT ( * ) SI_UNIT ( $, .STERADIAN. ) SOLID_ANGLE_UNIT ( ) );
#275 = AXIS2_PLACEMENT_3D ( 'NONE', #53, #161, #192 ) ;
#276 =( LENGTH_UNIT ( ) NAMED_UNIT ( * ) SI_UNIT ( $, .METRE. ) );
#277 = LINE ( 'NONE', #134, #339 ) ;
#278 = DIRECTION ( 'NONE',  ( -0.000000000000000000, -1.000000000000000000, -0.000000000000000000 ) ) ;
#279 = PRESENTATION_STYLE_ASSIGNMENT (( #131 ) ) ;
#280 = FILL_AREA_STYLE_COLOUR ( '', #229 ) ;
#281 = CARTESIAN_POINT ( 'NONE',  ( 6.123233995736772199E-17, 2.500000000000000000, 0.000000000000000000 ) ) ;
#282 = COLOUR_RGB ( '',0.7921568627450980005, 0.8196078431372548767, 0.9333333333333333481 ) ;
#283 = DIRECTION ( 'NONE',  ( -1.226208398481208123E-16, 1.000000000000000000, -0.000000000000000000 ) ) ;
#284 = ADVANCED_FACE ( 'NONE', ( #50 ), #133, .T. ) ;
#285 = FILL_AREA_STYLE_COLOUR ( '', #243 ) ;
#286 = SURFACE_STYLE_USAGE ( .BOTH. , #236 ) ;
#287 = CARTESIAN_POINT ( 'NONE',  ( 0.2499999999999998057, 2.500000000000000000, 3.061616997868379320E-17 ) ) ;
#288 = FILL_AREA_STYLE ('',( #210 ) ) ;
#289 = AXIS2_PLACEMENT_3D ( 'NONE', #281, #283, #317 ) ;
#290 = DIRECTION ( 'NONE',  ( -1.226208398481208123E-16, 1.000000000000000000, -0.000000000000000000 ) ) ;
#291 = DIRECTION ( 'NONE',  ( -1.226208398481208123E-16, 1.000000000000000000, -0.000000000000000000 ) ) ;
#292 = LENGTH_MEASURE_WITH_UNIT ( LENGTH_MEASURE( 0.02539999999999999897 ), #183 );
#293 =( GEOMETRIC_REPRESENTATION_CONTEXT ( 3 ) GLOBAL_UNCERTAINTY_ASSIGNED_CONTEXT ( ( #324 ) ) GLOBAL_UNIT_ASSIGNED_CONTEXT ( ( #259, #84, #113 ) ) REPRESENTATION_CONTEXT ( 'NONE', 'WORKASPACE' ) );
#294 = AXIS2_PLACEMENT_3D ( 'NONE', #69, #291, #176 ) ;
#295 = CARTESIAN_POINT ( 'NONE',  ( 0.000000000000000000, 0.000000000000000000, -0.2500000000000000000 ) ) ;
#296 = CARTESIAN_POINT ( 'NONE',  ( 0.2499999999999999167, 2.500000000000000000, 0.000000000000000000 ) ) ;
#297 = EDGE_CURVE ( 'NONE', #2, #148, #307, .T. ) ;
#298 = CARTESIAN_POINT ( 'NONE',  ( -0.2499999999999996669, 2.500000000000000000, 0.000000000000000000 ) ) ;
#299 = LENGTH_MEASURE_WITH_UNIT ( LENGTH_MEASURE( 0.02539999999999999897 ), #191 );
#300 = DIRECTION ( 'NONE',  ( -1.000000000000000000, -1.226208398481208123E-16, 0.000000000000000000 ) ) ;
#301 = UNCERTAINTY_MEASURE_WITH_UNIT (LENGTH_MEASURE( 1.000000000000000082E-05 ), #309, 'distance_accuracy_value', 'NONE');
#302 = STYLED_ITEM ( 'NONE', ( #5 ), #220 ) ;
#303 = CARTESIAN_POINT ( 'NONE',  ( 2.911464146725942389E-16, 0.6250000000000000000, 0.000000000000000000 ) ) ;
#304 = DIRECTION ( 'NONE',  ( 1.000000000000000000, 0.000000000000000000, 0.000000000000000000 ) ) ;
#305 = PRODUCT_DEFINITION ( 'UNKNOWN', '', #185, #54 ) ;
#306 = PRESENTATION_LAYER_ASSIGNMENT (  '', '', ( #7 ) ) ;
#307 = CIRCLE ( 'NONE', #275, 0.2500000000000000555 ) ;
#308 = SURFACE_SIDE_STYLE ('',( #255 ) ) ;
#309 =( CONVERSION_BASED_UNIT ( 'INCH', #139 ) LENGTH_UNIT ( ) NAMED_UNIT ( #144 ) );
#310 = DIMENSIONAL_EXPONENTS ( 1.000000000000000000, 0.000000000000000000, 0.000000000000000000, 0.000000000000000000, 0.000000000000000000, 0.000000000000000000, 0.000000000000000000 ) ;
#311 = ORIENTED_EDGE ( 'NONE', *, *, #327, .T. ) ;
#312 = LENGTH_MEASURE_WITH_UNIT ( LENGTH_MEASURE( 0.02539999999999999897 ), #24 );
#313 = EDGE_LOOP ( 'NONE', ( #4, #261 ) ) ;
#314 = AXIS2_PLACEMENT_3D ( 'NONE', #132, #105, #241 ) ;
#315 = FILL_AREA_STYLE ('',( #280 ) ) ;
#316 = ADVANCED_BREP_SHAPE_REPRESENTATION ( '81931', ( #215, #344, #253 ), #198 ) ;
#317 = DIRECTION ( 'NONE',  ( -1.000000000000000000, 0.000000000000000000, 0.000000000000000000 ) ) ;
#318 = DIRECTION ( 'NONE',  ( -0.000000000000000000, -1.000000000000000000, -0.000000000000000000 ) ) ;
#319 = EDGE_CURVE ( 'NONE', #120, #148, #277, .T. ) ;
#320 = VERTEX_POINT ( 'NONE', #31 ) ;
#321 = DIMENSIONAL_EXPONENTS ( 1.000000000000000000, 0.000000000000000000, 0.000000000000000000, 0.000000000000000000, 0.000000000000000000, 0.000000000000000000, 0.000000000000000000 ) ;
#322 = ORIENTED_EDGE ( 'NONE', *, *, #342, .T. ) ;
#323 = AXIS2_PLACEMENT_3D ( 'NONE', #303, #129, #340 ) ;
#324 = UNCERTAINTY_MEASURE_WITH_UNIT (LENGTH_MEASURE( 1.000000000000000082E-05 ), #259, 'distance_accuracy_value', 'NONE');
#325 = DIRECTION ( 'NONE',  ( -1.000000000000000000, 0.000000000000000000, 0.000000000000000000 ) ) ;
#326 =( LENGTH_UNIT ( ) NAMED_UNIT ( * ) SI_UNIT ( $, .METRE. ) );
#327 = EDGE_CURVE ( 'NONE', #136, #120, #251, .T. ) ;
#328 = CARTESIAN_POINT ( 'NONE',  ( 6.123233995736772199E-17, 2.500000000000000000, 0.000000000000000000 ) ) ;
#329 =( LENGTH_UNIT ( ) NAMED_UNIT ( * ) SI_UNIT ( $, .METRE. ) );
#330 = EDGE_CURVE ( 'NONE', #166, #348, #270, .T. ) ;
#331 =( GEOMETRIC_REPRESENTATION_CONTEXT ( 3 ) GLOBAL_UNCERTAINTY_ASSIGNED_CONTEXT ( ( #149 ) ) GLOBAL_UNIT_ASSIGNED_CONTEXT ( ( #230, #367, #104 ) ) REPRESENTATION_CONTEXT ( 'NONE', 'WORKASPACE' ) );
#332 = DIMENSIONAL_EXPONENTS ( 1.000000000000000000, 0.000000000000000000, 0.000000000000000000, 0.000000000000000000, 0.000000000000000000, 0.000000000000000000, 0.000000000000000000 ) ;
#333 = DIRECTION ( 'NONE',  ( 0.000000000000000000, 0.000000000000000000, -1.000000000000000000 ) ) ;
#334 =( NAMED_UNIT ( * ) PLANE_ANGLE_UNIT ( ) SI_UNIT ( $, .RADIAN. ) );
#335 =( NAMED_UNIT ( * ) SI_UNIT ( $, .STERADIAN. ) SOLID_ANGLE_UNIT ( ) );
#336 = DIRECTION ( 'NONE',  ( 1.000000000000000000, 1.226208398481208123E-16, 0.000000000000000000 ) ) ;
#337 = SURFACE_STYLE_USAGE ( .BOTH. , #80 ) ;
#338 = PRESENTATION_LAYER_ASSIGNMENT (  '', '', ( #123 ) ) ;
#339 = VECTOR ( 'NONE', #278, 39.37007874015748143 ) ;
#340 = DIRECTION ( 'NONE',  ( -1.000000000000000000, 0.000000000000000000, 0.000000000000000000 ) ) ;
#341 = FILL_AREA_STYLE_COLOUR ( '', #83 ) ;
#342 = EDGE_CURVE ( 'NONE', #148, #223, #231, .T. ) ;
#343 = SURFACE_STYLE_FILL_AREA ( #61 ) ;
#344 = MANIFOLD_SOLID_BREP ( 'Revolve - Tool Body (Straight Shanked)', #266 ) ;
#345 = STYLED_ITEM ( 'NONE', ( #360 ), #35 ) ;
#346 = ORIENTED_EDGE ( 'NONE', *, *, #160, .F. ) ;
#347 = DIRECTION ( 'NONE',  ( 0.000000000000000000, 0.000000000000000000, 1.000000000000000000 ) ) ;
#348 = VERTEX_POINT ( 'NONE', #82 ) ;
#349 = FACE_OUTER_BOUND ( 'NONE', #112, .T. ) ;
#350 = DIMENSIONAL_EXPONENTS ( 1.000000000000000000, 0.000000000000000000, 0.000000000000000000, 0.000000000000000000, 0.000000000000000000, 0.000000000000000000, 0.000000000000000000 ) ;
#351 = EDGE_LOOP ( 'NONE', ( #110, #89 ) ) ;
#352 = CARTESIAN_POINT ( 'NONE',  ( 0.000000000000000000, 0.2500000000000000555, 0.000000000000000000 ) ) ;
#353 = MECHANICAL_DESIGN_GEOMETRIC_PRESENTATION_REPRESENTATION (  '', ( #19 ), #12 ) ;
#354 = ORIENTED_EDGE ( 'NONE', *, *, #359, .T. ) ;
#355 =( NAMED_UNIT ( * ) PLANE_ANGLE_UNIT ( ) SI_UNIT ( $, .RADIAN. ) );
#356 = ORIENTED_EDGE ( 'NONE', *, *, #260, .T. ) ;
#357 = PRESENTATION_STYLE_ASSIGNMENT (( #286 ) ) ;
#358 = AXIS2_PLACEMENT_3D ( 'NONE', #159, #364, #300 ) ;
#359 = EDGE_CURVE ( 'NONE', #143, #2, #172, .T. ) ;
#360 = PRESENTATION_STYLE_ASSIGNMENT (( #37 ) ) ;
#361 = SHAPE_DEFINITION_REPRESENTATION ( #174, #316 ) ;
#362 = FILL_AREA_STYLE ('',( #10 ) ) ;
#363 =( CONVERSION_BASED_UNIT ( 'INCH', #299 ) LENGTH_UNIT ( ) NAMED_UNIT ( #350 ) );
#364 = DIRECTION ( 'NONE',  ( -1.226208398481208123E-16, 1.000000000000000000, 0.000000000000000000 ) ) ;
#365 = CARTESIAN_POINT ( 'NONE',  ( 6.123233995736772199E-17, 2.500000000000000000, 0.000000000000000000 ) ) ;
#366 = LENGTH_MEASURE_WITH_UNIT ( LENGTH_MEASURE( 0.02539999999999999897 ), #276 );
#367 =( NAMED_UNIT ( * ) PLANE_ANGLE_UNIT ( ) SI_UNIT ( $, .RADIAN. ) );
#368 = CIRCLE ( 'NONE', #158, 0.2499999999999999167 ) ;
#369 = PRESENTATION_LAYER_ASSIGNMENT (  '', '', ( #19 ) ) ;
#370 = AXIS2_PLACEMENT_3D ( 'NONE', #151, #14, #217 ) ;
#371 = DIRECTION ( 'NONE',  ( 1.000000000000000000, 0.000000000000000000, -1.224646799147353207E-16 ) ) ;
#372 = EDGE_CURVE ( 'NONE', #234, #227, #238, .T. ) ;
#373 = DIRECTION ( 'NONE',  ( 1.000000000000000000, 0.000000000000000000, 0.000000000000000000 ) ) ;
ENDSEC;
END-ISO-10303-21;
