ISO-10303-21;
HEADER;
FILE_DESCRIPTION (( 'STEP AP214' ),
    '1' );
FILE_NAME ('82593.STEP',
    '2023-06-30T22:47:55',
    ( '' ),
    ( '' ),
    'SwSTEP 2.0',
    'SolidWorks 2023',
    '' );
FILE_SCHEMA (( 'AUTOMOTIVE_DESIGN' ));
ENDSEC;

DATA;
#1 = FILL_AREA_STYLE_COLOUR ( '', #210 ) ;
#2 = STYLED_ITEM ( 'NONE', ( #148 ), #117 ) ;
#3 = EDGE_CURVE ( 'NONE', #296, #133, #147, .T. ) ;
#4 = ORIENTED_EDGE ( 'NONE', *, *, #300, .T. ) ;
#5 = SURFACE_STYLE_FILL_AREA ( #167 ) ;
#6 = DIMENSIONAL_EXPONENTS ( 1.000000000000000000, 0.000000000000000000, 0.000000000000000000, 0.000000000000000000, 0.000000000000000000, 0.000000000000000000, 0.000000000000000000 ) ;
#7 =( LENGTH_UNIT ( ) NAMED_UNIT ( * ) SI_UNIT ( $, .METRE. ) );
#8 = COLOUR_RGB ( '',0.7921568627450980005, 0.8196078431372548767, 0.9333333333333333481 ) ;
#9 = AXIS2_PLACEMENT_3D ( 'NONE', #357, #331, #69 ) ;
#10 = DIRECTION ( 'NONE',  ( -1.234089720914265831E-16, 1.000000000000000000, -0.000000000000000000 ) ) ;
#11 = SPHERICAL_SURFACE ( 'NONE', #270, 0.2500000000000000000 ) ;
#12 = VECTOR ( 'NONE', #302, 39.37007874015748143 ) ;
#13 = ORIENTED_EDGE ( 'NONE', *, *, #170, .T. ) ;
#14 =( CONVERSION_BASED_UNIT ( 'INCH', #365 ) LENGTH_UNIT ( ) NAMED_UNIT ( #214 ) );
#15 = ADVANCED_FACE ( 'NONE', ( #224 ), #48, .F. ) ;
#16 = DIRECTION ( 'NONE',  ( -1.000000000000000000, 0.000000000000000000, 0.000000000000000000 ) ) ;
#17 = CARTESIAN_POINT ( 'NONE',  ( 0.2499999999999996947, 5.000000000000000000, 3.061616997868382402E-17 ) ) ;
#18 = ADVANCED_BREP_SHAPE_REPRESENTATION ( '82593', ( #236, #117, #9 ), #111 ) ;
#19 =( GEOMETRIC_REPRESENTATION_CONTEXT ( 3 ) GLOBAL_UNCERTAINTY_ASSIGNED_CONTEXT ( ( #46 ) ) GLOBAL_UNIT_ASSIGNED_CONTEXT ( ( #351, #266, #166 ) ) REPRESENTATION_CONTEXT ( 'NONE', 'WORKASPACE' ) );
#20 = EDGE_LOOP ( 'NONE', ( #321, #29, #237, #244 ) ) ;
#21 = CARTESIAN_POINT ( 'NONE',  ( -3.061616997868383141E-16, 5.000000000000000000, 0.000000000000000000 ) ) ;
#22 = VERTEX_POINT ( 'NONE', #89 ) ;
#23 = CARTESIAN_POINT ( 'NONE',  ( 0.000000000000000000, 0.2500000000000000000, 0.000000000000000000 ) ) ;
#24 = DIRECTION ( 'NONE',  ( 0.000000000000000000, 0.000000000000000000, -1.000000000000000000 ) ) ;
#25 =( NAMED_UNIT ( * ) PLANE_ANGLE_UNIT ( ) SI_UNIT ( $, .RADIAN. ) );
#26 = MECHANICAL_DESIGN_GEOMETRIC_PRESENTATION_REPRESENTATION (  '', ( #2 ), #52 ) ;
#27 = AXIS2_PLACEMENT_3D ( 'NONE', #146, #182, #268 ) ;
#28 =( LENGTH_UNIT ( ) NAMED_UNIT ( * ) SI_UNIT ( $, .METRE. ) );
#29 = ORIENTED_EDGE ( 'NONE', *, *, #267, .T. ) ;
#30 = CARTESIAN_POINT ( 'NONE',  ( 0.2499999999999996947, 5.000000000000000000, 0.000000000000000000 ) ) ;
#31 = EDGE_LOOP ( 'NONE', ( #108, #196, #161, #319, #294 ) ) ;
#32 = DIMENSIONAL_EXPONENTS ( 1.000000000000000000, 0.000000000000000000, 0.000000000000000000, 0.000000000000000000, 0.000000000000000000, 0.000000000000000000, 0.000000000000000000 ) ;
#33 = SURFACE_STYLE_USAGE ( .BOTH. , #253 ) ;
#34 = PRESENTATION_STYLE_ASSIGNMENT (( #313 ) ) ;
#35 = CIRCLE ( 'NONE', #81, 0.2500000000000000000 ) ;
#36 = PRESENTATION_STYLE_ASSIGNMENT (( #265 ) ) ;
#37 = CIRCLE ( 'NONE', #202, 0.2499999999999996947 ) ;
#38 = DIRECTION ( 'NONE',  ( -0.000000000000000000, -1.000000000000000000, -0.000000000000000000 ) ) ;
#39 =( CONVERSION_BASED_UNIT ( 'INCH', #206 ) LENGTH_UNIT ( ) NAMED_UNIT ( #332 ) );
#40 = PLANE ( 'NONE',  #306 ) ;
#41 = EDGE_CURVE ( 'NONE', #261, #296, #126, .T. ) ;
#42 = PRESENTATION_LAYER_ASSIGNMENT (  '', '', ( #2 ) ) ;
#43 = VECTOR ( 'NONE', #10, 39.37007874015748143 ) ;
#44 = CARTESIAN_POINT ( 'NONE',  ( 0.000000000000000000, 0.2500000000000000000, 0.000000000000000000 ) ) ;
#45 = FILL_AREA_STYLE_COLOUR ( '', #307 ) ;
#46 = UNCERTAINTY_MEASURE_WITH_UNIT (LENGTH_MEASURE( 1.000000000000000082E-05 ), #351, 'distance_accuracy_value', 'NONE');
#47 = CARTESIAN_POINT ( 'NONE',  ( 0.000000000000000000, 0.2500000000000000000, 0.000000000000000000 ) ) ;
#48 = PLANE ( 'NONE',  #93 ) ;
#49 = FILL_AREA_STYLE_COLOUR ( '', #231 ) ;
#50 = PRESENTATION_STYLE_ASSIGNMENT (( #101 ) ) ;
#51 = SURFACE_STYLE_FILL_AREA ( #192 ) ;
#52 =( GEOMETRIC_REPRESENTATION_CONTEXT ( 3 ) GLOBAL_UNCERTAINTY_ASSIGNED_CONTEXT ( ( #256 ) ) GLOBAL_UNIT_ASSIGNED_CONTEXT ( ( #157, #308, #100 ) ) REPRESENTATION_CONTEXT ( 'NONE', 'WORKASPACE' ) );
#53 = ORIENTED_EDGE ( 'NONE', *, *, #134, .F. ) ;
#54 = DIRECTION ( 'NONE',  ( -1.234089720914265831E-16, 1.000000000000000000, -0.000000000000000000 ) ) ;
#55 = PRESENTATION_STYLE_ASSIGNMENT (( #259 ) ) ;
#56 = DIMENSIONAL_EXPONENTS ( 1.000000000000000000, 0.000000000000000000, 0.000000000000000000, 0.000000000000000000, 0.000000000000000000, 0.000000000000000000, 0.000000000000000000 ) ;
#57 = CARTESIAN_POINT ( 'NONE',  ( 0.000000000000000000, 2.500000000000000000, 0.000000000000000000 ) ) ;
#58 = FILL_AREA_STYLE_COLOUR ( '', #179 ) ;
#59 = CARTESIAN_POINT ( 'NONE',  ( 0.000000000000000000, 0.000000000000000000, 0.000000000000000000 ) ) ;
#60 = MECHANICAL_DESIGN_GEOMETRIC_PRESENTATION_REPRESENTATION (  '', ( #160 ), #72 ) ;
#61 = AXIS2_PLACEMENT_3D ( 'NONE', #173, #67, #299 ) ;
#62 = EDGE_LOOP ( 'NONE', ( #329, #159 ) ) ;
#63 = LINE ( 'NONE', #326, #43 ) ;
#64 = EDGE_CURVE ( 'NONE', #22, #104, #358, .T. ) ;
#65 = COLOUR_RGB ( '',1.000000000000000000, 0.000000000000000000, 0.000000000000000000 ) ;
#66 = ORIENTED_EDGE ( 'NONE', *, *, #220, .T. ) ;
#67 = DIRECTION ( 'NONE',  ( -1.234089720914265831E-16, 1.000000000000000000, -0.000000000000000000 ) ) ;
#68 =( NAMED_UNIT ( * ) PLANE_ANGLE_UNIT ( ) SI_UNIT ( $, .RADIAN. ) );
#69 = DIRECTION ( 'NONE',  ( 1.000000000000000000, 0.000000000000000000, 0.000000000000000000 ) ) ;
#70 = DIRECTION ( 'NONE',  ( -0.000000000000000000, -1.000000000000000000, -0.000000000000000000 ) ) ;
#71 = APPLICATION_PROTOCOL_DEFINITION ( 'draft international standard', 'automotive_design', 1998, #247 ) ;
#72 =( GEOMETRIC_REPRESENTATION_CONTEXT ( 3 ) GLOBAL_UNCERTAINTY_ASSIGNED_CONTEXT ( ( #363 ) ) GLOBAL_UNIT_ASSIGNED_CONTEXT ( ( #80, #25, #252 ) ) REPRESENTATION_CONTEXT ( 'NONE', 'WORKASPACE' ) );
#73 = EDGE_LOOP ( 'NONE', ( #158, #4, #255, #53 ) ) ;
#74 = AXIS2_PLACEMENT_3D ( 'NONE', #273, #264, #95 ) ;
#75 = DIRECTION ( 'NONE',  ( 1.224646799147353207E-16, -0.000000000000000000, 1.000000000000000000 ) ) ;
#76 = CARTESIAN_POINT ( 'NONE',  ( 0.2499999999999996947, 2.500000000000000000, 3.061616997868382402E-17 ) ) ;
#77 = ORIENTED_EDGE ( 'NONE', *, *, #64, .F. ) ;
#78 = ADVANCED_FACE ( 'NONE', ( #164 ), #254, .T. ) ;
#79 = AXIS2_PLACEMENT_3D ( 'NONE', #189, #215, #283 ) ;
#80 =( CONVERSION_BASED_UNIT ( 'INCH', #184 ) LENGTH_UNIT ( ) NAMED_UNIT ( #32 ) );
#81 = AXIS2_PLACEMENT_3D ( 'NONE', #347, #54, #165 ) ;
#82 = CARTESIAN_POINT ( 'NONE',  ( 3.061616997868381785E-17, 0.000000000000000000, 0.2499999999999998612 ) ) ;
#83 = SURFACE_STYLE_FILL_AREA ( #191 ) ;
#84 = CARTESIAN_POINT ( 'NONE',  ( 0.000000000000000000, 2.500000000000000000, 0.000000000000000000 ) ) ;
#85 = SURFACE_STYLE_FILL_AREA ( #279 ) ;
#86 = PRESENTATION_STYLE_ASSIGNMENT (( #33 ) ) ;
#87 = AXIS2_PLACEMENT_3D ( 'NONE', #21, #274, #16 ) ;
#88 = FILL_AREA_STYLE ('',( #348 ) ) ;
#89 = CARTESIAN_POINT ( 'NONE',  ( -0.2499999999999996947, 2.500000000000000000, 0.000000000000000000 ) ) ;
#90 =( CONVERSION_BASED_UNIT ( 'INCH', #226 ) LENGTH_UNIT ( ) NAMED_UNIT ( #56 ) );
#91 = ADVANCED_FACE ( 'NONE', ( #205 ), #40, .F. ) ;
#92 = SHAPE_DEFINITION_REPRESENTATION ( #322, #18 ) ;
#93 = AXIS2_PLACEMENT_3D ( 'NONE', #350, #155, #370 ) ;
#94 = FACE_OUTER_BOUND ( 'NONE', #73, .T. ) ;
#95 = DIRECTION ( 'NONE',  ( 0.000000000000000000, 0.000000000000000000, -1.000000000000000000 ) ) ;
#96 = DIRECTION ( 'NONE',  ( -0.000000000000000000, -1.000000000000000000, -0.000000000000000000 ) ) ;
#97 = AXIS2_PLACEMENT_3D ( 'NONE', #57, #143, #118 ) ;
#98 = STYLED_ITEM ( 'NONE', ( #113 ), #314 ) ;
#99 = DIRECTION ( 'NONE',  ( -1.234089720914265831E-16, 1.000000000000000000, -0.000000000000000000 ) ) ;
#100 =( NAMED_UNIT ( * ) SI_UNIT ( $, .STERADIAN. ) SOLID_ANGLE_UNIT ( ) );
#101 = SURFACE_STYLE_USAGE ( .BOTH. , #246 ) ;
#102 = UNCERTAINTY_MEASURE_WITH_UNIT (LENGTH_MEASURE( 1.000000000000000082E-05 ), #90, 'distance_accuracy_value', 'NONE');
#103 = VERTEX_POINT ( 'NONE', #17 ) ;
#104 = VERTEX_POINT ( 'NONE', #76 ) ;
#105 = DIRECTION ( 'NONE',  ( 0.000000000000000000, 0.000000000000000000, -1.000000000000000000 ) ) ;
#106 = DIRECTION ( 'NONE',  ( -0.000000000000000000, -1.000000000000000000, -0.000000000000000000 ) ) ;
#107 = DIRECTION ( 'NONE',  ( -0.000000000000000000, -1.000000000000000000, -0.000000000000000000 ) ) ;
#108 = ORIENTED_EDGE ( 'NONE', *, *, #327, .T. ) ;
#109 = UNCERTAINTY_MEASURE_WITH_UNIT (LENGTH_MEASURE( 1.000000000000000082E-05 ), #39, 'distance_accuracy_value', 'NONE');
#110 = VECTOR ( 'NONE', #96, 39.37007874015748143 ) ;
#111 =( GEOMETRIC_REPRESENTATION_CONTEXT ( 3 ) GLOBAL_UNCERTAINTY_ASSIGNED_CONTEXT ( ( #168 ) ) GLOBAL_UNIT_ASSIGNED_CONTEXT ( ( #301, #240, #175 ) ) REPRESENTATION_CONTEXT ( 'NONE', 'WORKASPACE' ) );
#112 = LENGTH_MEASURE_WITH_UNIT ( LENGTH_MEASURE( 0.02539999999999999897 ), #290 );
#113 = PRESENTATION_STYLE_ASSIGNMENT (( #194 ) ) ;
#114 = ORIENTED_EDGE ( 'NONE', *, *, #41, .F. ) ;
#115 = STYLED_ITEM ( 'NONE', ( #34 ), #236 ) ;
#116 = CYLINDRICAL_SURFACE ( 'NONE', #61, 0.2499999999999998612 ) ;
#117 = MANIFOLD_SOLID_BREP ( 'Revolve - Tool Body (Straight Shanked)', #324 ) ;
#118 = DIRECTION ( 'NONE',  ( 0.000000000000000000, -0.000000000000000000, 1.000000000000000000 ) ) ;
#119 = FACE_OUTER_BOUND ( 'NONE', #352, .T. ) ;
#120 =( LENGTH_UNIT ( ) NAMED_UNIT ( * ) SI_UNIT ( $, .METRE. ) );
#121 = CARTESIAN_POINT ( 'NONE',  ( 2.360730441728178273E-18, 2.500000000000000000, 0.000000000000000000 ) ) ;
#122 = CARTESIAN_POINT ( 'NONE',  ( -3.061616997868383141E-16, 5.000000000000000000, 0.000000000000000000 ) ) ;
#123 = DIRECTION ( 'NONE',  ( 1.234089720914265831E-16, -1.000000000000000000, 0.000000000000000000 ) ) ;
#124 = AXIS2_PLACEMENT_3D ( 'NONE', #223, #320, #131 ) ;
#125 =( LENGTH_UNIT ( ) NAMED_UNIT ( * ) SI_UNIT ( $, .METRE. ) );
#126 = LINE ( 'NONE', #82, #305 ) ;
#127 = VERTEX_POINT ( 'NONE', #150 ) ;
#128 = FACE_OUTER_BOUND ( 'NONE', #201, .T. ) ;
#129 =( GEOMETRIC_REPRESENTATION_CONTEXT ( 3 ) GLOBAL_UNCERTAINTY_ASSIGNED_CONTEXT ( ( #198 ) ) GLOBAL_UNIT_ASSIGNED_CONTEXT ( ( #312, #227, #162 ) ) REPRESENTATION_CONTEXT ( 'NONE', 'WORKASPACE' ) );
#130 =( GEOMETRIC_REPRESENTATION_CONTEXT ( 3 ) GLOBAL_UNCERTAINTY_ASSIGNED_CONTEXT ( ( #222 ) ) GLOBAL_UNIT_ASSIGNED_CONTEXT ( ( #14, #68, #238 ) ) REPRESENTATION_CONTEXT ( 'NONE', 'WORKASPACE' ) );
#131 = DIRECTION ( 'NONE',  ( -1.000000000000000000, 0.000000000000000000, 0.000000000000000000 ) ) ;
#132 = FACE_OUTER_BOUND ( 'NONE', #151, .T. ) ;
#133 = VERTEX_POINT ( 'NONE', #337 ) ;
#134 = EDGE_CURVE ( 'NONE', #103, #186, #367, .T. ) ;
#135 = STYLED_ITEM ( 'NONE', ( #55 ), #193 ) ;
#136 = PRODUCT_DEFINITION_FORMATION_WITH_SPECIFIED_SOURCE ( 'ANY', '', #234, .NOT_KNOWN. ) ;
#137 = EDGE_CURVE ( 'NONE', #361, #335, #197, .T. ) ;
#138 = ADVANCED_FACE ( 'NONE', ( #128 ), #249, .T. ) ;
#139 = VERTEX_POINT ( 'NONE', #208 ) ;
#140 = FACE_OUTER_BOUND ( 'NONE', #20, .T. ) ;
#141 = DIRECTION ( 'NONE',  ( 0.000000000000000000, 0.000000000000000000, 1.000000000000000000 ) ) ;
#142 = SURFACE_SIDE_STYLE ('',( #5 ) ) ;
#143 = DIRECTION ( 'NONE',  ( 0.000000000000000000, 1.000000000000000000, 0.000000000000000000 ) ) ;
#144 =( LENGTH_UNIT ( ) NAMED_UNIT ( * ) SI_UNIT ( $, .METRE. ) );
#145 = EDGE_CURVE ( 'NONE', #139, #361, #242, .T. ) ;
#146 = CARTESIAN_POINT ( 'NONE',  ( -3.061616997868383018E-17, 0.2500000000000000000, 0.000000000000000000 ) ) ;
#147 = CIRCLE ( 'NONE', #257, 0.2500000000000000000 ) ;
#148 = PRESENTATION_STYLE_ASSIGNMENT (( #280 ) ) ;
#149 = CARTESIAN_POINT ( 'NONE',  ( -3.061616997868383018E-17, 0.2500000000000000000, 0.000000000000000000 ) ) ;
#150 = CARTESIAN_POINT ( 'NONE',  ( -1.530808498934191509E-17, 0.000000000000000000, 0.000000000000000000 ) ) ;
#151 = EDGE_LOOP ( 'NONE', ( #114, #66, #287, #230, #219 ) ) ;
#152 = FILL_AREA_STYLE ('',( #45 ) ) ;
#153 = DIRECTION ( 'NONE',  ( 0.000000000000000000, 0.000000000000000000, -1.000000000000000000 ) ) ;
#154 = AXIS2_PLACEMENT_3D ( 'NONE', #121, #99, #339 ) ;
#155 = DIRECTION ( 'NONE',  ( -1.234089720914265831E-16, 1.000000000000000000, 0.000000000000000000 ) ) ;
#156 = CYLINDRICAL_SURFACE ( 'NONE', #235, 0.2499999999999998612 ) ;
#157 =( CONVERSION_BASED_UNIT ( 'INCH', #341 ) LENGTH_UNIT ( ) NAMED_UNIT ( #6 ) );
#158 = ORIENTED_EDGE ( 'NONE', *, *, #174, .F. ) ;
#159 = ORIENTED_EDGE ( 'NONE', *, *, #220, .F. ) ;
#160 = STYLED_ITEM ( 'NONE', ( #50 ), #78 ) ;
#161 = ORIENTED_EDGE ( 'NONE', *, *, #170, .F. ) ;
#162 =( NAMED_UNIT ( * ) SI_UNIT ( $, .STERADIAN. ) SOLID_ANGLE_UNIT ( ) );
#163 = DIRECTION ( 'NONE',  ( -0.000000000000000000, -1.000000000000000000, -0.000000000000000000 ) ) ;
#164 = FACE_OUTER_BOUND ( 'NONE', #62, .T. ) ;
#165 = DIRECTION ( 'NONE',  ( -1.000000000000000000, 0.000000000000000000, 0.000000000000000000 ) ) ;
#166 =( NAMED_UNIT ( * ) SI_UNIT ( $, .STERADIAN. ) SOLID_ANGLE_UNIT ( ) );
#167 = FILL_AREA_STYLE ('',( #58 ) ) ;
#168 = UNCERTAINTY_MEASURE_WITH_UNIT (LENGTH_MEASURE( 1.000000000000000082E-05 ), #301, 'distance_accuracy_value', 'NONE');
#169 = SURFACE_STYLE_FILL_AREA ( #88 ) ;
#170 = EDGE_CURVE ( 'NONE', #335, #296, #336, .T. ) ;
#171 = PRODUCT_DEFINITION ( 'UNKNOWN', '', #136, #213 ) ;
#172 = EDGE_LOOP ( 'NONE', ( #77, #233 ) ) ;
#173 = CARTESIAN_POINT ( 'NONE',  ( -3.061616997868383141E-16, 5.000000000000000000, 0.000000000000000000 ) ) ;
#174 = EDGE_CURVE ( 'NONE', #104, #103, #278, .T. ) ;
#175 =( NAMED_UNIT ( * ) SI_UNIT ( $, .STERADIAN. ) SOLID_ANGLE_UNIT ( ) );
#176 =( NAMED_UNIT ( * ) PLANE_ANGLE_UNIT ( ) SI_UNIT ( $, .RADIAN. ) );
#177 = CARTESIAN_POINT ( 'NONE',  ( 0.2499999999999995559, 5.000000000000000000, 3.061616997868381785E-17 ) ) ;
#178 = CARTESIAN_POINT ( 'NONE',  ( 0.000000000000000000, 0.2500000000000000000, -0.2500000000000000000 ) ) ;
#179 = COLOUR_RGB ( '',1.000000000000000000, 0.000000000000000000, 0.000000000000000000 ) ;
#180 = SURFACE_STYLE_FILL_AREA ( #333 ) ;
#181 = DIRECTION ( 'NONE',  ( 1.000000000000000000, 0.000000000000000000, -1.224646799147353207E-16 ) ) ;
#182 = DIRECTION ( 'NONE',  ( 0.000000000000000000, 0.000000000000000000, 1.000000000000000000 ) ) ;
#183 = MECHANICAL_DESIGN_GEOMETRIC_PRESENTATION_REPRESENTATION (  '', ( #250 ), #129 ) ;
#184 = LENGTH_MEASURE_WITH_UNIT ( LENGTH_MEASURE( 0.02539999999999999897 ), #315 );
#185 = SURFACE_SIDE_STYLE ('',( #51 ) ) ;
#186 = VERTEX_POINT ( 'NONE', #343 ) ;
#187 =( NAMED_UNIT ( * ) PLANE_ANGLE_UNIT ( ) SI_UNIT ( $, .RADIAN. ) );
#188 = DIRECTION ( 'NONE',  ( -0.000000000000000000, -1.000000000000000000, -0.000000000000000000 ) ) ;
#189 = CARTESIAN_POINT ( 'NONE',  ( 2.360730441728178273E-18, 2.500000000000000000, 0.000000000000000000 ) ) ;
#190 = PRODUCT_RELATED_PRODUCT_CATEGORY ( 'part', '', ( #234 ) ) ;
#191 = FILL_AREA_STYLE ('',( #284 ) ) ;
#192 = FILL_AREA_STYLE ('',( #1 ) ) ;
#193 = ADVANCED_FACE ( 'NONE', ( #132 ), #323, .T. ) ;
#194 = SURFACE_STYLE_USAGE ( .BOTH. , #229 ) ;
#195 = CLOSED_SHELL ( 'NONE', ( #314, #241, #78, #193, #282 ) ) ;
#196 = ORIENTED_EDGE ( 'NONE', *, *, #41, .T. ) ;
#197 = CIRCLE ( 'NONE', #262, 0.2500000000000000000 ) ;
#198 = UNCERTAINTY_MEASURE_WITH_UNIT (LENGTH_MEASURE( 1.000000000000000082E-05 ), #312, 'distance_accuracy_value', 'NONE');
#199 = PRESENTATION_LAYER_ASSIGNMENT (  '', '', ( #98 ) ) ;
#200 = ORIENTED_EDGE ( 'NONE', *, *, #174, .T. ) ;
#201 = EDGE_LOOP ( 'NONE', ( #346, #200, #288, #344 ) ) ;
#202 = AXIS2_PLACEMENT_3D ( 'NONE', #84, #163, #228 ) ;
#203 = PRESENTATION_LAYER_ASSIGNMENT (  '', '', ( #251 ) ) ;
#204 = LENGTH_MEASURE_WITH_UNIT ( LENGTH_MEASURE( 0.02539999999999999897 ), #144 );
#205 = FACE_OUTER_BOUND ( 'NONE', #366, .T. ) ;
#206 = LENGTH_MEASURE_WITH_UNIT ( LENGTH_MEASURE( 0.02539999999999999897 ), #120 );
#207 = ORIENTED_EDGE ( 'NONE', *, *, #134, .T. ) ;
#208 = CARTESIAN_POINT ( 'NONE',  ( 0.000000000000000000, 2.500000000000000000, -0.2499999999999996947 ) ) ;
#209 = DIMENSIONAL_EXPONENTS ( 1.000000000000000000, 0.000000000000000000, 0.000000000000000000, 0.000000000000000000, 0.000000000000000000, 0.000000000000000000, 0.000000000000000000 ) ;
#210 = COLOUR_RGB ( '',1.000000000000000000, 0.000000000000000000, 0.000000000000000000 ) ;
#211 = SPHERICAL_SURFACE ( 'NONE', #27, 0.2500000000000000000 ) ;
#212 = CARTESIAN_POINT ( 'NONE',  ( 0.000000000000000000, 0.000000000000000000, -0.2499999999999998612 ) ) ;
#213 = PRODUCT_DEFINITION_CONTEXT ( 'detailed design', #247, 'design' ) ;
#214 = DIMENSIONAL_EXPONENTS ( 1.000000000000000000, 0.000000000000000000, 0.000000000000000000, 0.000000000000000000, 0.000000000000000000, 0.000000000000000000, 0.000000000000000000 ) ;
#215 = DIRECTION ( 'NONE',  ( -1.234089720914265831E-16, 1.000000000000000000, -0.000000000000000000 ) ) ;
#216 = SURFACE_SIDE_STYLE ('',( #180 ) ) ;
#217 = MECHANICAL_DESIGN_GEOMETRIC_PRESENTATION_REPRESENTATION (  '', ( #115 ), #19 ) ;
#218 = MECHANICAL_DESIGN_GEOMETRIC_PRESENTATION_REPRESENTATION (  '', ( #98 ), #232 ) ;
#219 = ORIENTED_EDGE ( 'NONE', *, *, #3, .F. ) ;
#220 = EDGE_CURVE ( 'NONE', #261, #139, #37, .T. ) ;
#221 = FILL_AREA_STYLE_COLOUR ( '', #342 ) ;
#222 = UNCERTAINTY_MEASURE_WITH_UNIT (LENGTH_MEASURE( 1.000000000000000082E-05 ), #14, 'distance_accuracy_value', 'NONE');
#223 = CARTESIAN_POINT ( 'NONE',  ( -3.061616997868383018E-17, 0.2500000000000000000, 0.000000000000000000 ) ) ;
#224 = FACE_OUTER_BOUND ( 'NONE', #172, .T. ) ;
#225 = PRESENTATION_LAYER_ASSIGNMENT (  '', '', ( #115 ) ) ;
#226 = LENGTH_MEASURE_WITH_UNIT ( LENGTH_MEASURE( 0.02539999999999999897 ), #291 );
#227 =( NAMED_UNIT ( * ) PLANE_ANGLE_UNIT ( ) SI_UNIT ( $, .RADIAN. ) );
#228 = DIRECTION ( 'NONE',  ( 0.000000000000000000, 0.000000000000000000, -1.000000000000000000 ) ) ;
#229 = SURFACE_SIDE_STYLE ('',( #311 ) ) ;
#230 = ORIENTED_EDGE ( 'NONE', *, *, #267, .F. ) ;
#231 = COLOUR_RGB ( '',0.7921568627450980005, 0.8196078431372548767, 0.9333333333333333481 ) ;
#232 =( GEOMETRIC_REPRESENTATION_CONTEXT ( 3 ) GLOBAL_UNCERTAINTY_ASSIGNED_CONTEXT ( ( #109 ) ) GLOBAL_UNIT_ASSIGNED_CONTEXT ( ( #39, #176, #271 ) ) REPRESENTATION_CONTEXT ( 'NONE', 'WORKASPACE' ) );
#233 = ORIENTED_EDGE ( 'NONE', *, *, #300, .F. ) ;
#234 = PRODUCT ( '82593', '82593', '', ( #334 ) ) ;
#235 = AXIS2_PLACEMENT_3D ( 'NONE', #371, #107, #281 ) ;
#236 = MANIFOLD_SOLID_BREP ( 'Revolve - Cutting Edge', #195 ) ;
#237 = ORIENTED_EDGE ( 'NONE', *, *, #137, .T. ) ;
#238 =( NAMED_UNIT ( * ) SI_UNIT ( $, .STERADIAN. ) SOLID_ANGLE_UNIT ( ) );
#239 = EDGE_CURVE ( 'NONE', #335, #127, #297, .T. ) ;
#240 =( NAMED_UNIT ( * ) PLANE_ANGLE_UNIT ( ) SI_UNIT ( $, .RADIAN. ) );
#241 = ADVANCED_FACE ( 'NONE', ( #345 ), #156, .T. ) ;
#242 = LINE ( 'NONE', #212, #110 ) ;
#243 = AXIS2_PLACEMENT_3D ( 'NONE', #362, #75, #181 ) ;
#244 = ORIENTED_EDGE ( 'NONE', *, *, #239, .T. ) ;
#245 = EDGE_CURVE ( 'NONE', #186, #103, #35, .T. ) ;
#246 = SURFACE_SIDE_STYLE ('',( #85 ) ) ;
#247 = APPLICATION_CONTEXT ( 'automotive_design' ) ;
#248 = DIRECTION ( 'NONE',  ( 1.000000000000000000, 1.234089720914265831E-16, 0.000000000000000000 ) ) ;
#249 = CYLINDRICAL_SURFACE ( 'NONE', #285, 0.2499999999999998612 ) ;
#250 = STYLED_ITEM ( 'NONE', ( #86 ), #241 ) ;
#251 = STYLED_ITEM ( 'NONE', ( #36 ), #282 ) ;
#252 =( NAMED_UNIT ( * ) SI_UNIT ( $, .STERADIAN. ) SOLID_ANGLE_UNIT ( ) );
#253 = SURFACE_SIDE_STYLE ('',( #83 ) ) ;
#254 = PLANE ( 'NONE',  #97 ) ;
#255 = ORIENTED_EDGE ( 'NONE', *, *, #276, .T. ) ;
#256 = UNCERTAINTY_MEASURE_WITH_UNIT (LENGTH_MEASURE( 1.000000000000000082E-05 ), #157, 'distance_accuracy_value', 'NONE');
#257 = AXIS2_PLACEMENT_3D ( 'NONE', #373, #188, #310 ) ;
#258 = CIRCLE ( 'NONE', #154, 0.2499999999999996947 ) ;
#259 = SURFACE_STYLE_USAGE ( .BOTH. , #185 ) ;
#260 = ORIENTED_EDGE ( 'NONE', *, *, #3, .T. ) ;
#261 = VERTEX_POINT ( 'NONE', #289 ) ;
#262 = AXIS2_PLACEMENT_3D ( 'NONE', #44, #272, #24 ) ;
#263 = CARTESIAN_POINT ( 'NONE',  ( 3.061616997868383018E-17, 0.2500000000000000000, 0.2499999999999999722 ) ) ;
#264 = DIRECTION ( 'NONE',  ( -0.000000000000000000, -1.000000000000000000, -0.000000000000000000 ) ) ;
#265 = SURFACE_STYLE_USAGE ( .BOTH. , #142 ) ;
#266 =( NAMED_UNIT ( * ) PLANE_ANGLE_UNIT ( ) SI_UNIT ( $, .RADIAN. ) );
#267 = EDGE_CURVE ( 'NONE', #133, #361, #292, .T. ) ;
#268 = DIRECTION ( 'NONE',  ( 1.000000000000000000, 0.000000000000000000, 0.000000000000000000 ) ) ;
#269 = MECHANICAL_DESIGN_GEOMETRIC_PRESENTATION_REPRESENTATION (  '', ( #135 ), #277 ) ;
#270 = AXIS2_PLACEMENT_3D ( 'NONE', #149, #141, #328 ) ;
#271 =( NAMED_UNIT ( * ) SI_UNIT ( $, .STERADIAN. ) SOLID_ANGLE_UNIT ( ) );
#272 = DIRECTION ( 'NONE',  ( -0.000000000000000000, -1.000000000000000000, -0.000000000000000000 ) ) ;
#273 = CARTESIAN_POINT ( 'NONE',  ( 0.000000000000000000, 2.500000000000000000, 0.000000000000000000 ) ) ;
#274 = DIRECTION ( 'NONE',  ( -1.234089720914265831E-16, 1.000000000000000000, -0.000000000000000000 ) ) ;
#275 = DIMENSIONAL_EXPONENTS ( 1.000000000000000000, 0.000000000000000000, 0.000000000000000000, 0.000000000000000000, 0.000000000000000000, 0.000000000000000000, 0.000000000000000000 ) ;
#276 = EDGE_CURVE ( 'NONE', #22, #186, #63, .T. ) ;
#277 =( GEOMETRIC_REPRESENTATION_CONTEXT ( 3 ) GLOBAL_UNCERTAINTY_ASSIGNED_CONTEXT ( ( #102 ) ) GLOBAL_UNIT_ASSIGNED_CONTEXT ( ( #90, #187, #316 ) ) REPRESENTATION_CONTEXT ( 'NONE', 'WORKASPACE' ) );
#278 = LINE ( 'NONE', #177, #12 ) ;
#279 = FILL_AREA_STYLE ('',( #221 ) ) ;
#280 = SURFACE_STYLE_USAGE ( .BOTH. , #216 ) ;
#281 = DIRECTION ( 'NONE',  ( 0.000000000000000000, 0.000000000000000000, -1.000000000000000000 ) ) ;
#282 = ADVANCED_FACE ( 'NONE', ( #140 ), #211, .T. ) ;
#283 = DIRECTION ( 'NONE',  ( -1.000000000000000000, 0.000000000000000000, 0.000000000000000000 ) ) ;
#284 = FILL_AREA_STYLE_COLOUR ( '', #65 ) ;
#285 = AXIS2_PLACEMENT_3D ( 'NONE', #122, #340, #304 ) ;
#286 = CIRCLE ( 'NONE', #74, 0.2499999999999996947 ) ;
#287 = ORIENTED_EDGE ( 'NONE', *, *, #145, .T. ) ;
#288 = ORIENTED_EDGE ( 'NONE', *, *, #245, .F. ) ;
#289 = CARTESIAN_POINT ( 'NONE',  ( 3.061616997868379936E-17, 2.500000000000000000, 0.2499999999999996947 ) ) ;
#290 =( LENGTH_UNIT ( ) NAMED_UNIT ( * ) SI_UNIT ( $, .METRE. ) );
#291 =( LENGTH_UNIT ( ) NAMED_UNIT ( * ) SI_UNIT ( $, .METRE. ) );
#292 = CIRCLE ( 'NONE', #356, 0.2500000000000000000 ) ;
#293 = DIRECTION ( 'NONE',  ( 0.000000000000000000, 0.000000000000000000, -1.000000000000000000 ) ) ;
#294 = ORIENTED_EDGE ( 'NONE', *, *, #145, .F. ) ;
#295 = CARTESIAN_POINT ( 'NONE',  ( 0.2500000000000000000, 0.2500000000000000000, 0.000000000000000000 ) ) ;
#296 = VERTEX_POINT ( 'NONE', #263 ) ;
#297 = CIRCLE ( 'NONE', #124, 0.2500000000000000000 ) ;
#298 = CIRCLE ( 'NONE', #243, 0.2500000000000000000 ) ;
#299 = DIRECTION ( 'NONE',  ( -1.000000000000000000, 0.000000000000000000, 0.000000000000000000 ) ) ;
#300 = EDGE_CURVE ( 'NONE', #104, #22, #258, .T. ) ;
#301 =( CONVERSION_BASED_UNIT ( 'INCH', #204 ) LENGTH_UNIT ( ) NAMED_UNIT ( #303 ) );
#302 = DIRECTION ( 'NONE',  ( -1.234089720914265831E-16, 1.000000000000000000, -0.000000000000000000 ) ) ;
#303 = DIMENSIONAL_EXPONENTS ( 1.000000000000000000, 0.000000000000000000, 0.000000000000000000, 0.000000000000000000, 0.000000000000000000, 0.000000000000000000, 0.000000000000000000 ) ;
#304 = DIRECTION ( 'NONE',  ( -1.000000000000000000, 0.000000000000000000, 0.000000000000000000 ) ) ;
#305 = VECTOR ( 'NONE', #106, 39.37007874015748143 ) ;
#306 = AXIS2_PLACEMENT_3D ( 'NONE', #30, #123, #248 ) ;
#307 = COLOUR_RGB ( '',1.000000000000000000, 0.000000000000000000, 0.000000000000000000 ) ;
#308 =( NAMED_UNIT ( * ) PLANE_ANGLE_UNIT ( ) SI_UNIT ( $, .RADIAN. ) );
#309 = EDGE_CURVE ( 'NONE', #133, #127, #298, .T. ) ;
#310 = DIRECTION ( 'NONE',  ( 0.000000000000000000, 0.000000000000000000, -1.000000000000000000 ) ) ;
#311 = SURFACE_STYLE_FILL_AREA ( #152 ) ;
#312 =( CONVERSION_BASED_UNIT ( 'INCH', #112 ) LENGTH_UNIT ( ) NAMED_UNIT ( #209 ) );
#313 = SURFACE_STYLE_USAGE ( .BOTH. , #353 ) ;
#314 = ADVANCED_FACE ( 'NONE', ( #119 ), #11, .T. ) ;
#315 =( LENGTH_UNIT ( ) NAMED_UNIT ( * ) SI_UNIT ( $, .METRE. ) );
#316 =( NAMED_UNIT ( * ) SI_UNIT ( $, .STERADIAN. ) SOLID_ANGLE_UNIT ( ) );
#317 = AXIS2_PLACEMENT_3D ( 'NONE', #47, #70, #153 ) ;
#318 = MECHANICAL_DESIGN_GEOMETRIC_PRESENTATION_REPRESENTATION (  '', ( #251 ), #130 ) ;
#319 = ORIENTED_EDGE ( 'NONE', *, *, #137, .F. ) ;
#320 = DIRECTION ( 'NONE',  ( 0.000000000000000000, 0.000000000000000000, -1.000000000000000000 ) ) ;
#321 = ORIENTED_EDGE ( 'NONE', *, *, #309, .F. ) ;
#322 = PRODUCT_DEFINITION_SHAPE ( 'NONE', 'NONE',  #171 ) ;
#323 = CYLINDRICAL_SURFACE ( 'NONE', #325, 0.2499999999999998612 ) ;
#324 = CLOSED_SHELL ( 'NONE', ( #138, #15, #338, #91 ) ) ;
#325 = AXIS2_PLACEMENT_3D ( 'NONE', #59, #372, #105 ) ;
#326 = CARTESIAN_POINT ( 'NONE',  ( -0.2500000000000001665, 5.000000000000000000, 0.000000000000000000 ) ) ;
#327 = EDGE_CURVE ( 'NONE', #139, #261, #286, .T. ) ;
#328 = DIRECTION ( 'NONE',  ( 1.000000000000000000, 0.000000000000000000, 0.000000000000000000 ) ) ;
#329 = ORIENTED_EDGE ( 'NONE', *, *, #327, .F. ) ;
#330 = PRESENTATION_LAYER_ASSIGNMENT (  '', '', ( #135 ) ) ;
#331 = DIRECTION ( 'NONE',  ( 0.000000000000000000, 0.000000000000000000, 1.000000000000000000 ) ) ;
#332 = DIMENSIONAL_EXPONENTS ( 1.000000000000000000, 0.000000000000000000, 0.000000000000000000, 0.000000000000000000, 0.000000000000000000, 0.000000000000000000, 0.000000000000000000 ) ;
#333 = FILL_AREA_STYLE ('',( #49 ) ) ;
#334 = PRODUCT_CONTEXT ( 'NONE', #354, 'mechanical' ) ;
#335 = VERTEX_POINT ( 'NONE', #295 ) ;
#336 = CIRCLE ( 'NONE', #317, 0.2500000000000000000 ) ;
#337 = CARTESIAN_POINT ( 'NONE',  ( -0.2500000000000000000, 0.2500000000000000000, 3.061616997868382402E-17 ) ) ;
#338 = ADVANCED_FACE ( 'NONE', ( #94 ), #116, .T. ) ;
#339 = DIRECTION ( 'NONE',  ( -1.000000000000000000, 0.000000000000000000, 0.000000000000000000 ) ) ;
#340 = DIRECTION ( 'NONE',  ( -1.234089720914265831E-16, 1.000000000000000000, -0.000000000000000000 ) ) ;
#341 = LENGTH_MEASURE_WITH_UNIT ( LENGTH_MEASURE( 0.02539999999999999897 ), #125 );
#342 = COLOUR_RGB ( '',1.000000000000000000, 0.000000000000000000, 0.000000000000000000 ) ;
#343 = CARTESIAN_POINT ( 'NONE',  ( -0.2500000000000002776, 5.000000000000000000, 0.000000000000000000 ) ) ;
#344 = ORIENTED_EDGE ( 'NONE', *, *, #276, .F. ) ;
#345 = FACE_OUTER_BOUND ( 'NONE', #31, .T. ) ;
#346 = ORIENTED_EDGE ( 'NONE', *, *, #64, .T. ) ;
#347 = CARTESIAN_POINT ( 'NONE',  ( -3.061616997868383141E-16, 5.000000000000000000, 0.000000000000000000 ) ) ;
#348 = FILL_AREA_STYLE_COLOUR ( '', #8 ) ;
#349 = PRESENTATION_LAYER_ASSIGNMENT (  '', '', ( #160 ) ) ;
#350 = CARTESIAN_POINT ( 'NONE',  ( 2.360730441728180199E-18, 2.500000000000000000, 0.000000000000000000 ) ) ;
#351 =( CONVERSION_BASED_UNIT ( 'INCH', #369 ) LENGTH_UNIT ( ) NAMED_UNIT ( #275 ) );
#352 = EDGE_LOOP ( 'NONE', ( #260, #355, #368, #13 ) ) ;
#353 = SURFACE_SIDE_STYLE ('',( #169 ) ) ;
#354 = APPLICATION_CONTEXT ( 'automotive_design' ) ;
#355 = ORIENTED_EDGE ( 'NONE', *, *, #309, .T. ) ;
#356 = AXIS2_PLACEMENT_3D ( 'NONE', #23, #38, #293 ) ;
#357 = CARTESIAN_POINT ( 'NONE',  ( 0.000000000000000000, 0.000000000000000000, 0.000000000000000000 ) ) ;
#358 = CIRCLE ( 'NONE', #79, 0.2499999999999996947 ) ;
#359 = PRESENTATION_LAYER_ASSIGNMENT (  '', '', ( #250 ) ) ;
#360 = APPLICATION_PROTOCOL_DEFINITION ( 'draft international standard', 'automotive_design', 1998, #354 ) ;
#361 = VERTEX_POINT ( 'NONE', #178 ) ;
#362 = CARTESIAN_POINT ( 'NONE',  ( -3.061616997868383018E-17, 0.2500000000000000000, 0.000000000000000000 ) ) ;
#363 = UNCERTAINTY_MEASURE_WITH_UNIT (LENGTH_MEASURE( 1.000000000000000082E-05 ), #80, 'distance_accuracy_value', 'NONE');
#364 = ORIENTED_EDGE ( 'NONE', *, *, #245, .T. ) ;
#365 = LENGTH_MEASURE_WITH_UNIT ( LENGTH_MEASURE( 0.02539999999999999897 ), #7 );
#366 = EDGE_LOOP ( 'NONE', ( #364, #207 ) ) ;
#367 = CIRCLE ( 'NONE', #87, 0.2500000000000000000 ) ;
#368 = ORIENTED_EDGE ( 'NONE', *, *, #239, .F. ) ;
#369 = LENGTH_MEASURE_WITH_UNIT ( LENGTH_MEASURE( 0.02539999999999999897 ), #28 );
#370 = DIRECTION ( 'NONE',  ( -1.000000000000000000, -1.234089720914265831E-16, 0.000000000000000000 ) ) ;
#371 = CARTESIAN_POINT ( 'NONE',  ( 0.000000000000000000, 0.000000000000000000, 0.000000000000000000 ) ) ;
#372 = DIRECTION ( 'NONE',  ( -0.000000000000000000, -1.000000000000000000, -0.000000000000000000 ) ) ;
#373 = CARTESIAN_POINT ( 'NONE',  ( 0.000000000000000000, 0.2500000000000000000, 0.000000000000000000 ) ) ;
ENDSEC;
END-ISO-10303-21;
