ISO-10303-21;
HEADER;
FILE_DESCRIPTION (( 'STEP AP214' ),
    '1' );
FILE_NAME ('59485.STEP',
    '2023-07-24T15:47:55',
    ( '' ),
    ( '' ),
    'SwSTEP 2.0',
    'SolidWorks 2023',
    '' );
FILE_SCHEMA (( 'AUTOMOTIVE_DESIGN' ));
ENDSEC;

DATA;
#1 = DIRECTION ( 'NONE',  ( -0.000000000000000000, -1.000000000000000000, -0.000000000000000000 ) ) ;
#2 = PRESENTATION_LAYER_ASSIGNMENT (  '', '', ( #208 ) ) ;
#3 = AXIS2_PLACEMENT_3D ( 'NONE', #211, #138, #72 ) ;
#4 = FACE_OUTER_BOUND ( 'NONE', #204, .T. ) ;
#5 = FILL_AREA_STYLE_COLOUR ( '', #281 ) ;
#6 = ORIENTED_EDGE ( 'NONE', *, *, #114, .T. ) ;
#7 = DIRECTION ( 'NONE',  ( 0.000000000000000000, 0.000000000000000000, 1.000000000000000000 ) ) ;
#8 = DIRECTION ( 'NONE',  ( 2.881521880346713429E-17, -1.000000000000000000, 0.000000000000000000 ) ) ;
#9 =( GEOMETRIC_REPRESENTATION_CONTEXT ( 3 ) GLOBAL_UNCERTAINTY_ASSIGNED_CONTEXT ( ( #178 ) ) GLOBAL_UNIT_ASSIGNED_CONTEXT ( ( #85, #228, #29 ) ) REPRESENTATION_CONTEXT ( 'NONE', 'WORKASPACE' ) );
#10 = VERTEX_POINT ( 'NONE', #25 ) ;
#11 = PLANE ( 'NONE',  #260 ) ;
#12 = PRODUCT ( '59485', '59485', '', ( #61 ) ) ;
#13 = DIRECTION ( 'NONE',  ( -1.000000000000000000, 0.000000000000000000, 0.000000000000000000 ) ) ;
#14 =( GEOMETRIC_REPRESENTATION_CONTEXT ( 3 ) GLOBAL_UNCERTAINTY_ASSIGNED_CONTEXT ( ( #109 ) ) GLOBAL_UNIT_ASSIGNED_CONTEXT ( ( #21, #194, #39 ) ) REPRESENTATION_CONTEXT ( 'NONE', 'WORKASPACE' ) );
#15 = CARTESIAN_POINT ( 'NONE',  ( 0.000000000000000000, 24.00000000000000000, 0.000000000000000000 ) ) ;
#16 = EDGE_CURVE ( 'NONE', #229, #272, #212, .T. ) ;
#17 = AXIS2_PLACEMENT_3D ( 'NONE', #42, #1, #53 ) ;
#18 = FACE_OUTER_BOUND ( 'NONE', #51, .T. ) ;
#19 =( NAMED_UNIT ( * ) SI_UNIT ( $, .STERADIAN. ) SOLID_ANGLE_UNIT ( ) );
#20 = FILL_AREA_STYLE_COLOUR ( '', #92 ) ;
#21 =( LENGTH_UNIT ( ) NAMED_UNIT ( * ) SI_UNIT ( .MILLI., .METRE. ) );
#22 = EDGE_CURVE ( 'NONE', #104, #10, #126, .T. ) ;
#23 = AXIS2_PLACEMENT_3D ( 'NONE', #28, #203, #108 ) ;
#24 = DIRECTION ( 'NONE',  ( -2.881521880346713429E-17, 1.000000000000000000, -0.000000000000000000 ) ) ;
#25 = CARTESIAN_POINT ( 'NONE',  ( 0.000000000000000000, 0.000000000000000000, -6.000000000000000000 ) ) ;
#26 = AXIS2_PLACEMENT_3D ( 'NONE', #141, #78, #120 ) ;
#27 = DIRECTION ( 'NONE',  ( -2.881521880346713429E-17, 1.000000000000000000, 0.000000000000000000 ) ) ;
#28 = CARTESIAN_POINT ( 'NONE',  ( -1.469576158976823750E-15, 75.00000000000000000, 0.000000000000000000 ) ) ;
#29 =( NAMED_UNIT ( * ) SI_UNIT ( $, .STERADIAN. ) SOLID_ANGLE_UNIT ( ) );
#30 = EDGE_LOOP ( 'NONE', ( #86, #66, #110, #154 ) ) ;
#31 = AXIS2_PLACEMENT_3D ( 'NONE', #249, #105, #147 ) ;
#32 = DIRECTION ( 'NONE',  ( -2.881521880346713429E-17, 1.000000000000000000, -0.000000000000000000 ) ) ;
#33 = MECHANICAL_DESIGN_GEOMETRIC_PRESENTATION_REPRESENTATION (  '', ( #189 ), #14 ) ;
#34 = CARTESIAN_POINT ( 'NONE',  ( 0.000000000000000000, 0.000000000000000000, 0.000000000000000000 ) ) ;
#35 = DIRECTION ( 'NONE',  ( -2.881521880346713429E-17, 1.000000000000000000, -0.000000000000000000 ) ) ;
#36 = DIRECTION ( 'NONE',  ( -0.000000000000000000, -1.000000000000000000, -0.000000000000000000 ) ) ;
#37 = PRESENTATION_STYLE_ASSIGNMENT (( #259 ) ) ;
#38 = SURFACE_SIDE_STYLE ('',( #238 ) ) ;
#39 =( NAMED_UNIT ( * ) SI_UNIT ( $, .STERADIAN. ) SOLID_ANGLE_UNIT ( ) );
#40 = STYLED_ITEM ( 'NONE', ( #37 ), #146 ) ;
#41 = DIRECTION ( 'NONE',  ( -0.000000000000000000, -1.000000000000000000, -0.000000000000000000 ) ) ;
#42 = CARTESIAN_POINT ( 'NONE',  ( 0.000000000000000000, 0.000000000000000000, 0.000000000000000000 ) ) ;
#43 = CLOSED_SHELL ( 'NONE', ( #71, #44, #276, #88 ) ) ;
#44 = ADVANCED_FACE ( 'NONE', ( #4 ), #83, .F. ) ;
#45 = CARTESIAN_POINT ( 'NONE',  ( 0.000000000000000000, 24.00000000000000000, 0.000000000000000000 ) ) ;
#46 = DIRECTION ( 'NONE',  ( 1.000000000000000000, 0.000000000000000000, 0.000000000000000000 ) ) ;
#47 = UNCERTAINTY_MEASURE_WITH_UNIT (LENGTH_MEASURE( 1.000000000000000082E-05 ), #286, 'distance_accuracy_value', 'NONE');
#48 = ORIENTED_EDGE ( 'NONE', *, *, #139, .F. ) ;
#49 = AXIS2_PLACEMENT_3D ( 'NONE', #175, #27, #273 ) ;
#50 =( LENGTH_UNIT ( ) NAMED_UNIT ( * ) SI_UNIT ( .MILLI., .METRE. ) );
#51 = EDGE_LOOP ( 'NONE', ( #132, #206, #207, #170 ) ) ;
#52 = FILL_AREA_STYLE_COLOUR ( '', #201 ) ;
#53 = DIRECTION ( 'NONE',  ( 0.000000000000000000, 0.000000000000000000, -1.000000000000000000 ) ) ;
#54 = SURFACE_STYLE_USAGE ( .BOTH. , #241 ) ;
#55 = AXIS2_PLACEMENT_3D ( 'NONE', #34, #278, #181 ) ;
#56 = MECHANICAL_DESIGN_GEOMETRIC_PRESENTATION_REPRESENTATION (  '', ( #208 ), #98 ) ;
#57 = CARTESIAN_POINT ( 'NONE',  ( -6.000000000000003553, 75.00000000000000000, 0.000000000000000000 ) ) ;
#58 = DIRECTION ( 'NONE',  ( 0.000000000000000000, -0.000000000000000000, 1.000000000000000000 ) ) ;
#59 = DIRECTION ( 'NONE',  ( 0.000000000000000000, 0.000000000000000000, -1.000000000000000000 ) ) ;
#60 = ADVANCED_BREP_SHAPE_REPRESENTATION ( '59485', ( #248, #246, #111 ), #198 ) ;
#61 = PRODUCT_CONTEXT ( 'NONE', #214, 'mechanical' ) ;
#62 = ORIENTED_EDGE ( 'NONE', *, *, #250, .T. ) ;
#63 = PRESENTATION_LAYER_ASSIGNMENT (  '', '', ( #157 ) ) ;
#64 = FILL_AREA_STYLE ('',( #5 ) ) ;
#65 = FACE_OUTER_BOUND ( 'NONE', #30, .T. ) ;
#66 = ORIENTED_EDGE ( 'NONE', *, *, #219, .T. ) ;
#67 =( NAMED_UNIT ( * ) PLANE_ANGLE_UNIT ( ) SI_UNIT ( $, .RADIAN. ) );
#68 = ORIENTED_EDGE ( 'NONE', *, *, #193, .F. ) ;
#69 = SURFACE_STYLE_FILL_AREA ( #186 ) ;
#70 = SURFACE_SIDE_STYLE ('',( #117 ) ) ;
#71 = ADVANCED_FACE ( 'NONE', ( #65 ), #148, .T. ) ;
#72 = DIRECTION ( 'NONE',  ( -1.000000000000000000, 0.000000000000000000, 0.000000000000000000 ) ) ;
#73 = DIRECTION ( 'NONE',  ( 0.000000000000000000, 0.000000000000000000, -1.000000000000000000 ) ) ;
#74 = VECTOR ( 'NONE', #32, 1000.000000000000000 ) ;
#75 = MECHANICAL_DESIGN_GEOMETRIC_PRESENTATION_REPRESENTATION (  '', ( #285 ), #9 ) ;
#76 =( NAMED_UNIT ( * ) SI_UNIT ( $, .STERADIAN. ) SOLID_ANGLE_UNIT ( ) );
#77 = CYLINDRICAL_SURFACE ( 'NONE', #127, 6.000000000000000888 ) ;
#78 = DIRECTION ( 'NONE',  ( -2.881521880346713429E-17, 1.000000000000000000, -0.000000000000000000 ) ) ;
#79 = VECTOR ( 'NONE', #266, 1000.000000000000000 ) ;
#80 = PRESENTATION_STYLE_ASSIGNMENT (( #54 ) ) ;
#81 = SURFACE_STYLE_USAGE ( .BOTH. , #269 ) ;
#82 = CARTESIAN_POINT ( 'NONE',  ( 0.000000000000000000, 0.000000000000000000, 0.000000000000000000 ) ) ;
#83 = PLANE ( 'NONE',  #49 ) ;
#84 = UNCERTAINTY_MEASURE_WITH_UNIT (LENGTH_MEASURE( 1.000000000000000082E-05 ), #113, 'distance_accuracy_value', 'NONE');
#85 =( LENGTH_UNIT ( ) NAMED_UNIT ( * ) SI_UNIT ( .MILLI., .METRE. ) );
#86 = ORIENTED_EDGE ( 'NONE', *, *, #150, .T. ) ;
#87 = LINE ( 'NONE', #232, #74 ) ;
#88 = ADVANCED_FACE ( 'NONE', ( #230 ), #11, .F. ) ;
#89 = PRESENTATION_STYLE_ASSIGNMENT (( #209 ) ) ;
#90 = ORIENTED_EDGE ( 'NONE', *, *, #16, .T. ) ;
#91 = FACE_OUTER_BOUND ( 'NONE', #277, .T. ) ;
#92 = COLOUR_RGB ( '',0.7921568627450980005, 0.8196078431372548767, 0.9333333333333333481 ) ;
#93 = EDGE_CURVE ( 'NONE', #135, #272, #87, .T. ) ;
#94 = CARTESIAN_POINT ( 'NONE',  ( -6.000000000000000000, 24.00000000000000000, 0.000000000000000000 ) ) ;
#95 = CARTESIAN_POINT ( 'NONE',  ( -1.469576158976823750E-15, 75.00000000000000000, 0.000000000000000000 ) ) ;
#96 = SURFACE_SIDE_STYLE ('',( #235 ) ) ;
#97 = CIRCLE ( 'NONE', #3, 6.000000000000001776 ) ;
#98 =( GEOMETRIC_REPRESENTATION_CONTEXT ( 3 ) GLOBAL_UNCERTAINTY_ASSIGNED_CONTEXT ( ( #137 ) ) GLOBAL_UNIT_ASSIGNED_CONTEXT ( ( #240, #263, #19 ) ) REPRESENTATION_CONTEXT ( 'NONE', 'WORKASPACE' ) );
#99 = ADVANCED_FACE ( 'NONE', ( #116 ), #158, .T. ) ;
#100 = DIRECTION ( 'NONE',  ( -2.881521880346713429E-17, 1.000000000000000000, -0.000000000000000000 ) ) ;
#101 = CARTESIAN_POINT ( 'NONE',  ( 0.000000000000000000, 0.000000000000000000, -6.000000000000000000 ) ) ;
#102 = PLANE ( 'NONE',  #184 ) ;
#103 = PRESENTATION_STYLE_ASSIGNMENT (( #168 ) ) ;
#104 = VERTEX_POINT ( 'NONE', #185 ) ;
#105 = DIRECTION ( 'NONE',  ( -2.881521880346713429E-17, 1.000000000000000000, -0.000000000000000000 ) ) ;
#106 = PRESENTATION_LAYER_ASSIGNMENT (  '', '', ( #285 ) ) ;
#107 = DIRECTION ( 'NONE',  ( 0.000000000000000000, 1.000000000000000000, 0.000000000000000000 ) ) ;
#108 = DIRECTION ( 'NONE',  ( -1.000000000000000000, 0.000000000000000000, 0.000000000000000000 ) ) ;
#109 = UNCERTAINTY_MEASURE_WITH_UNIT (LENGTH_MEASURE( 1.000000000000000082E-05 ), #21, 'distance_accuracy_value', 'NONE');
#110 = ORIENTED_EDGE ( 'NONE', *, *, #143, .F. ) ;
#111 = AXIS2_PLACEMENT_3D ( 'NONE', #82, #7, #46 ) ;
#112 = CARTESIAN_POINT ( 'NONE',  ( 6.000000000000000000, 75.00000000000000000, 0.000000000000000000 ) ) ;
#113 =( LENGTH_UNIT ( ) NAMED_UNIT ( * ) SI_UNIT ( .MILLI., .METRE. ) );
#114 = EDGE_CURVE ( 'NONE', #10, #104, #244, .T. ) ;
#115 = CIRCLE ( 'NONE', #26, 6.000000000000000000 ) ;
#116 = FACE_OUTER_BOUND ( 'NONE', #275, .T. ) ;
#117 = SURFACE_STYLE_FILL_AREA ( #210 ) ;
#118 = DIRECTION ( 'NONE',  ( 0.000000000000000000, 0.000000000000000000, -1.000000000000000000 ) ) ;
#119 = PRESENTATION_STYLE_ASSIGNMENT (( #191 ) ) ;
#120 = DIRECTION ( 'NONE',  ( -1.000000000000000000, 0.000000000000000000, 0.000000000000000000 ) ) ;
#121 = APPLICATION_CONTEXT ( 'automotive_design' ) ;
#122 = STYLED_ITEM ( 'NONE', ( #89 ), #99 ) ;
#123 = ORIENTED_EDGE ( 'NONE', *, *, #193, .T. ) ;
#124 = SURFACE_STYLE_FILL_AREA ( #64 ) ;
#125 = CARTESIAN_POINT ( 'NONE',  ( 0.000000000000000000, 0.000000000000000000, 0.000000000000000000 ) ) ;
#126 = CIRCLE ( 'NONE', #131, 6.000000000000000000 ) ;
#127 = AXIS2_PLACEMENT_3D ( 'NONE', #95, #100, #239 ) ;
#128 = CARTESIAN_POINT ( 'NONE',  ( 7.347880794884119736E-16, 24.00000000000000000, 6.000000000000000000 ) ) ;
#129 = EDGE_LOOP ( 'NONE', ( #226, #68 ) ) ;
#130 =( NAMED_UNIT ( * ) SI_UNIT ( $, .STERADIAN. ) SOLID_ANGLE_UNIT ( ) );
#131 = AXIS2_PLACEMENT_3D ( 'NONE', #125, #149, #199 ) ;
#132 = ORIENTED_EDGE ( 'NONE', *, *, #219, .F. ) ;
#133 =( NAMED_UNIT ( * ) PLANE_ANGLE_UNIT ( ) SI_UNIT ( $, .RADIAN. ) );
#134 = EDGE_CURVE ( 'NONE', #247, #104, #136, .T. ) ;
#135 = VERTEX_POINT ( 'NONE', #94 ) ;
#136 = LINE ( 'NONE', #153, #270 ) ;
#137 = UNCERTAINTY_MEASURE_WITH_UNIT (LENGTH_MEASURE( 1.000000000000000082E-05 ), #240, 'distance_accuracy_value', 'NONE');
#138 = DIRECTION ( 'NONE',  ( -2.881521880346713429E-17, 1.000000000000000000, -0.000000000000000000 ) ) ;
#139 = EDGE_CURVE ( 'NONE', #255, #135, #145, .T. ) ;
#140 = FILL_AREA_STYLE_COLOUR ( '', #265 ) ;
#141 = CARTESIAN_POINT ( 'NONE',  ( 0.000000000000000000, 24.00000000000000000, 0.000000000000000000 ) ) ;
#142 = AXIS2_PLACEMENT_3D ( 'NONE', #165, #195, #118 ) ;
#143 = EDGE_CURVE ( 'NONE', #272, #229, #97, .T. ) ;
#144 = SHAPE_DEFINITION_REPRESENTATION ( #252, #60 ) ;
#145 = CIRCLE ( 'NONE', #231, 6.000000000000000000 ) ;
#146 = ADVANCED_FACE ( 'NONE', ( #91 ), #234, .T. ) ;
#147 = DIRECTION ( 'NONE',  ( -1.000000000000000000, 0.000000000000000000, 0.000000000000000000 ) ) ;
#148 = CYLINDRICAL_SURFACE ( 'NONE', #23, 6.000000000000000888 ) ;
#149 = DIRECTION ( 'NONE',  ( -0.000000000000000000, -1.000000000000000000, -0.000000000000000000 ) ) ;
#150 = EDGE_CURVE ( 'NONE', #135, #255, #115, .T. ) ;
#151 = AXIS2_PLACEMENT_3D ( 'NONE', #15, #187, #73 ) ;
#152 = ORIENTED_EDGE ( 'NONE', *, *, #258, .T. ) ;
#153 = CARTESIAN_POINT ( 'NONE',  ( 7.347880794884119736E-16, 0.000000000000000000, 6.000000000000000000 ) ) ;
#154 = ORIENTED_EDGE ( 'NONE', *, *, #93, .F. ) ;
#155 = COLOUR_RGB ( '',1.000000000000000000, 0.000000000000000000, 0.000000000000000000 ) ;
#156 = ORIENTED_EDGE ( 'NONE', *, *, #114, .F. ) ;
#157 = STYLED_ITEM ( 'NONE', ( #80 ), #282 ) ;
#158 = CYLINDRICAL_SURFACE ( 'NONE', #215, 6.000000000000000000 ) ;
#159 = DIRECTION ( 'NONE',  ( 0.000000000000000000, 0.000000000000000000, -1.000000000000000000 ) ) ;
#160 = SURFACE_SIDE_STYLE ('',( #69 ) ) ;
#161 = PRODUCT_DEFINITION_CONTEXT ( 'detailed design', #121, 'design' ) ;
#162 = MECHANICAL_DESIGN_GEOMETRIC_PRESENTATION_REPRESENTATION (  '', ( #40 ), #223 ) ;
#163 =( GEOMETRIC_REPRESENTATION_CONTEXT ( 3 ) GLOBAL_UNCERTAINTY_ASSIGNED_CONTEXT ( ( #47 ) ) GLOBAL_UNIT_ASSIGNED_CONTEXT ( ( #286, #220, #76 ) ) REPRESENTATION_CONTEXT ( 'NONE', 'WORKASPACE' ) );
#164 = FACE_OUTER_BOUND ( 'NONE', #177, .T. ) ;
#165 = CARTESIAN_POINT ( 'NONE',  ( 0.000000000000000000, 0.000000000000000000, 0.000000000000000000 ) ) ;
#166 = CIRCLE ( 'NONE', #151, 6.000000000000000000 ) ;
#167 = MECHANICAL_DESIGN_GEOMETRIC_PRESENTATION_REPRESENTATION (  '', ( #157 ), #163 ) ;
#168 = SURFACE_STYLE_USAGE ( .BOTH. , #38 ) ;
#169 = LINE ( 'NONE', #173, #237 ) ;
#170 = ORIENTED_EDGE ( 'NONE', *, *, #16, .F. ) ;
#171 = PRODUCT_RELATED_PRODUCT_CATEGORY ( 'part', '', ( #12 ) ) ;
#172 = ORIENTED_EDGE ( 'NONE', *, *, #150, .F. ) ;
#173 = CARTESIAN_POINT ( 'NONE',  ( 5.999999999999999112, 75.00000000000000000, 7.347880794884120722E-16 ) ) ;
#174 = APPLICATION_PROTOCOL_DEFINITION ( 'draft international standard', 'automotive_design', 1998, #214 ) ;
#175 = CARTESIAN_POINT ( 'NONE',  ( 2.490950504075057843E-33, 24.00000000000000000, 0.000000000000000000 ) ) ;
#176 = PRODUCT_DEFINITION ( 'UNKNOWN', '', #216, #161 ) ;
#177 = EDGE_LOOP ( 'NONE', ( #152, #243, #156, #279 ) ) ;
#178 = UNCERTAINTY_MEASURE_WITH_UNIT (LENGTH_MEASURE( 1.000000000000000082E-05 ), #85, 'distance_accuracy_value', 'NONE');
#179 = VERTEX_POINT ( 'NONE', #267 ) ;
#180 =( NAMED_UNIT ( * ) SI_UNIT ( $, .STERADIAN. ) SOLID_ANGLE_UNIT ( ) );
#181 = DIRECTION ( 'NONE',  ( 0.000000000000000000, 0.000000000000000000, -1.000000000000000000 ) ) ;
#182 = DIRECTION ( 'NONE',  ( 1.000000000000000000, 2.881521880346713429E-17, 0.000000000000000000 ) ) ;
#183 =( GEOMETRIC_REPRESENTATION_CONTEXT ( 3 ) GLOBAL_UNCERTAINTY_ASSIGNED_CONTEXT ( ( #227 ) ) GLOBAL_UNIT_ASSIGNED_CONTEXT ( ( #50, #133, #180 ) ) REPRESENTATION_CONTEXT ( 'NONE', 'WORKASPACE' ) );
#184 = AXIS2_PLACEMENT_3D ( 'NONE', #45, #107, #58 ) ;
#185 = CARTESIAN_POINT ( 'NONE',  ( 7.347880794884119736E-16, 0.000000000000000000, 6.000000000000000000 ) ) ;
#186 = FILL_AREA_STYLE ('',( #283 ) ) ;
#187 = DIRECTION ( 'NONE',  ( -0.000000000000000000, -1.000000000000000000, -0.000000000000000000 ) ) ;
#188 = PRESENTATION_LAYER_ASSIGNMENT (  '', '', ( #122 ) ) ;
#189 = STYLED_ITEM ( 'NONE', ( #103 ), #248 ) ;
#190 = CARTESIAN_POINT ( 'NONE',  ( 6.000000000000000000, 24.00000000000000000, 7.347880794884120722E-16 ) ) ;
#191 = SURFACE_STYLE_USAGE ( .BOTH. , #96 ) ;
#192 = FILL_AREA_STYLE ('',( #20 ) ) ;
#193 = EDGE_CURVE ( 'NONE', #247, #179, #166, .T. ) ;
#194 =( NAMED_UNIT ( * ) PLANE_ANGLE_UNIT ( ) SI_UNIT ( $, .RADIAN. ) );
#195 = DIRECTION ( 'NONE',  ( 0.000000000000000000, -1.000000000000000000, -0.000000000000000000 ) ) ;
#196 = FILL_AREA_STYLE ('',( #140 ) ) ;
#197 = CARTESIAN_POINT ( 'NONE',  ( 6.000000000000000000, 75.00000000000000000, 7.347880794884120722E-16 ) ) ;
#198 =( GEOMETRIC_REPRESENTATION_CONTEXT ( 3 ) GLOBAL_UNCERTAINTY_ASSIGNED_CONTEXT ( ( #257 ) ) GLOBAL_UNIT_ASSIGNED_CONTEXT ( ( #236, #225, #222 ) ) REPRESENTATION_CONTEXT ( 'NONE', 'WORKASPACE' ) );
#199 = DIRECTION ( 'NONE',  ( 0.000000000000000000, 0.000000000000000000, -1.000000000000000000 ) ) ;
#200 = MECHANICAL_DESIGN_GEOMETRIC_PRESENTATION_REPRESENTATION (  '', ( #122 ), #183 ) ;
#201 = COLOUR_RGB ( '',1.000000000000000000, 0.000000000000000000, 0.000000000000000000 ) ;
#202 = APPLICATION_PROTOCOL_DEFINITION ( 'draft international standard', 'automotive_design', 1998, #121 ) ;
#203 = DIRECTION ( 'NONE',  ( -2.881521880346713429E-17, 1.000000000000000000, -0.000000000000000000 ) ) ;
#204 = EDGE_LOOP ( 'NONE', ( #172, #48 ) ) ;
#205 = ADVANCED_FACE ( 'NONE', ( #261 ), #102, .T. ) ;
#206 = ORIENTED_EDGE ( 'NONE', *, *, #139, .T. ) ;
#207 = ORIENTED_EDGE ( 'NONE', *, *, #93, .T. ) ;
#208 = STYLED_ITEM ( 'NONE', ( #119 ), #205 ) ;
#209 = SURFACE_STYLE_USAGE ( .BOTH. , #70 ) ;
#210 = FILL_AREA_STYLE ('',( #251 ) ) ;
#211 = CARTESIAN_POINT ( 'NONE',  ( -1.469576158976823750E-15, 75.00000000000000000, 0.000000000000000000 ) ) ;
#212 = CIRCLE ( 'NONE', #31, 6.000000000000001776 ) ;
#213 = CARTESIAN_POINT ( 'NONE',  ( 0.000000000000000000, 0.000000000000000000, 0.000000000000000000 ) ) ;
#214 = APPLICATION_CONTEXT ( 'automotive_design' ) ;
#215 = AXIS2_PLACEMENT_3D ( 'NONE', #213, #36, #159 ) ;
#216 = PRODUCT_DEFINITION_FORMATION_WITH_SPECIFIED_SOURCE ( 'ANY', '', #12, .NOT_KNOWN. ) ;
#217 = LINE ( 'NONE', #101, #79 ) ;
#218 = FILL_AREA_STYLE ('',( #52 ) ) ;
#219 = EDGE_CURVE ( 'NONE', #255, #229, #169, .T. ) ;
#220 =( NAMED_UNIT ( * ) PLANE_ANGLE_UNIT ( ) SI_UNIT ( $, .RADIAN. ) );
#221 = PRESENTATION_LAYER_ASSIGNMENT (  '', '', ( #40 ) ) ;
#222 =( NAMED_UNIT ( * ) SI_UNIT ( $, .STERADIAN. ) SOLID_ANGLE_UNIT ( ) );
#223 =( GEOMETRIC_REPRESENTATION_CONTEXT ( 3 ) GLOBAL_UNCERTAINTY_ASSIGNED_CONTEXT ( ( #84 ) ) GLOBAL_UNIT_ASSIGNED_CONTEXT ( ( #113, #67, #130 ) ) REPRESENTATION_CONTEXT ( 'NONE', 'WORKASPACE' ) );
#224 = CIRCLE ( 'NONE', #245, 6.000000000000000000 ) ;
#225 =( NAMED_UNIT ( * ) PLANE_ANGLE_UNIT ( ) SI_UNIT ( $, .RADIAN. ) );
#226 = ORIENTED_EDGE ( 'NONE', *, *, #258, .F. ) ;
#227 = UNCERTAINTY_MEASURE_WITH_UNIT (LENGTH_MEASURE( 1.000000000000000082E-05 ), #50, 'distance_accuracy_value', 'NONE');
#228 =( NAMED_UNIT ( * ) PLANE_ANGLE_UNIT ( ) SI_UNIT ( $, .RADIAN. ) );
#229 = VERTEX_POINT ( 'NONE', #197 ) ;
#230 = FACE_OUTER_BOUND ( 'NONE', #254, .T. ) ;
#231 = AXIS2_PLACEMENT_3D ( 'NONE', #280, #35, #13 ) ;
#232 = CARTESIAN_POINT ( 'NONE',  ( -6.000000000000002665, 75.00000000000000000, 0.000000000000000000 ) ) ;
#233 = ORIENTED_EDGE ( 'NONE', *, *, #143, .T. ) ;
#234 = PLANE ( 'NONE',  #142 ) ;
#235 = SURFACE_STYLE_FILL_AREA ( #218 ) ;
#236 =( LENGTH_UNIT ( ) NAMED_UNIT ( * ) SI_UNIT ( .MILLI., .METRE. ) );
#237 = VECTOR ( 'NONE', #24, 1000.000000000000000 ) ;
#238 = SURFACE_STYLE_FILL_AREA ( #192 ) ;
#239 = DIRECTION ( 'NONE',  ( -1.000000000000000000, 0.000000000000000000, 0.000000000000000000 ) ) ;
#240 =( LENGTH_UNIT ( ) NAMED_UNIT ( * ) SI_UNIT ( .MILLI., .METRE. ) );
#241 = SURFACE_SIDE_STYLE ('',( #288 ) ) ;
#242 = PRESENTATION_STYLE_ASSIGNMENT (( #81 ) ) ;
#243 = ORIENTED_EDGE ( 'NONE', *, *, #134, .T. ) ;
#244 = CIRCLE ( 'NONE', #55, 6.000000000000000000 ) ;
#245 = AXIS2_PLACEMENT_3D ( 'NONE', #268, #41, #59 ) ;
#246 = MANIFOLD_SOLID_BREP ( 'Revolve - Tool Body (Straight Shanked)', #43 ) ;
#247 = VERTEX_POINT ( 'NONE', #128 ) ;
#248 = MANIFOLD_SOLID_BREP ( 'Revolve - Cutting Edge', #264 ) ;
#249 = CARTESIAN_POINT ( 'NONE',  ( -1.469576158976823750E-15, 75.00000000000000000, 0.000000000000000000 ) ) ;
#250 = EDGE_CURVE ( 'NONE', #179, #10, #217, .T. ) ;
#251 = FILL_AREA_STYLE_COLOUR ( '', #284 ) ;
#252 = PRODUCT_DEFINITION_SHAPE ( 'NONE', 'NONE',  #176 ) ;
#253 = ORIENTED_EDGE ( 'NONE', *, *, #22, .T. ) ;
#254 = EDGE_LOOP ( 'NONE', ( #233, #90 ) ) ;
#255 = VERTEX_POINT ( 'NONE', #190 ) ;
#256 = DIRECTION ( 'NONE',  ( -0.000000000000000000, -1.000000000000000000, -0.000000000000000000 ) ) ;
#257 = UNCERTAINTY_MEASURE_WITH_UNIT (LENGTH_MEASURE( 1.000000000000000082E-05 ), #236, 'distance_accuracy_value', 'NONE');
#258 = EDGE_CURVE ( 'NONE', #179, #247, #224, .T. ) ;
#259 = SURFACE_STYLE_USAGE ( .BOTH. , #160 ) ;
#260 = AXIS2_PLACEMENT_3D ( 'NONE', #112, #8, #182 ) ;
#261 = FACE_OUTER_BOUND ( 'NONE', #129, .T. ) ;
#262 = CYLINDRICAL_SURFACE ( 'NONE', #17, 6.000000000000000000 ) ;
#263 =( NAMED_UNIT ( * ) PLANE_ANGLE_UNIT ( ) SI_UNIT ( $, .RADIAN. ) );
#264 = CLOSED_SHELL ( 'NONE', ( #282, #205, #99, #146 ) ) ;
#265 = COLOUR_RGB ( '',1.000000000000000000, 0.000000000000000000, 0.000000000000000000 ) ;
#266 = DIRECTION ( 'NONE',  ( -0.000000000000000000, -1.000000000000000000, -0.000000000000000000 ) ) ;
#267 = CARTESIAN_POINT ( 'NONE',  ( 0.000000000000000000, 24.00000000000000000, -6.000000000000000000 ) ) ;
#268 = CARTESIAN_POINT ( 'NONE',  ( 0.000000000000000000, 24.00000000000000000, 0.000000000000000000 ) ) ;
#269 = SURFACE_SIDE_STYLE ('',( #124 ) ) ;
#270 = VECTOR ( 'NONE', #256, 1000.000000000000000 ) ;
#271 = PRESENTATION_LAYER_ASSIGNMENT (  '', '', ( #189 ) ) ;
#272 = VERTEX_POINT ( 'NONE', #57 ) ;
#273 = DIRECTION ( 'NONE',  ( -1.000000000000000000, -2.881521880346713429E-17, 0.000000000000000000 ) ) ;
#274 = ORIENTED_EDGE ( 'NONE', *, *, #22, .F. ) ;
#275 = EDGE_LOOP ( 'NONE', ( #287, #123, #62, #274 ) ) ;
#276 = ADVANCED_FACE ( 'NONE', ( #18 ), #77, .T. ) ;
#277 = EDGE_LOOP ( 'NONE', ( #6, #253 ) ) ;
#278 = DIRECTION ( 'NONE',  ( -0.000000000000000000, -1.000000000000000000, -0.000000000000000000 ) ) ;
#279 = ORIENTED_EDGE ( 'NONE', *, *, #250, .F. ) ;
#280 = CARTESIAN_POINT ( 'NONE',  ( 0.000000000000000000, 24.00000000000000000, 0.000000000000000000 ) ) ;
#281 = COLOUR_RGB ( '',0.7921568627450980005, 0.8196078431372548767, 0.9333333333333333481 ) ;
#282 = ADVANCED_FACE ( 'NONE', ( #164 ), #262, .T. ) ;
#283 = FILL_AREA_STYLE_COLOUR ( '', #155 ) ;
#284 = COLOUR_RGB ( '',1.000000000000000000, 0.000000000000000000, 0.000000000000000000 ) ;
#285 = STYLED_ITEM ( 'NONE', ( #242 ), #246 ) ;
#286 =( LENGTH_UNIT ( ) NAMED_UNIT ( * ) SI_UNIT ( .MILLI., .METRE. ) );
#287 = ORIENTED_EDGE ( 'NONE', *, *, #134, .F. ) ;
#288 = SURFACE_STYLE_FILL_AREA ( #196 ) ;
ENDSEC;
END-ISO-10303-21;
