ISO-10303-21;
HEADER;
FILE_DESCRIPTION (( 'STEP AP214' ),
    '1' );
FILE_NAME ('Micro_RMEM-002-2.STEP',
    '2021-09-01T23:29:01',
    ( '' ),
    ( '' ),
    'SwSTEP 2.0',
    'SolidWorks 2020',
    '' );
FILE_SCHEMA (( 'AUTOMOTIVE_DESIGN' ));
ENDSEC;

DATA;
#1 = EDGE_LOOP ( 'NONE', ( #165, #108 ) ) ;
#2 = SHAPE_DEFINITION_REPRESENTATION ( #84, #205 ) ;
#3 = APPLICATION_CONTEXT ( 'automotive_design' ) ;
#4 = DIRECTION ( 'NONE',  ( -0.0000000000000000000, -0.0000000000000000000, -1.000000000000000000 ) ) ;
#5 = DIRECTION ( 'NONE',  ( 0.1736481776669313581, 0.0000000000000000000, 0.9848077530122077983 ) ) ;
#6 = DIRECTION ( 'NONE',  ( 1.224646799147353207E-16, 0.0000000000000000000, 1.000000000000000000 ) ) ;
#7 = ORIENTED_EDGE ( 'NONE', *, *, #76, .F. ) ;
#8 = AXIS2_PLACEMENT_3D ( 'NONE', #102, #83, #211 ) ;
#9 = EDGE_CURVE ( 'NONE', #251, #131, #29, .T. ) ;
#10 = LINE ( 'NONE', #238, #22 ) ;
#11 = DIRECTION ( 'NONE',  ( 1.000000000000000000, 0.0000000000000000000, 0.0000000000000000000 ) ) ;
#12 = DIRECTION ( 'NONE',  ( 0.7071067811865482389, 8.659560562354941486E-17, -0.7071067811865469066 ) ) ;
#13 = CONICAL_SURFACE ( 'NONE', #64, 0.003933063000000001398, 0.1745329251994338637 ) ;
#14 = CARTESIAN_POINT ( 'NONE',  ( -0.003933062999999999663, 3.856906486872091675E-18, 0.01574799999999999811 ) ) ;
#15 = DIRECTION ( 'NONE',  ( 0.0000000000000000000, 0.0000000000000000000, 1.000000000000000000 ) ) ;
#16 = SURFACE_STYLE_USAGE ( .BOTH. , #65 ) ;
#17 =( LENGTH_UNIT ( ) NAMED_UNIT ( * ) SI_UNIT ( $, .METRE. ) );
#18 = EDGE_CURVE ( 'NONE', #208, #296, #184, .T. ) ;
#19 = VERTEX_POINT ( 'NONE', #139 ) ;
#20 = FILL_AREA_STYLE ('',( #244 ) ) ;
#21 = ORIENTED_EDGE ( 'NONE', *, *, #248, .T. ) ;
#22 = VECTOR ( 'NONE', #106, 39.37007874015748143 ) ;
#23 = VECTOR ( 'NONE', #124, 39.37007874015748143 ) ;
#24 = LINE ( 'NONE', #183, #213 ) ;
#25 = ORIENTED_EDGE ( 'NONE', *, *, #174, .F. ) ;
#26 = DIMENSIONAL_EXPONENTS ( 1.000000000000000000, 0.0000000000000000000, 0.0000000000000000000, 0.0000000000000000000, 0.0000000000000000000, 0.0000000000000000000, 0.0000000000000000000 ) ;
#27 = AXIS2_PLACEMENT_3D ( 'NONE', #35, #58, #122 ) ;
#28 = CARTESIAN_POINT ( 'NONE',  ( 0.0000000000000000000, 0.0000000000000000000, 1.496062999999999921 ) ) ;
#29 = LINE ( 'NONE', #71, #182 ) ;
#30 = PRODUCT ( 'Micro_RMEM-002-2', 'Micro_RMEM-002-2', '', ( #200 ) ) ;
#31 = FACE_OUTER_BOUND ( 'NONE', #273, .T. ) ;
#32 = DIRECTION ( 'NONE',  ( 1.000000000000000000, 0.0000000000000000000, 0.0000000000000000000 ) ) ;
#33 = CIRCLE ( 'NONE', #148, 0.05905500000000000332 ) ;
#34 = CARTESIAN_POINT ( 'NONE',  ( 0.0000000000000000000, 0.0000000000000000000, 0.0000000000000000000 ) ) ;
#35 = CARTESIAN_POINT ( 'NONE',  ( 0.0000000000000000000, 0.0000000000000000000, 1.481062999999999574 ) ) ;
#36 = CARTESIAN_POINT ( 'NONE',  ( 1.928573779297251317E-18, 0.0000000000000000000, 0.01574799999999999811 ) ) ;
#37 = EDGE_CURVE ( 'NONE', #159, #208, #24, .T. ) ;
#38 =( GEOMETRIC_REPRESENTATION_CONTEXT ( 3 ) GLOBAL_UNCERTAINTY_ASSIGNED_CONTEXT ( ( #153 ) ) GLOBAL_UNIT_ASSIGNED_CONTEXT ( ( #155, #126, #192 ) ) REPRESENTATION_CONTEXT ( 'NONE', 'WORKASPACE' ) );
#39 = CARTESIAN_POINT ( 'NONE',  ( 0.003933062999999998796, 4.816613013794884084E-19, -4.816613013794884084E-19 ) ) ;
#40 = SURFACE_STYLE_FILL_AREA ( #20 ) ;
#41 = ORIENTED_EDGE ( 'NONE', *, *, #195, .F. ) ;
#42 = ORIENTED_EDGE ( 'NONE', *, *, #201, .F. ) ;
#43 = LENGTH_MEASURE_WITH_UNIT ( LENGTH_MEASURE( 0.02539999999999999897 ), #150 );
#44 = VECTOR ( 'NONE', #12, 39.37007874015748143 ) ;
#45 = ORIENTED_EDGE ( 'NONE', *, *, #37, .T. ) ;
#46 = DIRECTION ( 'NONE',  ( -1.000000000000000000, 0.0000000000000000000, 0.0000000000000000000 ) ) ;
#47 = FACE_OUTER_BOUND ( 'NONE', #67, .T. ) ;
#48 = AXIS2_PLACEMENT_3D ( 'NONE', #236, #15, #32 ) ;
#49 = EDGE_LOOP ( 'NONE', ( #282, #294, #196, #268 ) ) ;
#50 = DIRECTION ( 'NONE',  ( 0.0000000000000000000, 0.0000000000000000000, 1.000000000000000000 ) ) ;
#51 = CARTESIAN_POINT ( 'NONE',  ( 0.05905500000000000332, 7.232151672364695422E-18, 1.481062999999999574 ) ) ;
#52 = DIRECTION ( 'NONE',  ( 1.224646799147353207E-16, 0.0000000000000000000, 1.000000000000000000 ) ) ;
#53 = PLANE ( 'NONE',  #137 ) ;
#54 = AXIS2_PLACEMENT_3D ( 'NONE', #288, #103, #188 ) ;
#55 = CARTESIAN_POINT ( 'NONE',  ( 0.04405499999999973326, 5.395181473643630390E-18, 1.496062999999999921 ) ) ;
#56 = CLOSED_SHELL ( 'NONE', ( #79, #91, #113, #125, #193, #134, #143, #138, #160, #152 ) ) ;
#57 = CARTESIAN_POINT ( 'NONE',  ( 4.021250709376985475E-17, 0.0000000000000000000, 0.3283600391702111154 ) ) ;
#58 = DIRECTION ( 'NONE',  ( 0.0000000000000000000, 0.0000000000000000000, -1.000000000000000000 ) ) ;
#59 = AXIS2_PLACEMENT_3D ( 'NONE', #285, #264, #167 ) ;
#60 = COLOUR_RGB ( '',0.7921568627450980005, 0.8196078431372548767, 0.9333333333333333481 ) ;
#61 = DIRECTION ( 'NONE',  ( -0.0000000000000000000, -0.0000000000000000000, -1.000000000000000000 ) ) ;
#62 = ORIENTED_EDGE ( 'NONE', *, *, #92, .F. ) ;
#63 =( CONVERSION_BASED_UNIT ( 'INCH', #222 ) LENGTH_UNIT ( ) NAMED_UNIT ( #26 ) );
#64 = AXIS2_PLACEMENT_3D ( 'NONE', #207, #6, #199 ) ;
#65 = SURFACE_SIDE_STYLE ('',( #293 ) ) ;
#66 = ORIENTED_EDGE ( 'NONE', *, *, #224, .T. ) ;
#67 = EDGE_LOOP ( 'NONE', ( #21, #217, #161, #90 ) ) ;
#68 = APPLICATION_PROTOCOL_DEFINITION ( 'draft international standard', 'automotive_design', 1998, #279 ) ;
#69 = DIRECTION ( 'NONE',  ( 0.0000000000000000000, 0.0000000000000000000, -1.000000000000000000 ) ) ;
#70 = MECHANICAL_DESIGN_GEOMETRIC_PRESENTATION_REPRESENTATION (  '', ( #164 ), #38 ) ;
#71 = CARTESIAN_POINT ( 'NONE',  ( 0.003933063000000004000, 0.0000000000000000000, 0.01574799999999999811 ) ) ;
#72 = EDGE_LOOP ( 'NONE', ( #156, #151, #62, #133 ) ) ;
#73 = VERTEX_POINT ( 'NONE', #114 ) ;
#74 =( GEOMETRIC_REPRESENTATION_CONTEXT ( 3 ) GLOBAL_UNCERTAINTY_ASSIGNED_CONTEXT ( ( #220 ) ) GLOBAL_UNIT_ASSIGNED_CONTEXT ( ( #63, #128, #243 ) ) REPRESENTATION_CONTEXT ( 'NONE', 'WORKASPACE' ) );
#75 = DIRECTION ( 'NONE',  ( 1.000000000000000000, 0.0000000000000000000, 0.0000000000000000000 ) ) ;
#76 = EDGE_CURVE ( 'NONE', #110, #208, #33, .T. ) ;
#77 = FACE_OUTER_BOUND ( 'NONE', #85, .T. ) ;
#78 = DIRECTION ( 'NONE',  ( -1.224646799147353207E-16, -0.0000000000000000000, -1.000000000000000000 ) ) ;
#79 = ADVANCED_FACE ( 'NONE', ( #259 ), #116, .T. ) ;
#80 = DIRECTION ( 'NONE',  ( 0.0000000000000000000, 0.0000000000000000000, 1.000000000000000000 ) ) ;
#81 = AXIS2_PLACEMENT_3D ( 'NONE', #34, #78, #284 ) ;
#82 = CYLINDRICAL_SURFACE ( 'NONE', #287, 0.05905500000000000332 ) ;
#83 = DIRECTION ( 'NONE',  ( -1.224646799147353207E-16, -0.0000000000000000000, -1.000000000000000000 ) ) ;
#84 = PRODUCT_DEFINITION_SHAPE ( 'NONE', 'NONE',  #187 ) ;
#85 = EDGE_LOOP ( 'NONE', ( #42, #249, #45, #7 ) ) ;
#86 = FILL_AREA_STYLE_COLOUR ( '', #263 ) ;
#87 = ORIENTED_EDGE ( 'NONE', *, *, #9, .F. ) ;
#88 = AXIS2_PLACEMENT_3D ( 'NONE', #57, #119, #11 ) ;
#89 = LINE ( 'NONE', #271, #107 ) ;
#90 = ORIENTED_EDGE ( 'NONE', *, *, #18, .F. ) ;
#91 = ADVANCED_FACE ( 'NONE', ( #31 ), #13, .T. ) ;
#92 = EDGE_CURVE ( 'NONE', #73, #19, #272, .T. ) ;
#93 = DIRECTION ( 'NONE',  ( -0.0000000000000000000, -0.0000000000000000000, -1.000000000000000000 ) ) ;
#94 = VECTOR ( 'NONE', #4, 39.37007874015748143 ) ;
#95 = CIRCLE ( 'NONE', #27, 0.05905500000000000332 ) ;
#96 = PRODUCT_DEFINITION_FORMATION_WITH_SPECIFIED_SOURCE ( 'ANY', '', #30, .NOT_KNOWN. ) ;
#97 = CYLINDRICAL_SURFACE ( 'NONE', #180, 0.05905500000000000332 ) ;
#98 = ORIENTED_EDGE ( 'NONE', *, *, #37, .F. ) ;
#99 = EDGE_LOOP ( 'NONE', ( #292, #232, #158, #245 ) ) ;
#100 = PRESENTATION_LAYER_ASSIGNMENT (  '', '', ( #164 ) ) ;
#101 = DIRECTION ( 'NONE',  ( -1.000000000000000000, 0.0000000000000000000, 0.0000000000000000000 ) ) ;
#102 = CARTESIAN_POINT ( 'NONE',  ( 5.898649710075387327E-35, 0.0000000000000000000, 4.816613013794881195E-19 ) ) ;
#103 = DIRECTION ( 'NONE',  ( 0.0000000000000000000, 0.0000000000000000000, -1.000000000000000000 ) ) ;
#104 = CARTESIAN_POINT ( 'NONE',  ( 0.003933063000000004000, 0.0000000000000000000, 0.01574799999999999811 ) ) ;
#105 = CIRCLE ( 'NONE', #88, 0.05905500000000000332 ) ;
#106 = DIRECTION ( 'NONE',  ( -1.224646799147353207E-16, -0.0000000000000000000, -1.000000000000000000 ) ) ;
#107 = VECTOR ( 'NONE', #61, 39.37007874015748143 ) ;
#108 = ORIENTED_EDGE ( 'NONE', *, *, #242, .T. ) ;
#109 = PRODUCT_DEFINITION_CONTEXT ( 'detailed design', #279, 'design' ) ;
#110 = VERTEX_POINT ( 'NONE', #51 ) ;
#111 = VERTEX_POINT ( 'NONE', #118 ) ;
#112 = AXIS2_PLACEMENT_3D ( 'NONE', #28, #204, #146 ) ;
#113 = ADVANCED_FACE ( 'NONE', ( #136 ), #185, .T. ) ;
#114 = CARTESIAN_POINT ( 'NONE',  ( -0.003933062999999995327, 0.0000000000000000000, 9.633226027589762390E-19 ) ) ;
#115 = DIRECTION ( 'NONE',  ( -1.000000000000000000, 0.0000000000000000000, 1.224646799147352961E-16 ) ) ;
#116 = CYLINDRICAL_SURFACE ( 'NONE', #240, 0.003933062999999998796 ) ;
#117 = CARTESIAN_POINT ( 'NONE',  ( 0.0000000000000000000, 0.0000000000000000000, 0.0000000000000000000 ) ) ;
#118 = CARTESIAN_POINT ( 'NONE',  ( 0.04405499999999973326, 6.313666573004162521E-18, 1.496062999999999921 ) ) ;
#119 = DIRECTION ( 'NONE',  ( -1.224646799147353207E-16, -0.0000000000000000000, -1.000000000000000000 ) ) ;
#120 = CARTESIAN_POINT ( 'NONE',  ( 0.0000000000000000000, 0.0000000000000000000, 1.496062999999999921 ) ) ;
#121 = LINE ( 'NONE', #39, #23 ) ;
#122 = DIRECTION ( 'NONE',  ( 1.000000000000000000, 0.0000000000000000000, 0.0000000000000000000 ) ) ;
#123 = AXIS2_PLACEMENT_3D ( 'NONE', #239, #266, #214 ) ;
#124 = DIRECTION ( 'NONE',  ( -1.224646799147353207E-16, -0.0000000000000000000, -1.000000000000000000 ) ) ;
#125 = ADVANCED_FACE ( 'NONE', ( #47 ), #97, .T. ) ;
#126 =( NAMED_UNIT ( * ) PLANE_ANGLE_UNIT ( ) SI_UNIT ( $, .RADIAN. ) );
#127 = SURFACE_SIDE_STYLE ('',( #40 ) ) ;
#128 =( NAMED_UNIT ( * ) PLANE_ANGLE_UNIT ( ) SI_UNIT ( $, .RADIAN. ) );
#129 = UNCERTAINTY_MEASURE_WITH_UNIT (LENGTH_MEASURE( 1.000000000000000082E-05 ), #175, 'distance_accuracy_value', 'NONE');
#130 =( NAMED_UNIT ( * ) PLANE_ANGLE_UNIT ( ) SI_UNIT ( $, .RADIAN. ) );
#131 = VERTEX_POINT ( 'NONE', #275 ) ;
#132 = AXIS2_PLACEMENT_3D ( 'NONE', #281, #50, #140 ) ;
#133 = ORIENTED_EDGE ( 'NONE', *, *, #237, .F. ) ;
#134 = ADVANCED_FACE ( 'NONE', ( #179 ), #230, .T. ) ;
#135 = ORIENTED_EDGE ( 'NONE', *, *, #262, .F. ) ;
#136 = FACE_OUTER_BOUND ( 'NONE', #197, .T. ) ;
#137 = AXIS2_PLACEMENT_3D ( 'NONE', #289, #142, #286 ) ;
#138 = ADVANCED_FACE ( 'NONE', ( #186 ), #154, .T. ) ;
#139 = CARTESIAN_POINT ( 'NONE',  ( 0.003933062999999995327, 4.816613013794882158E-19, 1.184750211852384294E-34 ) ) ;
#140 = DIRECTION ( 'NONE',  ( 1.000000000000000000, 0.0000000000000000000, 0.0000000000000000000 ) ) ;
#141 = CARTESIAN_POINT ( 'NONE',  ( 0.0000000000000000000, 0.0000000000000000000, 1.496062999999999921 ) ) ;
#142 = DIRECTION ( 'NONE',  ( 0.0000000000000000000, 0.0000000000000000000, 1.000000000000000000 ) ) ;
#143 = ADVANCED_FACE ( 'NONE', ( #77 ), #235, .T. ) ;
#144 = DIRECTION ( 'NONE',  ( -0.1736481776669311639, 2.126576849575783008E-17, 0.9848077530122080203 ) ) ;
#145 = CARTESIAN_POINT ( 'NONE',  ( -0.003933062999999999663, 4.816613013794888899E-19, 0.01574799999999999811 ) ) ;
#146 = DIRECTION ( 'NONE',  ( 1.000000000000000000, 0.0000000000000000000, -0.0000000000000000000 ) ) ;
#147 = DIRECTION ( 'NONE',  ( -1.224646799147353207E-16, -0.0000000000000000000, -1.000000000000000000 ) ) ;
#148 = AXIS2_PLACEMENT_3D ( 'NONE', #280, #229, #75 ) ;
#149 = EDGE_CURVE ( 'NONE', #251, #19, #121, .T. ) ;
#150 =( LENGTH_UNIT ( ) NAMED_UNIT ( * ) SI_UNIT ( $, .METRE. ) );
#151 = ORIENTED_EDGE ( 'NONE', *, *, #149, .T. ) ;
#152 = ADVANCED_FACE ( 'NONE', ( #210 ), #53, .F. ) ;
#153 = UNCERTAINTY_MEASURE_WITH_UNIT (LENGTH_MEASURE( 1.000000000000000082E-05 ), #155, 'distance_accuracy_value', 'NONE');
#154 = CONICAL_SURFACE ( 'NONE', #231, 0.003933063000000001398, 0.1745329251994338637 ) ;
#155 =( CONVERSION_BASED_UNIT ( 'INCH', #43 ) LENGTH_UNIT ( ) NAMED_UNIT ( #276 ) );
#156 = ORIENTED_EDGE ( 'NONE', *, *, #262, .T. ) ;
#157 =( LENGTH_UNIT ( ) NAMED_UNIT ( * ) SI_UNIT ( $, .METRE. ) );
#158 = ORIENTED_EDGE ( 'NONE', *, *, #18, .T. ) ;
#159 = VERTEX_POINT ( 'NONE', #189 ) ;
#160 = ADVANCED_FACE ( 'NONE', ( #234 ), #190, .T. ) ;
#161 = ORIENTED_EDGE ( 'NONE', *, *, #228, .F. ) ;
#162 = DIRECTION ( 'NONE',  ( -0.7071067811865482389, 0.0000000000000000000, -0.7071067811865469066 ) ) ;
#163 = DIRECTION ( 'NONE',  ( -1.224646799147353207E-16, -0.0000000000000000000, -1.000000000000000000 ) ) ;
#164 = STYLED_ITEM ( 'NONE', ( #250 ), #269 ) ;
#165 = ORIENTED_EDGE ( 'NONE', *, *, #92, .T. ) ;
#166 = DIRECTION ( 'NONE',  ( -1.000000000000000000, 0.0000000000000000000, 0.0000000000000000000 ) ) ;
#167 = DIRECTION ( 'NONE',  ( -1.000000000000000000, 0.0000000000000000000, 0.0000000000000000000 ) ) ;
#168 = AXIS2_PLACEMENT_3D ( 'NONE', #170, #80, #260 ) ;
#169 = DIRECTION ( 'NONE',  ( 1.000000000000000000, 0.0000000000000000000, 0.0000000000000000000 ) ) ;
#170 = CARTESIAN_POINT ( 'NONE',  ( 0.0000000000000000000, 0.0000000000000000000, 1.496062999999999921 ) ) ;
#171 = LINE ( 'NONE', #55, #44 ) ;
#172 = CIRCLE ( 'NONE', #298, 0.003933063000000001398 ) ;
#173 = ORIENTED_EDGE ( 'NONE', *, *, #228, .T. ) ;
#174 = EDGE_CURVE ( 'NONE', #251, #257, #283, .T. ) ;
#175 =( CONVERSION_BASED_UNIT ( 'INCH', #270 ) LENGTH_UNIT ( ) NAMED_UNIT ( #198 ) );
#176 = CIRCLE ( 'NONE', #168, 0.04405499999999973326 ) ;
#177 =( GEOMETRIC_REPRESENTATION_CONTEXT ( 3 ) GLOBAL_UNCERTAINTY_ASSIGNED_CONTEXT ( ( #129 ) ) GLOBAL_UNIT_ASSIGNED_CONTEXT ( ( #175, #130, #274 ) ) REPRESENTATION_CONTEXT ( 'NONE', 'WORKASPACE' ) );
#178 = EDGE_LOOP ( 'NONE', ( #223, #25, #181, #221 ) ) ;
#179 = FACE_OUTER_BOUND ( 'NONE', #253, .T. ) ;
#180 = AXIS2_PLACEMENT_3D ( 'NONE', #255, #93, #46 ) ;
#181 = ORIENTED_EDGE ( 'NONE', *, *, #9, .T. ) ;
#182 = VECTOR ( 'NONE', #5, 39.37007874015748143 ) ;
#183 = CARTESIAN_POINT ( 'NONE',  ( -0.04405499999999973326, 0.0000000000000000000, 1.496062999999999921 ) ) ;
#184 = LINE ( 'NONE', #278, #94 ) ;
#185 = CONICAL_SURFACE ( 'NONE', #247, 0.04405499999999973326, 0.7853981633974491672 ) ;
#186 = FACE_OUTER_BOUND ( 'NONE', #178, .T. ) ;
#187 = PRODUCT_DEFINITION ( 'UNKNOWN', '', #96, #109 ) ;
#188 = DIRECTION ( 'NONE',  ( -1.000000000000000000, 0.0000000000000000000, 0.0000000000000000000 ) ) ;
#189 = CARTESIAN_POINT ( 'NONE',  ( -0.04405499999999973326, 0.0000000000000000000, 1.496062999999999921 ) ) ;
#190 = CYLINDRICAL_SURFACE ( 'NONE', #81, 0.003933062999999998796 ) ;
#191 = CARTESIAN_POINT ( 'NONE',  ( 1.928573779297251317E-18, 0.0000000000000000000, 0.01574799999999999811 ) ) ;
#192 =( NAMED_UNIT ( * ) SI_UNIT ( $, .STERADIAN. ) SOLID_ANGLE_UNIT ( ) );
#193 = ADVANCED_FACE ( 'NONE', ( #212 ), #82, .T. ) ;
#194 = CIRCLE ( 'NONE', #48, 0.04405499999999973326 ) ;
#195 = EDGE_CURVE ( 'NONE', #111, #159, #176, .T. ) ;
#196 = ORIENTED_EDGE ( 'NONE', *, *, #237, .T. ) ;
#197 = EDGE_LOOP ( 'NONE', ( #41, #277, #227, #98 ) ) ;
#198 = DIMENSIONAL_EXPONENTS ( 1.000000000000000000, 0.0000000000000000000, 0.0000000000000000000, 0.0000000000000000000, 0.0000000000000000000, 0.0000000000000000000, 0.0000000000000000000 ) ;
#199 = DIRECTION ( 'NONE',  ( 1.000000000000000000, 0.0000000000000000000, 0.0000000000000000000 ) ) ;
#200 = PRODUCT_CONTEXT ( 'NONE', #3, 'mechanical' ) ;
#201 = EDGE_CURVE ( 'NONE', #111, #110, #171, .T. ) ;
#202 = DIRECTION ( 'NONE',  ( -1.000000000000000000, 0.0000000000000000000, 1.224646799147353207E-16 ) ) ;
#203 = STYLED_ITEM ( 'NONE', ( #295 ), #205 ) ;
#204 = DIRECTION ( 'NONE',  ( 0.0000000000000000000, 0.0000000000000000000, 1.000000000000000000 ) ) ;
#205 = ADVANCED_BREP_SHAPE_REPRESENTATION ( 'Micro_RMEM-002-2', ( #269, #132 ), #74 ) ;
#206 = PRODUCT_RELATED_PRODUCT_CATEGORY ( 'part', '', ( #30 ) ) ;
#207 = CARTESIAN_POINT ( 'NONE',  ( 1.928573779297251317E-18, 0.0000000000000000000, 0.01574799999999999811 ) ) ;
#208 = VERTEX_POINT ( 'NONE', #215 ) ;
#209 = AXIS2_PLACEMENT_3D ( 'NONE', #256, #233, #202 ) ;
#210 = FACE_OUTER_BOUND ( 'NONE', #1, .T. ) ;
#211 = DIRECTION ( 'NONE',  ( -1.000000000000000000, 0.0000000000000000000, 1.224646799147353207E-16 ) ) ;
#212 = FACE_OUTER_BOUND ( 'NONE', #99, .T. ) ;
#213 = VECTOR ( 'NONE', #162, 39.37007874015748143 ) ;
#214 = DIRECTION ( 'NONE',  ( 1.000000000000000000, 0.0000000000000000000, 0.0000000000000000000 ) ) ;
#215 = CARTESIAN_POINT ( 'NONE',  ( -0.05905500000000000332, 0.0000000000000000000, 1.481062999999999574 ) ) ;
#216 = EDGE_CURVE ( 'NONE', #257, #296, #265, .T. ) ;
#217 = ORIENTED_EDGE ( 'NONE', *, *, #290, .T. ) ;
#218 = SURFACE_STYLE_USAGE ( .BOTH. , #127 ) ;
#219 = PRESENTATION_LAYER_ASSIGNMENT (  '', '', ( #203 ) ) ;
#220 = UNCERTAINTY_MEASURE_WITH_UNIT (LENGTH_MEASURE( 1.000000000000000082E-05 ), #63, 'distance_accuracy_value', 'NONE');
#221 = ORIENTED_EDGE ( 'NONE', *, *, #254, .T. ) ;
#222 = LENGTH_MEASURE_WITH_UNIT ( LENGTH_MEASURE( 0.02539999999999999897 ), #157 );
#223 = ORIENTED_EDGE ( 'NONE', *, *, #216, .F. ) ;
#224 = EDGE_CURVE ( 'NONE', #159, #111, #194, .T. ) ;
#225 = CIRCLE ( 'NONE', #8, 0.003933062999999995327 ) ;
#226 = ORIENTED_EDGE ( 'NONE', *, *, #195, .T. ) ;
#227 = ORIENTED_EDGE ( 'NONE', *, *, #248, .F. ) ;
#228 = EDGE_CURVE ( 'NONE', #296, #131, #105, .T. ) ;
#229 = DIRECTION ( 'NONE',  ( 0.0000000000000000000, 0.0000000000000000000, -1.000000000000000000 ) ) ;
#230 = PLANE ( 'NONE',  #112 ) ;
#231 = AXIS2_PLACEMENT_3D ( 'NONE', #36, #52, #169 ) ;
#232 = ORIENTED_EDGE ( 'NONE', *, *, #76, .T. ) ;
#233 = DIRECTION ( 'NONE',  ( -1.224646799147353207E-16, -0.0000000000000000000, -1.000000000000000000 ) ) ;
#234 = FACE_OUTER_BOUND ( 'NONE', #49, .T. ) ;
#235 = CONICAL_SURFACE ( 'NONE', #54, 0.04405499999999973326, 0.7853981633974491672 ) ;
#236 = CARTESIAN_POINT ( 'NONE',  ( 0.0000000000000000000, 0.0000000000000000000, 1.496062999999999921 ) ) ;
#237 = EDGE_CURVE ( 'NONE', #257, #73, #10, .T. ) ;
#238 = CARTESIAN_POINT ( 'NONE',  ( -0.003933062999999998796, 0.0000000000000000000, 4.816613013794884084E-19 ) ) ;
#239 = CARTESIAN_POINT ( 'NONE',  ( 4.021250709376985475E-17, 0.0000000000000000000, 0.3283600391702111154 ) ) ;
#240 = AXIS2_PLACEMENT_3D ( 'NONE', #117, #163, #115 ) ;
#241 = DIRECTION ( 'NONE',  ( -1.000000000000000000, 0.0000000000000000000, 0.0000000000000000000 ) ) ;
#242 = EDGE_CURVE ( 'NONE', #19, #73, #225, .T. ) ;
#243 =( NAMED_UNIT ( * ) SI_UNIT ( $, .STERADIAN. ) SOLID_ANGLE_UNIT ( ) );
#244 = FILL_AREA_STYLE_COLOUR ( '', #60 ) ;
#245 = ORIENTED_EDGE ( 'NONE', *, *, #254, .F. ) ;
#246 = APPLICATION_PROTOCOL_DEFINITION ( 'draft international standard', 'automotive_design', 1998, #3 ) ;
#247 = AXIS2_PLACEMENT_3D ( 'NONE', #141, #69, #101 ) ;
#248 = EDGE_CURVE ( 'NONE', #208, #110, #95, .T. ) ;
#249 = ORIENTED_EDGE ( 'NONE', *, *, #224, .F. ) ;
#250 = PRESENTATION_STYLE_ASSIGNMENT (( #16 ) ) ;
#251 = VERTEX_POINT ( 'NONE', #104 ) ;
#252 = VECTOR ( 'NONE', #144, 39.37007874015747433 ) ;
#253 = EDGE_LOOP ( 'NONE', ( #66, #226 ) ) ;
#254 = EDGE_CURVE ( 'NONE', #131, #296, #258, .T. ) ;
#255 = CARTESIAN_POINT ( 'NONE',  ( 0.0000000000000000000, 0.0000000000000000000, 1.496062999999999921 ) ) ;
#256 = CARTESIAN_POINT ( 'NONE',  ( 5.898649710075387327E-35, 0.0000000000000000000, 4.816613013794881195E-19 ) ) ;
#257 = VERTEX_POINT ( 'NONE', #14 ) ;
#258 = CIRCLE ( 'NONE', #123, 0.05905500000000000332 ) ;
#259 = FACE_OUTER_BOUND ( 'NONE', #72, .T. ) ;
#260 = DIRECTION ( 'NONE',  ( 1.000000000000000000, 0.0000000000000000000, 0.0000000000000000000 ) ) ;
#261 = DIRECTION ( 'NONE',  ( -0.0000000000000000000, -0.0000000000000000000, -1.000000000000000000 ) ) ;
#262 = EDGE_CURVE ( 'NONE', #257, #251, #172, .T. ) ;
#263 = COLOUR_RGB ( '',0.7921568627450980005, 0.8196078431372548767, 0.9333333333333333481 ) ;
#264 = DIRECTION ( 'NONE',  ( -1.224646799147353207E-16, -0.0000000000000000000, -1.000000000000000000 ) ) ;
#265 = LINE ( 'NONE', #145, #252 ) ;
#266 = DIRECTION ( 'NONE',  ( -1.224646799147353207E-16, -0.0000000000000000000, -1.000000000000000000 ) ) ;
#267 = MECHANICAL_DESIGN_GEOMETRIC_PRESENTATION_REPRESENTATION (  '', ( #203 ), #177 ) ;
#268 = ORIENTED_EDGE ( 'NONE', *, *, #242, .F. ) ;
#269 = MANIFOLD_SOLID_BREP ( 'Cut-Revolve1', #56 ) ;
#270 = LENGTH_MEASURE_WITH_UNIT ( LENGTH_MEASURE( 0.02539999999999999897 ), #17 );
#271 = CARTESIAN_POINT ( 'NONE',  ( 0.05905500000000000332, 7.232151672364695422E-18, 1.496062999999999921 ) ) ;
#272 = CIRCLE ( 'NONE', #209, 0.003933062999999995327 ) ;
#273 = EDGE_LOOP ( 'NONE', ( #135, #299, #173, #87 ) ) ;
#274 =( NAMED_UNIT ( * ) SI_UNIT ( $, .STERADIAN. ) SOLID_ANGLE_UNIT ( ) );
#275 = CARTESIAN_POINT ( 'NONE',  ( 0.05905500000000004496, 7.232151672364700045E-18, 0.3283600391702111154 ) ) ;
#276 = DIMENSIONAL_EXPONENTS ( 1.000000000000000000, 0.0000000000000000000, 0.0000000000000000000, 0.0000000000000000000, 0.0000000000000000000, 0.0000000000000000000, 0.0000000000000000000 ) ;
#277 = ORIENTED_EDGE ( 'NONE', *, *, #201, .T. ) ;
#278 = CARTESIAN_POINT ( 'NONE',  ( -0.05905500000000000332, 0.0000000000000000000, 1.496062999999999921 ) ) ;
#279 = APPLICATION_CONTEXT ( 'automotive_design' ) ;
#280 = CARTESIAN_POINT ( 'NONE',  ( 0.0000000000000000000, 0.0000000000000000000, 1.481062999999999574 ) ) ;
#281 = CARTESIAN_POINT ( 'NONE',  ( 0.0000000000000000000, 0.0000000000000000000, 0.0000000000000000000 ) ) ;
#282 = ORIENTED_EDGE ( 'NONE', *, *, #149, .F. ) ;
#283 = CIRCLE ( 'NONE', #59, 0.003933063000000001398 ) ;
#284 = DIRECTION ( 'NONE',  ( -1.000000000000000000, 0.0000000000000000000, 1.224646799147352961E-16 ) ) ;
#285 = CARTESIAN_POINT ( 'NONE',  ( 1.928573779297251317E-18, 0.0000000000000000000, 0.01574799999999999811 ) ) ;
#286 = DIRECTION ( 'NONE',  ( 1.000000000000000000, 0.0000000000000000000, -0.0000000000000000000 ) ) ;
#287 = AXIS2_PLACEMENT_3D ( 'NONE', #120, #261, #166 ) ;
#288 = CARTESIAN_POINT ( 'NONE',  ( 0.0000000000000000000, 0.0000000000000000000, 1.496062999999999921 ) ) ;
#289 = CARTESIAN_POINT ( 'NONE',  ( 0.0000000000000000000, 0.0000000000000000000, 0.0000000000000000000 ) ) ;
#290 = EDGE_CURVE ( 'NONE', #110, #131, #89, .T. ) ;
#291 = CARTESIAN_POINT ( 'NONE',  ( -0.05905499999999996169, 0.0000000000000000000, 0.3283600391702111154 ) ) ;
#292 = ORIENTED_EDGE ( 'NONE', *, *, #290, .F. ) ;
#293 = SURFACE_STYLE_FILL_AREA ( #297 ) ;
#294 = ORIENTED_EDGE ( 'NONE', *, *, #174, .T. ) ;
#295 = PRESENTATION_STYLE_ASSIGNMENT (( #218 ) ) ;
#296 = VERTEX_POINT ( 'NONE', #291 ) ;
#297 = FILL_AREA_STYLE ('',( #86 ) ) ;
#298 = AXIS2_PLACEMENT_3D ( 'NONE', #191, #147, #241 ) ;
#299 = ORIENTED_EDGE ( 'NONE', *, *, #216, .T. ) ;
ENDSEC;
END-ISO-10303-21;
