ISO-10303-21;
HEADER;
FILE_DESCRIPTION (( 'STEP AP214' ),
    '1' );
FILE_NAME ('Micro_BEM-187-02X.STEP',
    '2021-09-03T13:04:51',
    ( '' ),
    ( '' ),
    'SwSTEP 2.0',
    'SolidWorks 2020',
    '' );
FILE_SCHEMA (( 'AUTOMOTIVE_DESIGN' ));
ENDSEC;

DATA;
#1 = CARTESIAN_POINT ( 'NONE',  ( -0.09365624999999992706, 1.147532321013543253E-17, 0.6250000000000000000 ) ) ;
#2 = FACE_OUTER_BOUND ( 'NONE', #46, .T. ) ;
#3 = ADVANCED_FACE ( 'NONE', ( #205 ), #125, .T. ) ;
#4 = ORIENTED_EDGE ( 'NONE', *, *, #154, .F. ) ;
#5 = AXIS2_PLACEMENT_3D ( 'NONE', #229, #299, #75 ) ;
#6 = FACE_OUTER_BOUND ( 'NONE', #56, .T. ) ;
#7 = PLANE ( 'NONE',  #97 ) ;
#8 = DIRECTION ( 'NONE',  ( -1.224646799147353207E-16, -0.0000000000000000000, -1.000000000000000000 ) ) ;
#9 = VECTOR ( 'NONE', #187, 39.37007874015748143 ) ;
#10 = ADVANCED_FACE ( 'NONE', ( #19 ), #206, .T. ) ;
#11 =( CONVERSION_BASED_UNIT ( 'INCH', #110 ) LENGTH_UNIT ( ) NAMED_UNIT ( #238 ) );
#12 = FACE_OUTER_BOUND ( 'NONE', #98, .T. ) ;
#13 = PRODUCT_DEFINITION ( 'UNKNOWN', '', #146, #260 ) ;
#14 = ORIENTED_EDGE ( 'NONE', *, *, #177, .T. ) ;
#15 = VERTEX_POINT ( 'NONE', #50 ) ;
#16 = STYLED_ITEM ( 'NONE', ( #312 ), #70 ) ;
#17 = AXIS2_PLACEMENT_3D ( 'NONE', #192, #309, #211 ) ;
#18 = ORIENTED_EDGE ( 'NONE', *, *, #108, .F. ) ;
#19 = FACE_OUTER_BOUND ( 'NONE', #27, .T. ) ;
#20 = ORIENTED_EDGE ( 'NONE', *, *, #108, .T. ) ;
#21 = VERTEX_POINT ( 'NONE', #1 ) ;
#22 = AXIS2_PLACEMENT_3D ( 'NONE', #64, #163, #264 ) ;
#23 = ORIENTED_EDGE ( 'NONE', *, *, #86, .F. ) ;
#24 = EDGE_CURVE ( 'NONE', #21, #148, #102, .T. ) ;
#25 = CARTESIAN_POINT ( 'NONE',  ( 0.0000000000000000000, 0.0000000000000000000, 1.984999999999999654 ) ) ;
#26 = SHAPE_DEFINITION_REPRESENTATION ( #41, #120 ) ;
#27 = EDGE_LOOP ( 'NONE', ( #178, #176, #129 ) ) ;
#28 = DIRECTION ( 'NONE',  ( -1.000000000000000000, 0.0000000000000000000, 1.224646799147352961E-16 ) ) ;
#29 = CARTESIAN_POINT ( 'NONE',  ( 0.07874999999999980627, 9.644093543285380530E-18, 2.000000000000000000 ) ) ;
#30 =( GEOMETRIC_REPRESENTATION_CONTEXT ( 3 ) GLOBAL_UNCERTAINTY_ASSIGNED_CONTEXT ( ( #60 ) ) GLOBAL_UNIT_ASSIGNED_CONTEXT ( ( #39, #34, #83 ) ) REPRESENTATION_CONTEXT ( 'NONE', 'WORKASPACE' ) );
#31 = LINE ( 'NONE', #233, #168 ) ;
#32 = CYLINDRICAL_SURFACE ( 'NONE', #274, 0.09375000000000001388 ) ;
#33 = DIRECTION ( 'NONE',  ( 0.0000000000000000000, 0.0000000000000000000, -1.000000000000000000 ) ) ;
#34 =( NAMED_UNIT ( * ) PLANE_ANGLE_UNIT ( ) SI_UNIT ( $, .RADIAN. ) );
#35 = DIRECTION ( 'NONE',  ( -1.224646799147353207E-16, -0.0000000000000000000, -1.000000000000000000 ) ) ;
#36 = ADVANCED_FACE ( 'NONE', ( #132 ), #113, .T. ) ;
#37 = FILL_AREA_STYLE_COLOUR ( '', #118 ) ;
#38 = MECHANICAL_DESIGN_GEOMETRIC_PRESENTATION_REPRESENTATION (  '', ( #131 ), #30 ) ;
#39 =( CONVERSION_BASED_UNIT ( 'INCH', #268 ) LENGTH_UNIT ( ) NAMED_UNIT ( #272 ) );
#40 = FILL_AREA_STYLE ('',( #37 ) ) ;
#41 = PRODUCT_DEFINITION_SHAPE ( 'NONE', 'NONE',  #13 ) ;
#42 = CARTESIAN_POINT ( 'NONE',  ( 0.0000000000000000000, 0.0000000000000000000, 2.000000000000000000 ) ) ;
#43 = AXIS2_PLACEMENT_3D ( 'NONE', #223, #316, #261 ) ;
#44 = EDGE_CURVE ( 'NONE', #173, #116, #90, .T. ) ;
#45 = SURFACE_SIDE_STYLE ('',( #220 ) ) ;
#46 = EDGE_LOOP ( 'NONE', ( #158, #256, #179, #277 ) ) ;
#47 = AXIS2_PLACEMENT_3D ( 'NONE', #84, #239, #240 ) ;
#48 = ORIENTED_EDGE ( 'NONE', *, *, #224, .T. ) ;
#49 = EDGE_CURVE ( 'NONE', #121, #253, #174, .T. ) ;
#50 = CARTESIAN_POINT ( 'NONE',  ( 0.09375000000000006939, 1.148106374200644633E-17, 0.6255316826705892286 ) ) ;
#51 = ORIENTED_EDGE ( 'NONE', *, *, #101, .T. ) ;
#52 = VECTOR ( 'NONE', #160, 39.37007874015748143 ) ;
#53 = AXIS2_PLACEMENT_3D ( 'NONE', #25, #181, #100 ) ;
#54 = ORIENTED_EDGE ( 'NONE', *, *, #86, .T. ) ;
#55 = DIRECTION ( 'NONE',  ( 1.000000000000000000, 0.0000000000000000000, 0.0000000000000000000 ) ) ;
#56 = EDGE_LOOP ( 'NONE', ( #99, #152, #144, #4 ) ) ;
#57 = CYLINDRICAL_SURFACE ( 'NONE', #104, 0.09365624999999999645 ) ;
#58 = APPLICATION_PROTOCOL_DEFINITION ( 'draft international standard', 'automotive_design', 1998, #74 ) ;
#59 = CARTESIAN_POINT ( 'NONE',  ( 7.654042494670957853E-17, 0.0000000000000000000, 0.6250000000000000000 ) ) ;
#60 = UNCERTAINTY_MEASURE_WITH_UNIT (LENGTH_MEASURE( 1.000000000000000082E-05 ), #39, 'distance_accuracy_value', 'NONE');
#61 = CARTESIAN_POINT ( 'NONE',  ( -0.09375000000000001388, 0.0000000000000000000, 2.000000000000000000 ) ) ;
#62 = CARTESIAN_POINT ( 'NONE',  ( 0.09375000000000001388, 1.148106374200643863E-17, 2.000000000000000000 ) ) ;
#63 = VECTOR ( 'NONE', #191, 39.37007874015748143 ) ;
#64 = CARTESIAN_POINT ( 'NONE',  ( 7.654042494670957853E-17, 0.0000000000000000000, 0.6250000000000000000 ) ) ;
#65 = SURFACE_STYLE_USAGE ( .BOTH. , #194 ) ;
#66 = PRESENTATION_LAYER_ASSIGNMENT (  '', '', ( #16 ) ) ;
#67 = EDGE_CURVE ( 'NONE', #116, #15, #313, .T. ) ;
#68 = AXIS2_PLACEMENT_3D ( 'NONE', #87, #210, #55 ) ;
#69 = CARTESIAN_POINT ( 'NONE',  ( 0.09365625000000006584, 0.0000000000000000000, 0.6250000000000000000 ) ) ;
#70 = MANIFOLD_SOLID_BREP ( 'Fillet1', #145 ) ;
#71 = ORIENTED_EDGE ( 'NONE', *, *, #147, .T. ) ;
#72 = CONICAL_SURFACE ( 'NONE', #297, 0.09365624999999999645, 0.1745329251994338637 ) ;
#73 = ADVANCED_FACE ( 'NONE', ( #89 ), #32, .T. ) ;
#74 = APPLICATION_CONTEXT ( 'automotive_design' ) ;
#75 = DIRECTION ( 'NONE',  ( -1.000000000000000000, 0.0000000000000000000, 0.0000000000000000000 ) ) ;
#76 = ORIENTED_EDGE ( 'NONE', *, *, #49, .F. ) ;
#77 = ORIENTED_EDGE ( 'NONE', *, *, #177, .F. ) ;
#78 = DIRECTION ( 'NONE',  ( 0.0000000000000000000, 1.000000000000000000, 0.0000000000000000000 ) ) ;
#79 = DIRECTION ( 'NONE',  ( -1.224646799147353207E-16, -0.0000000000000000000, -1.000000000000000000 ) ) ;
#80 = CIRCLE ( 'NONE', #323, 0.09375000000000001388 ) ;
#81 = DIRECTION ( 'NONE',  ( -0.1736481776669311639, 2.126576849575783008E-17, 0.9848077530122080203 ) ) ;
#82 = CARTESIAN_POINT ( 'NONE',  ( 7.660553729477949085E-17, 0.0000000000000000000, 0.6255316826705892286 ) ) ;
#83 =( NAMED_UNIT ( * ) SI_UNIT ( $, .STERADIAN. ) SOLID_ANGLE_UNIT ( ) );
#84 = CARTESIAN_POINT ( 'NONE',  ( 1.146958267826442798E-17, 0.0000000000000000000, 0.09365624999999999645 ) ) ;
#85 = DIRECTION ( 'NONE',  ( -1.000000000000000000, 0.0000000000000000000, 1.823055050827002517E-16 ) ) ;
#86 = EDGE_CURVE ( 'NONE', #15, #148, #80, .T. ) ;
#87 = CARTESIAN_POINT ( 'NONE',  ( 0.0000000000000000000, 0.0000000000000000000, 2.000000000000000000 ) ) ;
#88 = VECTOR ( 'NONE', #161, 39.37007874015748143 ) ;
#89 = FACE_OUTER_BOUND ( 'NONE', #282, .T. ) ;
#90 = LINE ( 'NONE', #29, #216 ) ;
#91 = PRESENTATION_STYLE_ASSIGNMENT (( #314 ) ) ;
#92 = CARTESIAN_POINT ( 'NONE',  ( 0.0000000000000000000, 0.0000000000000000000, 2.000000000000000000 ) ) ;
#93 = FACE_OUTER_BOUND ( 'NONE', #276, .T. ) ;
#94 = AXIS2_PLACEMENT_3D ( 'NONE', #301, #79, #28 ) ;
#95 = AXIS2_PLACEMENT_3D ( 'NONE', #92, #114, #221 ) ;
#96 = EDGE_LOOP ( 'NONE', ( #182, #51, #20, #302 ) ) ;
#97 = AXIS2_PLACEMENT_3D ( 'NONE', #42, #200, #214 ) ;
#98 = EDGE_LOOP ( 'NONE', ( #77, #153, #275, #249 ) ) ;
#99 = ORIENTED_EDGE ( 'NONE', *, *, #44, .F. ) ;
#100 = DIRECTION ( 'NONE',  ( 1.000000000000000000, 0.0000000000000000000, 0.0000000000000000000 ) ) ;
#101 = EDGE_CURVE ( 'NONE', #296, #21, #246, .T. ) ;
#102 = LINE ( 'NONE', #208, #197 ) ;
#103 = CARTESIAN_POINT ( 'NONE',  ( 0.0000000000000000000, 0.0000000000000000000, 2.000000000000000000 ) ) ;
#104 = AXIS2_PLACEMENT_3D ( 'NONE', #159, #130, #189 ) ;
#105 = ORIENTED_EDGE ( 'NONE', *, *, #224, .F. ) ;
#106 = DIRECTION ( 'NONE',  ( -1.000000000000000000, 1.224646799147352961E-16, 0.0000000000000000000 ) ) ;
#107 = FACE_OUTER_BOUND ( 'NONE', #278, .T. ) ;
#108 = EDGE_CURVE ( 'NONE', #21, #127, #188, .T. ) ;
#109 = DIRECTION ( 'NONE',  ( 0.0000000000000000000, 0.0000000000000000000, -1.000000000000000000 ) ) ;
#110 = LENGTH_MEASURE_WITH_UNIT ( LENGTH_MEASURE( 0.02539999999999999897 ), #212 );
#111 = CIRCLE ( 'NONE', #53, 0.09375000000000001388 ) ;
#112 = ADVANCED_FACE ( 'NONE', ( #107 ), #72, .T. ) ;
#113 = SPHERICAL_SURFACE ( 'NONE', #167, 0.09365624999999999645 ) ;
#114 = DIRECTION ( 'NONE',  ( 0.0000000000000000000, 0.0000000000000000000, 1.000000000000000000 ) ) ;
#115 = CARTESIAN_POINT ( 'NONE',  ( 0.0000000000000000000, 0.0000000000000000000, 2.000000000000000000 ) ) ;
#116 = VERTEX_POINT ( 'NONE', #263 ) ;
#117 = ORIENTED_EDGE ( 'NONE', *, *, #67, .T. ) ;
#118 = COLOUR_RGB ( '',0.7921568627450980005, 0.8196078431372548767, 0.9333333333333333481 ) ;
#119 = EDGE_CURVE ( 'NONE', #296, #253, #134, .T. ) ;
#120 = ADVANCED_BREP_SHAPE_REPRESENTATION ( 'Micro_BEM-187-02X', ( #70, #17 ), #321 ) ;
#121 = VERTEX_POINT ( 'NONE', #288 ) ;
#122 = EDGE_LOOP ( 'NONE', ( #322, #117, #293, #156 ) ) ;
#123 =( GEOMETRIC_REPRESENTATION_CONTEXT ( 3 ) GLOBAL_UNCERTAINTY_ASSIGNED_CONTEXT ( ( #186 ) ) GLOBAL_UNIT_ASSIGNED_CONTEXT ( ( #11, #136, #164 ) ) REPRESENTATION_CONTEXT ( 'NONE', 'WORKASPACE' ) );
#124 = CIRCLE ( 'NONE', #68, 0.07874999999999980627 ) ;
#125 = CYLINDRICAL_SURFACE ( 'NONE', #5, 0.09375000000000001388 ) ;
#126 = ADVANCED_FACE ( 'NONE', ( #12 ), #247, .T. ) ;
#127 = VERTEX_POINT ( 'NONE', #291 ) ;
#128 = CARTESIAN_POINT ( 'NONE',  ( 0.0000000000000000000, 0.0000000000000000000, 1.984999999999999654 ) ) ;
#129 = ORIENTED_EDGE ( 'NONE', *, *, #222, .F. ) ;
#130 = DIRECTION ( 'NONE',  ( -1.224646799147353207E-16, -0.0000000000000000000, -1.000000000000000000 ) ) ;
#131 = STYLED_ITEM ( 'NONE', ( #91 ), #120 ) ;
#132 = FACE_OUTER_BOUND ( 'NONE', #325, .T. ) ;
#133 = DIRECTION ( 'NONE',  ( 0.0000000000000000000, 0.0000000000000000000, -1.000000000000000000 ) ) ;
#134 = LINE ( 'NONE', #243, #63 ) ;
#135 = CARTESIAN_POINT ( 'NONE',  ( -0.09375000000000001388, 0.0000000000000000000, 1.984999999999999654 ) ) ;
#136 =( NAMED_UNIT ( * ) PLANE_ANGLE_UNIT ( ) SI_UNIT ( $, .RADIAN. ) );
#137 = CARTESIAN_POINT ( 'NONE',  ( 1.146958267826442798E-17, 0.0000000000000000000, 0.09365624999999999645 ) ) ;
#138 = VECTOR ( 'NONE', #286, 39.37007874015748143 ) ;
#139 = AXIS2_PLACEMENT_3D ( 'NONE', #115, #133, #169 ) ;
#140 = FILL_AREA_STYLE_COLOUR ( '', #290 ) ;
#141 = CARTESIAN_POINT ( 'NONE',  ( -0.09365624999999999645, 0.0000000000000000000, 1.146958267826442798E-17 ) ) ;
#142 = LINE ( 'NONE', #292, #9 ) ;
#143 = EDGE_CURVE ( 'NONE', #173, #298, #303, .T. ) ;
#144 = ORIENTED_EDGE ( 'NONE', *, *, #183, .T. ) ;
#145 = CLOSED_SHELL ( 'NONE', ( #36, #271, #126, #262, #3, #73, #241, #199, #112, #165, #10 ) ) ;
#146 = PRODUCT_DEFINITION_FORMATION_WITH_SPECIFIED_SOURCE ( 'ANY', '', #195, .NOT_KNOWN. ) ;
#147 = EDGE_CURVE ( 'NONE', #121, #127, #175, .T. ) ;
#148 = VERTEX_POINT ( 'NONE', #207 ) ;
#149 =( NAMED_UNIT ( * ) PLANE_ANGLE_UNIT ( ) SI_UNIT ( $, .RADIAN. ) );
#150 = CIRCLE ( 'NONE', #202, 0.09365624999999999645 ) ;
#151 = ORIENTED_EDGE ( 'NONE', *, *, #215, .T. ) ;
#152 = ORIENTED_EDGE ( 'NONE', *, *, #215, .F. ) ;
#153 = ORIENTED_EDGE ( 'NONE', *, *, #24, .T. ) ;
#154 = EDGE_CURVE ( 'NONE', #116, #171, #280, .T. ) ;
#155 = AXIS2_PLACEMENT_3D ( 'NONE', #103, #109, #304 ) ;
#156 = ORIENTED_EDGE ( 'NONE', *, *, #319, .F. ) ;
#157 = FACE_OUTER_BOUND ( 'NONE', #96, .T. ) ;
#158 = ORIENTED_EDGE ( 'NONE', *, *, #143, .F. ) ;
#159 = CARTESIAN_POINT ( 'NONE',  ( 0.0000000000000000000, 0.0000000000000000000, 0.0000000000000000000 ) ) ;
#160 = DIRECTION ( 'NONE',  ( -0.0000000000000000000, -0.0000000000000000000, -1.000000000000000000 ) ) ;
#161 = DIRECTION ( 'NONE',  ( -0.0000000000000000000, -0.0000000000000000000, -1.000000000000000000 ) ) ;
#162 =( LENGTH_UNIT ( ) NAMED_UNIT ( * ) SI_UNIT ( $, .METRE. ) );
#163 = DIRECTION ( 'NONE',  ( 1.224646799147353207E-16, 0.0000000000000000000, 1.000000000000000000 ) ) ;
#164 =( NAMED_UNIT ( * ) SI_UNIT ( $, .STERADIAN. ) SOLID_ANGLE_UNIT ( ) );
#165 = ADVANCED_FACE ( 'NONE', ( #157 ), #270, .T. ) ;
#166 = DIRECTION ( 'NONE',  ( -0.0000000000000000000, -0.0000000000000000000, -1.000000000000000000 ) ) ;
#167 = AXIS2_PLACEMENT_3D ( 'NONE', #137, #265, #310 ) ;
#168 = VECTOR ( 'NONE', #255, 39.37007874015748143 ) ;
#169 = DIRECTION ( 'NONE',  ( -1.000000000000000000, 0.0000000000000000000, 0.0000000000000000000 ) ) ;
#170 = PRODUCT_RELATED_PRODUCT_CATEGORY ( 'part', '', ( #195 ) ) ;
#171 = VERTEX_POINT ( 'NONE', #135 ) ;
#172 = AXIS2_PLACEMENT_3D ( 'NONE', #281, #209, #85 ) ;
#173 = VERTEX_POINT ( 'NONE', #230 ) ;
#174 = CIRCLE ( 'NONE', #47, 0.09365624999999999645 ) ;
#175 = CIRCLE ( 'NONE', #250, 0.09365624999999999645 ) ;
#176 = ORIENTED_EDGE ( 'NONE', *, *, #49, .T. ) ;
#177 = EDGE_CURVE ( 'NONE', #21, #296, #150, .T. ) ;
#178 = ORIENTED_EDGE ( 'NONE', *, *, #147, .F. ) ;
#179 = ORIENTED_EDGE ( 'NONE', *, *, #204, .F. ) ;
#180 = PRESENTATION_LAYER_ASSIGNMENT (  '', '', ( #131 ) ) ;
#181 = DIRECTION ( 'NONE',  ( 0.0000000000000000000, 0.0000000000000000000, -1.000000000000000000 ) ) ;
#182 = ORIENTED_EDGE ( 'NONE', *, *, #119, .F. ) ;
#183 = EDGE_CURVE ( 'NONE', #298, #171, #31, .T. ) ;
#184 = DIRECTION ( 'NONE',  ( -1.224646799147353207E-16, -0.0000000000000000000, -1.000000000000000000 ) ) ;
#185 = DIRECTION ( 'NONE',  ( -1.000000000000000000, 0.0000000000000000000, 0.0000000000000000000 ) ) ;
#186 = UNCERTAINTY_MEASURE_WITH_UNIT (LENGTH_MEASURE( 1.000000000000000082E-05 ), #11, 'distance_accuracy_value', 'NONE');
#187 = DIRECTION ( 'NONE',  ( 0.1736481776669313581, 0.0000000000000000000, 0.9848077530122077983 ) ) ;
#188 = LINE ( 'NONE', #141, #138 ) ;
#189 = DIRECTION ( 'NONE',  ( -1.000000000000000000, 0.0000000000000000000, 1.224646799147352961E-16 ) ) ;
#190 = CONICAL_SURFACE ( 'NONE', #139, 0.07874999999999980627, 0.7853981633974466137 ) ;
#191 = DIRECTION ( 'NONE',  ( -1.224646799147353207E-16, -0.0000000000000000000, -1.000000000000000000 ) ) ;
#192 = CARTESIAN_POINT ( 'NONE',  ( 0.0000000000000000000, 0.0000000000000000000, 0.0000000000000000000 ) ) ;
#193 = CARTESIAN_POINT ( 'NONE',  ( 0.0000000000000000000, 0.0000000000000000000, 2.000000000000000000 ) ) ;
#194 = SURFACE_SIDE_STYLE ('',( #218 ) ) ;
#195 = PRODUCT ( 'Micro_BEM-187-02X', 'Micro_BEM-187-02X', '', ( #287 ) ) ;
#196 = DIRECTION ( 'NONE',  ( 1.224646799147353207E-16, 1.000000000000000000, -0.0000000000000000000 ) ) ;
#197 = VECTOR ( 'NONE', #81, 39.37007874015747433 ) ;
#198 = AXIS2_PLACEMENT_3D ( 'NONE', #128, #33, #306 ) ;
#199 = ADVANCED_FACE ( 'NONE', ( #6 ), #190, .T. ) ;
#200 = DIRECTION ( 'NONE',  ( 0.0000000000000000000, 0.0000000000000000000, 1.000000000000000000 ) ) ;
#201 = AXIS2_PLACEMENT_3D ( 'NONE', #300, #78, #254 ) ;
#202 = AXIS2_PLACEMENT_3D ( 'NONE', #257, #8, #237 ) ;
#203 = ORIENTED_EDGE ( 'NONE', *, *, #143, .T. ) ;
#204 = EDGE_CURVE ( 'NONE', #171, #116, #111, .T. ) ;
#205 = FACE_OUTER_BOUND ( 'NONE', #122, .T. ) ;
#206 = SPHERICAL_SURFACE ( 'NONE', #201, 0.09365624999999999645 ) ;
#207 = CARTESIAN_POINT ( 'NONE',  ( -0.09374999999999994449, 0.0000000000000000000, 0.6255316826705892286 ) ) ;
#208 = CARTESIAN_POINT ( 'NONE',  ( -0.09365624999999992706, 1.146958267826442798E-17, 0.6250000000000000000 ) ) ;
#209 = DIRECTION ( 'NONE',  ( 1.224646799147353207E-16, 0.0000000000000000000, 1.000000000000000000 ) ) ;
#210 = DIRECTION ( 'NONE',  ( 0.0000000000000000000, 0.0000000000000000000, 1.000000000000000000 ) ) ;
#211 = DIRECTION ( 'NONE',  ( 1.000000000000000000, 0.0000000000000000000, 0.0000000000000000000 ) ) ;
#212 =( LENGTH_UNIT ( ) NAMED_UNIT ( * ) SI_UNIT ( $, .METRE. ) );
#213 = DIMENSIONAL_EXPONENTS ( 1.000000000000000000, 0.0000000000000000000, 0.0000000000000000000, 0.0000000000000000000, 0.0000000000000000000, 0.0000000000000000000, 0.0000000000000000000 ) ;
#214 = DIRECTION ( 'NONE',  ( 1.000000000000000000, 0.0000000000000000000, -0.0000000000000000000 ) ) ;
#215 = EDGE_CURVE ( 'NONE', #298, #173, #124, .T. ) ;
#216 = VECTOR ( 'NONE', #219, 39.37007874015748143 ) ;
#217 = CIRCLE ( 'NONE', #43, 0.09365624999999999645 ) ;
#218 = SURFACE_STYLE_FILL_AREA ( #40 ) ;
#219 = DIRECTION ( 'NONE',  ( 0.7071067811865463515, 8.659560562354916834E-17, -0.7071067811865486830 ) ) ;
#220 = SURFACE_STYLE_FILL_AREA ( #242 ) ;
#221 = DIRECTION ( 'NONE',  ( 1.000000000000000000, 0.0000000000000000000, 0.0000000000000000000 ) ) ;
#222 = EDGE_CURVE ( 'NONE', #127, #253, #294, .T. ) ;
#223 = CARTESIAN_POINT ( 'NONE',  ( 1.146958267826442798E-17, 0.0000000000000000000, 0.09365624999999999645 ) ) ;
#224 = EDGE_CURVE ( 'NONE', #253, #127, #217, .T. ) ;
#225 = ORIENTED_EDGE ( 'NONE', *, *, #67, .F. ) ;
#226 = ORIENTED_EDGE ( 'NONE', *, *, #154, .T. ) ;
#227 = MECHANICAL_DESIGN_GEOMETRIC_PRESENTATION_REPRESENTATION (  '', ( #16 ), #123 ) ;
#228 = AXIS2_PLACEMENT_3D ( 'NONE', #82, #184, #283 ) ;
#229 = CARTESIAN_POINT ( 'NONE',  ( 0.0000000000000000000, 0.0000000000000000000, 2.000000000000000000 ) ) ;
#230 = CARTESIAN_POINT ( 'NONE',  ( 0.07874999999999980627, 1.056257864264590573E-17, 2.000000000000000000 ) ) ;
#231 = ORIENTED_EDGE ( 'NONE', *, *, #119, .T. ) ;
#232 = UNCERTAINTY_MEASURE_WITH_UNIT (LENGTH_MEASURE( 1.000000000000000082E-05 ), #273, 'distance_accuracy_value', 'NONE');
#233 = CARTESIAN_POINT ( 'NONE',  ( -0.07874999999999980627, 0.0000000000000000000, 2.000000000000000000 ) ) ;
#234 = DIRECTION ( 'NONE',  ( -1.000000000000000000, 0.0000000000000000000, 0.0000000000000000000 ) ) ;
#235 = CARTESIAN_POINT ( 'NONE',  ( 0.09365625000000001033, 1.146958267826442798E-17, 0.09365624999999996869 ) ) ;
#236 = APPLICATION_PROTOCOL_DEFINITION ( 'draft international standard', 'automotive_design', 1998, #279 ) ;
#237 = DIRECTION ( 'NONE',  ( -1.000000000000000000, 0.0000000000000000000, 0.0000000000000000000 ) ) ;
#238 = DIMENSIONAL_EXPONENTS ( 1.000000000000000000, 0.0000000000000000000, 0.0000000000000000000, 0.0000000000000000000, 0.0000000000000000000, 0.0000000000000000000, 0.0000000000000000000 ) ;
#239 = DIRECTION ( 'NONE',  ( 0.0000000000000000000, -1.000000000000000000, 0.0000000000000000000 ) ) ;
#240 = DIRECTION ( 'NONE',  ( 0.0000000000000000000, 0.0000000000000000000, -1.000000000000000000 ) ) ;
#241 = ADVANCED_FACE ( 'NONE', ( #93 ), #7, .T. ) ;
#242 = FILL_AREA_STYLE ('',( #140 ) ) ;
#243 = CARTESIAN_POINT ( 'NONE',  ( 0.09365624999999999645, 1.146958267826442798E-17, -1.146958267826442798E-17 ) ) ;
#244 = ORIENTED_EDGE ( 'NONE', *, *, #101, .F. ) ;
#245 = LINE ( 'NONE', #61, #88 ) ;
#246 = CIRCLE ( 'NONE', #259, 0.09365624999999999645 ) ;
#247 = CONICAL_SURFACE ( 'NONE', #22, 0.09365624999999999645, 0.1745329251994338637 ) ;
#248 =( NAMED_UNIT ( * ) SI_UNIT ( $, .STERADIAN. ) SOLID_ANGLE_UNIT ( ) );
#249 = ORIENTED_EDGE ( 'NONE', *, *, #295, .F. ) ;
#250 = AXIS2_PLACEMENT_3D ( 'NONE', #315, #196, #106 ) ;
#251 = ORIENTED_EDGE ( 'NONE', *, *, #295, .T. ) ;
#252 = ORIENTED_EDGE ( 'NONE', *, *, #24, .F. ) ;
#253 = VERTEX_POINT ( 'NONE', #235 ) ;
#254 = DIRECTION ( 'NONE',  ( 1.000000000000000000, 0.0000000000000000000, 0.0000000000000000000 ) ) ;
#255 = DIRECTION ( 'NONE',  ( -0.7071067811865463515, 0.0000000000000000000, -0.7071067811865486830 ) ) ;
#256 = ORIENTED_EDGE ( 'NONE', *, *, #44, .T. ) ;
#257 = CARTESIAN_POINT ( 'NONE',  ( 7.654042494670957853E-17, 0.0000000000000000000, 0.6250000000000000000 ) ) ;
#258 = DIRECTION ( 'NONE',  ( 1.000000000000000000, 0.0000000000000000000, 0.0000000000000000000 ) ) ;
#259 = AXIS2_PLACEMENT_3D ( 'NONE', #269, #35, #234 ) ;
#260 = PRODUCT_DEFINITION_CONTEXT ( 'detailed design', #74, 'design' ) ;
#261 = DIRECTION ( 'NONE',  ( -1.000000000000000000, 0.0000000000000000000, 1.823055050827002517E-16 ) ) ;
#262 = ADVANCED_FACE ( 'NONE', ( #2 ), #311, .T. ) ;
#263 = CARTESIAN_POINT ( 'NONE',  ( 0.09375000000000001388, 1.148106374200643863E-17, 1.984999999999999654 ) ) ;
#264 = DIRECTION ( 'NONE',  ( 1.000000000000000000, 0.0000000000000000000, 0.0000000000000000000 ) ) ;
#265 = DIRECTION ( 'NONE',  ( 0.0000000000000000000, 1.000000000000000000, 0.0000000000000000000 ) ) ;
#266 = EDGE_CURVE ( 'NONE', #148, #15, #267, .T. ) ;
#267 = CIRCLE ( 'NONE', #228, 0.09375000000000001388 ) ;
#268 = LENGTH_MEASURE_WITH_UNIT ( LENGTH_MEASURE( 0.02539999999999999897 ), #317 );
#269 = CARTESIAN_POINT ( 'NONE',  ( 7.654042494670957853E-17, 0.0000000000000000000, 0.6250000000000000000 ) ) ;
#270 = CYLINDRICAL_SURFACE ( 'NONE', #94, 0.09365624999999999645 ) ;
#271 = ADVANCED_FACE ( 'NONE', ( #308 ), #57, .T. ) ;
#272 = DIMENSIONAL_EXPONENTS ( 1.000000000000000000, 0.0000000000000000000, 0.0000000000000000000, 0.0000000000000000000, 0.0000000000000000000, 0.0000000000000000000, 0.0000000000000000000 ) ;
#273 =( CONVERSION_BASED_UNIT ( 'INCH', #320 ) LENGTH_UNIT ( ) NAMED_UNIT ( #213 ) );
#274 = AXIS2_PLACEMENT_3D ( 'NONE', #193, #166, #185 ) ;
#275 = ORIENTED_EDGE ( 'NONE', *, *, #266, .T. ) ;
#276 = EDGE_LOOP ( 'NONE', ( #151, #203 ) ) ;
#277 = ORIENTED_EDGE ( 'NONE', *, *, #183, .F. ) ;
#278 = EDGE_LOOP ( 'NONE', ( #252, #244, #251, #54 ) ) ;
#279 = APPLICATION_CONTEXT ( 'automotive_design' ) ;
#280 = CIRCLE ( 'NONE', #198, 0.09375000000000001388 ) ;
#281 = CARTESIAN_POINT ( 'NONE',  ( 1.146958267826442798E-17, 0.0000000000000000000, 0.09365624999999999645 ) ) ;
#282 = EDGE_LOOP ( 'NONE', ( #225, #226, #324, #23 ) ) ;
#283 = DIRECTION ( 'NONE',  ( 1.000000000000000000, 0.0000000000000000000, 0.0000000000000000000 ) ) ;
#284 = CARTESIAN_POINT ( 'NONE',  ( 7.660553729477949085E-17, 0.0000000000000000000, 0.6255316826705892286 ) ) ;
#285 = CARTESIAN_POINT ( 'NONE',  ( -0.07874999999999980627, 0.0000000000000000000, 2.000000000000000000 ) ) ;
#286 = DIRECTION ( 'NONE',  ( -1.224646799147353207E-16, -0.0000000000000000000, -1.000000000000000000 ) ) ;
#287 = PRODUCT_CONTEXT ( 'NONE', #279, 'mechanical' ) ;
#288 = CARTESIAN_POINT ( 'NONE',  ( 1.720437401739664274E-17, 0.0000000000000000000, 0.0000000000000000000 ) ) ;
#289 = DIRECTION ( 'NONE',  ( 1.224646799147353207E-16, 0.0000000000000000000, 1.000000000000000000 ) ) ;
#290 = COLOUR_RGB ( '',0.7921568627450980005, 0.8196078431372548767, 0.9333333333333333481 ) ;
#291 = CARTESIAN_POINT ( 'NONE',  ( -0.09365624999999996869, 0.0000000000000000000, 0.09365625000000001033 ) ) ;
#292 = CARTESIAN_POINT ( 'NONE',  ( 0.09365625000000006584, 0.0000000000000000000, 0.6250000000000000000 ) ) ;
#293 = ORIENTED_EDGE ( 'NONE', *, *, #266, .F. ) ;
#294 = CIRCLE ( 'NONE', #172, 0.09365624999999999645 ) ;
#295 = EDGE_CURVE ( 'NONE', #296, #15, #142, .T. ) ;
#296 = VERTEX_POINT ( 'NONE', #69 ) ;
#297 = AXIS2_PLACEMENT_3D ( 'NONE', #59, #289, #258 ) ;
#298 = VERTEX_POINT ( 'NONE', #285 ) ;
#299 = DIRECTION ( 'NONE',  ( -0.0000000000000000000, -0.0000000000000000000, -1.000000000000000000 ) ) ;
#300 = CARTESIAN_POINT ( 'NONE',  ( 1.146958267826442798E-17, 0.0000000000000000000, 0.09365624999999999645 ) ) ;
#301 = CARTESIAN_POINT ( 'NONE',  ( 0.0000000000000000000, 0.0000000000000000000, 0.0000000000000000000 ) ) ;
#302 = ORIENTED_EDGE ( 'NONE', *, *, #222, .T. ) ;
#303 = CIRCLE ( 'NONE', #95, 0.07874999999999980627 ) ;
#304 = DIRECTION ( 'NONE',  ( -1.000000000000000000, 0.0000000000000000000, 0.0000000000000000000 ) ) ;
#305 = DIRECTION ( 'NONE',  ( -1.224646799147353207E-16, -0.0000000000000000000, -1.000000000000000000 ) ) ;
#306 = DIRECTION ( 'NONE',  ( 1.000000000000000000, 0.0000000000000000000, 0.0000000000000000000 ) ) ;
#307 = DIRECTION ( 'NONE',  ( 1.000000000000000000, 0.0000000000000000000, 0.0000000000000000000 ) ) ;
#308 = FACE_OUTER_BOUND ( 'NONE', #318, .T. ) ;
#309 = DIRECTION ( 'NONE',  ( 0.0000000000000000000, 0.0000000000000000000, 1.000000000000000000 ) ) ;
#310 = DIRECTION ( 'NONE',  ( 1.000000000000000000, 0.0000000000000000000, 0.0000000000000000000 ) ) ;
#311 = CONICAL_SURFACE ( 'NONE', #155, 0.07874999999999980627, 0.7853981633974466137 ) ;
#312 = PRESENTATION_STYLE_ASSIGNMENT (( #65 ) ) ;
#313 = LINE ( 'NONE', #62, #52 ) ;
#314 = SURFACE_STYLE_USAGE ( .BOTH. , #45 ) ;
#315 = CARTESIAN_POINT ( 'NONE',  ( 1.146958267826442798E-17, 0.0000000000000000000, 0.09365624999999999645 ) ) ;
#316 = DIRECTION ( 'NONE',  ( 1.224646799147353207E-16, 0.0000000000000000000, 1.000000000000000000 ) ) ;
#317 =( LENGTH_UNIT ( ) NAMED_UNIT ( * ) SI_UNIT ( $, .METRE. ) );
#318 = EDGE_LOOP ( 'NONE', ( #14, #231, #48, #18 ) ) ;
#319 = EDGE_CURVE ( 'NONE', #171, #148, #245, .T. ) ;
#320 = LENGTH_MEASURE_WITH_UNIT ( LENGTH_MEASURE( 0.02539999999999999897 ), #162 );
#321 =( GEOMETRIC_REPRESENTATION_CONTEXT ( 3 ) GLOBAL_UNCERTAINTY_ASSIGNED_CONTEXT ( ( #232 ) ) GLOBAL_UNIT_ASSIGNED_CONTEXT ( ( #273, #149, #248 ) ) REPRESENTATION_CONTEXT ( 'NONE', 'WORKASPACE' ) );
#322 = ORIENTED_EDGE ( 'NONE', *, *, #204, .T. ) ;
#323 = AXIS2_PLACEMENT_3D ( 'NONE', #284, #305, #307 ) ;
#324 = ORIENTED_EDGE ( 'NONE', *, *, #319, .T. ) ;
#325 = EDGE_LOOP ( 'NONE', ( #76, #71, #105 ) ) ;
ENDSEC;
END-ISO-10303-21;
