ISO-10303-21;
HEADER;
FILE_DESCRIPTION (( 'STEP AP214' ),
    '1' );
FILE_NAME ('Micro_SME-024-2.STEP',
    '2021-09-02T11:03:53',
    ( '' ),
    ( '' ),
    'SwSTEP 2.0',
    'SolidWorks 2020',
    '' );
FILE_SCHEMA (( 'AUTOMOTIVE_DESIGN' ));
ENDSEC;

DATA;
#1 = CYLINDRICAL_SURFACE ( 'NONE', #13, 0.06250000000000002776 ) ;
#2 = CARTESIAN_POINT ( 'NONE',  ( 0.0000000000000000000, 0.0000000000000000000, 0.0000000000000000000 ) ) ;
#3 = DIRECTION ( 'NONE',  ( 1.224646799147353700E-16, 0.0000000000000000000, 1.000000000000000000 ) ) ;
#4 = CARTESIAN_POINT ( 'NONE',  ( 0.0000000000000000000, 0.0000000000000000000, 1.500000000000000222 ) ) ;
#5 = EDGE_CURVE ( 'NONE', #88, #244, #241, .T. ) ;
#6 = VECTOR ( 'NONE', #173, 39.37007874015748143 ) ;
#7 = PRODUCT_DEFINITION_FORMATION_WITH_SPECIFIED_SOURCE ( 'ANY', '', #201, .NOT_KNOWN. ) ;
#8 = DIRECTION ( 'NONE',  ( -1.000000000000000000, 0.0000000000000000000, 0.0000000000000000000 ) ) ;
#9 =( LENGTH_UNIT ( ) NAMED_UNIT ( * ) SI_UNIT ( $, .METRE. ) );
#10 = EDGE_LOOP ( 'NONE', ( #37, #101 ) ) ;
#11 =( NAMED_UNIT ( * ) SI_UNIT ( $, .STERADIAN. ) SOLID_ANGLE_UNIT ( ) );
#12 = ORIENTED_EDGE ( 'NONE', *, *, #48, .F. ) ;
#13 = AXIS2_PLACEMENT_3D ( 'NONE', #259, #280, #95 ) ;
#14 = DIRECTION ( 'NONE',  ( -0.0000000000000000000, -0.0000000000000000000, -1.000000000000000000 ) ) ;
#15 = ORIENTED_EDGE ( 'NONE', *, *, #90, .T. ) ;
#16 = SHAPE_DEFINITION_REPRESENTATION ( #163, #267 ) ;
#17 = DIRECTION ( 'NONE',  ( -1.224646799147353700E-16, -0.0000000000000000000, -1.000000000000000000 ) ) ;
#18 = DIRECTION ( 'NONE',  ( -1.224646799147353700E-16, -0.0000000000000000000, -1.000000000000000000 ) ) ;
#19 = PRESENTATION_LAYER_ASSIGNMENT (  '', '', ( #49 ) ) ;
#20 = PRESENTATION_LAYER_ASSIGNMENT (  '', '', ( #153 ) ) ;
#21 = APPLICATION_CONTEXT ( 'automotive_design' ) ;
#22 = VERTEX_POINT ( 'NONE', #111 ) ;
#23 = DIRECTION ( 'NONE',  ( -1.000000000000000000, 0.0000000000000000000, 1.224646799147353700E-16 ) ) ;
#24 = DIRECTION ( 'NONE',  ( -1.224646799147353700E-16, -0.0000000000000000000, -1.000000000000000000 ) ) ;
#25 = VECTOR ( 'NONE', #108, 39.37007874015747433 ) ;
#26 = FACE_OUTER_BOUND ( 'NONE', #195, .T. ) ;
#27 = UNCERTAINTY_MEASURE_WITH_UNIT (LENGTH_MEASURE( 1.000000000000000082E-05 ), #75, 'distance_accuracy_value', 'NONE');
#28 = LINE ( 'NONE', #68, #230 ) ;
#29 = LINE ( 'NONE', #209, #152 ) ;
#30 = AXIS2_PLACEMENT_3D ( 'NONE', #94, #24, #183 ) ;
#31 =( GEOMETRIC_REPRESENTATION_CONTEXT ( 3 ) GLOBAL_UNCERTAINTY_ASSIGNED_CONTEXT ( ( #129 ) ) GLOBAL_UNIT_ASSIGNED_CONTEXT ( ( #115, #254, #225 ) ) REPRESENTATION_CONTEXT ( 'NONE', 'WORKASPACE' ) );
#32 = CARTESIAN_POINT ( 'NONE',  ( 0.0000000000000000000, 0.0000000000000000000, 1.485000000000000764 ) ) ;
#33 = PRESENTATION_STYLE_ASSIGNMENT (( #289 ) ) ;
#34 = LENGTH_MEASURE_WITH_UNIT ( LENGTH_MEASURE( 0.02539999999999999897 ), #54 );
#35 = DIRECTION ( 'NONE',  ( -1.224646799147353700E-16, -0.0000000000000000000, -1.000000000000000000 ) ) ;
#36 = CONICAL_SURFACE ( 'NONE', #91, 0.01198799999999999866, 0.1745329251994338915 ) ;
#37 = ORIENTED_EDGE ( 'NONE', *, *, #5, .T. ) ;
#38 = SURFACE_STYLE_FILL_AREA ( #116 ) ;
#39 = SURFACE_SIDE_STYLE ('',( #204 ) ) ;
#40 = ORIENTED_EDGE ( 'NONE', *, *, #139, .T. ) ;
#41 = ADVANCED_FACE ( 'NONE', ( #296 ), #117, .T. ) ;
#42 = LINE ( 'NONE', #228, #175 ) ;
#43 = ORIENTED_EDGE ( 'NONE', *, *, #135, .T. ) ;
#44 = CARTESIAN_POINT ( 'NONE',  ( -0.01198799999999999519, 1.468106582817846860E-18, 0.03599999999999999728 ) ) ;
#45 = DIRECTION ( 'NONE',  ( -1.224646799147353700E-16, -0.0000000000000000000, -1.000000000000000000 ) ) ;
#46 = CARTESIAN_POINT ( 'NONE',  ( 3.949091435114315491E-17, 0.0000000000000000000, 0.3224677872725282834 ) ) ;
#47 = CARTESIAN_POINT ( 'NONE',  ( 0.0000000000000000000, 0.0000000000000000000, 1.485000000000000764 ) ) ;
#48 = EDGE_CURVE ( 'NONE', #237, #57, #297, .T. ) ;
#49 = STYLED_ITEM ( 'NONE', ( #33 ), #226 ) ;
#50 = ORIENTED_EDGE ( 'NONE', *, *, #291, .T. ) ;
#51 = ORIENTED_EDGE ( 'NONE', *, *, #179, .F. ) ;
#52 = AXIS2_PLACEMENT_3D ( 'NONE', #176, #236, #110 ) ;
#53 = ORIENTED_EDGE ( 'NONE', *, *, #81, .F. ) ;
#54 =( LENGTH_UNIT ( ) NAMED_UNIT ( * ) SI_UNIT ( $, .METRE. ) );
#55 = ORIENTED_EDGE ( 'NONE', *, *, #81, .T. ) ;
#56 = ORIENTED_EDGE ( 'NONE', *, *, #93, .F. ) ;
#57 = VERTEX_POINT ( 'NONE', #84 ) ;
#58 = ORIENTED_EDGE ( 'NONE', *, *, #90, .F. ) ;
#59 = LINE ( 'NONE', #151, #243 ) ;
#60 = FACE_OUTER_BOUND ( 'NONE', #73, .T. ) ;
#61 = FILL_AREA_STYLE ('',( #278 ) ) ;
#62 = VERTEX_POINT ( 'NONE', #174 ) ;
#63 = DIRECTION ( 'NONE',  ( 0.0000000000000000000, 0.0000000000000000000, 1.000000000000000000 ) ) ;
#64 = ADVANCED_FACE ( 'NONE', ( #60 ), #154, .T. ) ;
#65 = FACE_OUTER_BOUND ( 'NONE', #98, .T. ) ;
#66 = AXIS2_PLACEMENT_3D ( 'NONE', #132, #299, #85 ) ;
#67 = DIRECTION ( 'NONE',  ( -1.000000000000000000, 0.0000000000000000000, 0.0000000000000000000 ) ) ;
#68 = CARTESIAN_POINT ( 'NONE',  ( 0.01198799999999999866, 1.468106582817846860E-18, -1.468106582817847438E-18 ) ) ;
#69 = DIRECTION ( 'NONE',  ( -1.224646799147353700E-16, -0.0000000000000000000, -1.000000000000000000 ) ) ;
#70 = CARTESIAN_POINT ( 'NONE',  ( 0.06250000000000002776, 7.654042494670959086E-18, 1.500000000000000222 ) ) ;
#71 = FACE_OUTER_BOUND ( 'NONE', #143, .T. ) ;
#72 =( LENGTH_UNIT ( ) NAMED_UNIT ( * ) SI_UNIT ( $, .METRE. ) );
#73 = EDGE_LOOP ( 'NONE', ( #55, #43, #141, #219 ) ) ;
#74 = AXIS2_PLACEMENT_3D ( 'NONE', #47, #180, #279 ) ;
#75 =( CONVERSION_BASED_UNIT ( 'INCH', #109 ) LENGTH_UNIT ( ) NAMED_UNIT ( #245 ) );
#76 =( NAMED_UNIT ( * ) SI_UNIT ( $, .STERADIAN. ) SOLID_ANGLE_UNIT ( ) );
#77 = CARTESIAN_POINT ( 'NONE',  ( 0.0000000000000000000, 0.0000000000000000000, 0.0000000000000000000 ) ) ;
#78 = UNCERTAINTY_MEASURE_WITH_UNIT (LENGTH_MEASURE( 1.000000000000000082E-05 ), #218, 'distance_accuracy_value', 'NONE');
#79 = DIRECTION ( 'NONE',  ( -1.000000000000000000, 0.0000000000000000000, 0.0000000000000000000 ) ) ;
#80 =( GEOMETRIC_REPRESENTATION_CONTEXT ( 3 ) GLOBAL_UNCERTAINTY_ASSIGNED_CONTEXT ( ( #27 ) ) GLOBAL_UNIT_ASSIGNED_CONTEXT ( ( #75, #247, #11 ) ) REPRESENTATION_CONTEXT ( 'NONE', 'WORKASPACE' ) );
#81 = EDGE_CURVE ( 'NONE', #169, #62, #99, .T. ) ;
#82 = ADVANCED_FACE ( 'NONE', ( #26 ), #1, .T. ) ;
#83 = CARTESIAN_POINT ( 'NONE',  ( -0.06250000000000002776, 0.0000000000000000000, 1.500000000000000222 ) ) ;
#84 = CARTESIAN_POINT ( 'NONE',  ( -0.04750000000000064587, 0.0000000000000000000, 1.500000000000000222 ) ) ;
#85 = DIRECTION ( 'NONE',  ( 1.000000000000000000, 0.0000000000000000000, -0.0000000000000000000 ) ) ;
#86 = CIRCLE ( 'NONE', #165, 0.04750000000000064587 ) ;
#87 = CONICAL_SURFACE ( 'NONE', #182, 0.04750000000000064587, 0.7853981633974466137 ) ;
#88 = VERTEX_POINT ( 'NONE', #287 ) ;
#89 = CYLINDRICAL_SURFACE ( 'NONE', #210, 0.06250000000000002776 ) ;
#90 = EDGE_CURVE ( 'NONE', #262, #145, #158, .T. ) ;
#91 = AXIS2_PLACEMENT_3D ( 'NONE', #208, #3, #136 ) ;
#92 = AXIS2_PLACEMENT_3D ( 'NONE', #32, #211, #265 ) ;
#93 = EDGE_CURVE ( 'NONE', #172, #145, #196, .T. ) ;
#94 = CARTESIAN_POINT ( 'NONE',  ( 1.797912027455036029E-34, 0.0000000000000000000, 1.468106582817847438E-18 ) ) ;
#95 = DIRECTION ( 'NONE',  ( -1.000000000000000000, 0.0000000000000000000, 0.0000000000000000000 ) ) ;
#96 = EDGE_CURVE ( 'NONE', #237, #22, #59, .T. ) ;
#97 = ORIENTED_EDGE ( 'NONE', *, *, #271, .T. ) ;
#98 = EDGE_LOOP ( 'NONE', ( #100, #246, #264, #58 ) ) ;
#99 = CIRCLE ( 'NONE', #171, 0.01198799999999999866 ) ;
#100 = ORIENTED_EDGE ( 'NONE', *, *, #239, .F. ) ;
#101 = ORIENTED_EDGE ( 'NONE', *, *, #188, .T. ) ;
#102 = PRODUCT_DEFINITION ( 'UNKNOWN', '', #7, #216 ) ;
#103 = EDGE_LOOP ( 'NONE', ( #53, #240, #122, #51 ) ) ;
#104 = DIMENSIONAL_EXPONENTS ( 1.000000000000000000, 0.0000000000000000000, 0.0000000000000000000, 0.0000000000000000000, 0.0000000000000000000, 0.0000000000000000000, 0.0000000000000000000 ) ;
#105 = ORIENTED_EDGE ( 'NONE', *, *, #96, .T. ) ;
#106 = CARTESIAN_POINT ( 'NONE',  ( 0.0000000000000000000, 0.0000000000000000000, 1.500000000000000222 ) ) ;
#107 = FACE_OUTER_BOUND ( 'NONE', #10, .T. ) ;
#108 = DIRECTION ( 'NONE',  ( -0.1736481776669311916, 2.126576849575783316E-17, 0.9848077530122080203 ) ) ;
#109 = LENGTH_MEASURE_WITH_UNIT ( LENGTH_MEASURE( 0.02539999999999999897 ), #9 );
#110 = DIRECTION ( 'NONE',  ( -1.000000000000000000, 0.0000000000000000000, 0.0000000000000000000 ) ) ;
#111 = CARTESIAN_POINT ( 'NONE',  ( 0.06250000000000002776, 7.654042494670959086E-18, 1.485000000000000764 ) ) ;
#112 = DIRECTION ( 'NONE',  ( 0.7071067811865462405, 8.659560562354916834E-17, -0.7071067811865486830 ) ) ;
#113 = FACE_OUTER_BOUND ( 'NONE', #103, .T. ) ;
#114 = CIRCLE ( 'NONE', #52, 0.01198799999999999866 ) ;
#115 =( CONVERSION_BASED_UNIT ( 'INCH', #34 ) LENGTH_UNIT ( ) NAMED_UNIT ( #104 ) );
#116 = FILL_AREA_STYLE ('',( #191 ) ) ;
#117 = CONICAL_SURFACE ( 'NONE', #224, 0.04750000000000064587, 0.7853981633974466137 ) ;
#118 = ORIENTED_EDGE ( 'NONE', *, *, #179, .T. ) ;
#119 = PRESENTATION_STYLE_ASSIGNMENT (( #170 ) ) ;
#120 = ADVANCED_FACE ( 'NONE', ( #65 ), #89, .T. ) ;
#121 = AXIS2_PLACEMENT_3D ( 'NONE', #273, #18, #184 ) ;
#122 = ORIENTED_EDGE ( 'NONE', *, *, #290, .T. ) ;
#123 = MECHANICAL_DESIGN_GEOMETRIC_PRESENTATION_REPRESENTATION (  '', ( #153 ), #31 ) ;
#124 = EDGE_LOOP ( 'NONE', ( #97, #221 ) ) ;
#125 = PRODUCT_CONTEXT ( 'NONE', #198, 'mechanical' ) ;
#126 = DIRECTION ( 'NONE',  ( 1.000000000000000000, 0.0000000000000000000, 0.0000000000000000000 ) ) ;
#127 = AXIS2_PLACEMENT_3D ( 'NONE', #190, #17, #276 ) ;
#128 = AXIS2_PLACEMENT_3D ( 'NONE', #77, #147, #251 ) ;
#129 = UNCERTAINTY_MEASURE_WITH_UNIT (LENGTH_MEASURE( 1.000000000000000082E-05 ), #115, 'distance_accuracy_value', 'NONE');
#130 = DIRECTION ( 'NONE',  ( -1.000000000000000000, 0.0000000000000000000, 1.224646799147353700E-16 ) ) ;
#131 = ORIENTED_EDGE ( 'NONE', *, *, #235, .F. ) ;
#132 = CARTESIAN_POINT ( 'NONE',  ( 0.0000000000000000000, 0.0000000000000000000, 0.0000000000000000000 ) ) ;
#133 = CARTESIAN_POINT ( 'NONE',  ( -0.06250000000000002776, 0.0000000000000000000, 1.485000000000000764 ) ) ;
#134 = LINE ( 'NONE', #234, #193 ) ;
#135 = EDGE_CURVE ( 'NONE', #62, #244, #28, .T. ) ;
#136 = DIRECTION ( 'NONE',  ( 1.000000000000000000, 0.0000000000000000000, 0.0000000000000000000 ) ) ;
#137 = PLANE ( 'NONE',  #250 ) ;
#138 = CONICAL_SURFACE ( 'NONE', #217, 0.01198799999999999866, 0.1745329251994338915 ) ;
#139 = EDGE_CURVE ( 'NONE', #169, #88, #42, .T. ) ;
#140 = DIRECTION ( 'NONE',  ( -0.7071067811865462405, 0.0000000000000000000, -0.7071067811865486830 ) ) ;
#141 = ORIENTED_EDGE ( 'NONE', *, *, #5, .F. ) ;
#142 = CIRCLE ( 'NONE', #92, 0.06250000000000002776 ) ;
#143 = EDGE_LOOP ( 'NONE', ( #186, #146, #50, #220 ) ) ;
#144 = EDGE_CURVE ( 'NONE', #172, #22, #256, .T. ) ;
#145 = VERTEX_POINT ( 'NONE', #233 ) ;
#146 = ORIENTED_EDGE ( 'NONE', *, *, #271, .F. ) ;
#147 = DIRECTION ( 'NONE',  ( 0.0000000000000000000, 0.0000000000000000000, 1.000000000000000000 ) ) ;
#148 = DIRECTION ( 'NONE',  ( 0.0000000000000000000, 0.0000000000000000000, 1.000000000000000000 ) ) ;
#149 = EDGE_LOOP ( 'NONE', ( #166, #261, #40, #202 ) ) ;
#150 = CARTESIAN_POINT ( 'NONE',  ( 1.797912027455036029E-34, 0.0000000000000000000, 1.468106582817847438E-18 ) ) ;
#151 = CARTESIAN_POINT ( 'NONE',  ( 0.04750000000000064587, 5.817072295950006528E-18, 1.500000000000000222 ) ) ;
#152 = VECTOR ( 'NONE', #161, 39.37007874015748143 ) ;
#153 = STYLED_ITEM ( 'NONE', ( #119 ), #267 ) ;
#154 = CYLINDRICAL_SURFACE ( 'NONE', #274, 0.01198799999999999866 ) ;
#155 = ORIENTED_EDGE ( 'NONE', *, *, #157, .F. ) ;
#156 = DIRECTION ( 'NONE',  ( 0.0000000000000000000, 0.0000000000000000000, -1.000000000000000000 ) ) ;
#157 = EDGE_CURVE ( 'NONE', #169, #145, #177, .T. ) ;
#158 = CIRCLE ( 'NONE', #127, 0.06250000000000002776 ) ;
#159 = DIRECTION ( 'NONE',  ( -0.0000000000000000000, -0.0000000000000000000, -1.000000000000000000 ) ) ;
#160 = DIRECTION ( 'NONE',  ( 0.0000000000000000000, 0.0000000000000000000, 1.000000000000000000 ) ) ;
#161 = DIRECTION ( 'NONE',  ( 0.1736481776669313859, 0.0000000000000000000, 0.9848077530122077983 ) ) ;
#162 = DIRECTION ( 'NONE',  ( 1.000000000000000000, 0.0000000000000000000, 0.0000000000000000000 ) ) ;
#163 = PRODUCT_DEFINITION_SHAPE ( 'NONE', 'NONE',  #102 ) ;
#164 = ADVANCED_FACE ( 'NONE', ( #113 ), #36, .T. ) ;
#165 = AXIS2_PLACEMENT_3D ( 'NONE', #4, #63, #178 ) ;
#166 = ORIENTED_EDGE ( 'NONE', *, *, #135, .F. ) ;
#167 = VECTOR ( 'NONE', #14, 39.37007874015748143 ) ;
#168 = ORIENTED_EDGE ( 'NONE', *, *, #239, .T. ) ;
#169 = VERTEX_POINT ( 'NONE', #284 ) ;
#170 = SURFACE_STYLE_USAGE ( .BOTH. , #292 ) ;
#171 = AXIS2_PLACEMENT_3D ( 'NONE', #232, #205, #8 ) ;
#172 = VERTEX_POINT ( 'NONE', #133 ) ;
#173 = DIRECTION ( 'NONE',  ( -0.0000000000000000000, -0.0000000000000000000, -1.000000000000000000 ) ) ;
#174 = CARTESIAN_POINT ( 'NONE',  ( 0.01198800000000000386, 0.0000000000000000000, 0.03599999999999999728 ) ) ;
#175 = VECTOR ( 'NONE', #263, 39.37007874015748143 ) ;
#176 = CARTESIAN_POINT ( 'NONE',  ( 4.408728476930472569E-18, 0.0000000000000000000, 0.03599999999999999728 ) ) ;
#177 = LINE ( 'NONE', #44, #25 ) ;
#178 = DIRECTION ( 'NONE',  ( 1.000000000000000000, 0.0000000000000000000, 0.0000000000000000000 ) ) ;
#179 = EDGE_CURVE ( 'NONE', #62, #262, #29, .T. ) ;
#180 = DIRECTION ( 'NONE',  ( 0.0000000000000000000, 0.0000000000000000000, -1.000000000000000000 ) ) ;
#181 =( GEOMETRIC_REPRESENTATION_CONTEXT ( 3 ) GLOBAL_UNCERTAINTY_ASSIGNED_CONTEXT ( ( #78 ) ) GLOBAL_UNIT_ASSIGNED_CONTEXT ( ( #218, #272, #76 ) ) REPRESENTATION_CONTEXT ( 'NONE', 'WORKASPACE' ) );
#182 = AXIS2_PLACEMENT_3D ( 'NONE', #288, #156, #67 ) ;
#183 = DIRECTION ( 'NONE',  ( -1.000000000000000000, 0.0000000000000000000, 1.224646799147353700E-16 ) ) ;
#184 = DIRECTION ( 'NONE',  ( -1.000000000000000000, 0.0000000000000000000, 1.224646799147353700E-16 ) ) ;
#185 = ORIENTED_EDGE ( 'NONE', *, *, #144, .T. ) ;
#186 = ORIENTED_EDGE ( 'NONE', *, *, #96, .F. ) ;
#187 = CARTESIAN_POINT ( 'NONE',  ( 4.408728476930472569E-18, 0.0000000000000000000, 0.03599999999999999728 ) ) ;
#188 = EDGE_CURVE ( 'NONE', #244, #88, #203, .T. ) ;
#189 = ORIENTED_EDGE ( 'NONE', *, *, #290, .F. ) ;
#190 = CARTESIAN_POINT ( 'NONE',  ( 3.949091435114315491E-17, 0.0000000000000000000, 0.3224677872725282834 ) ) ;
#191 = FILL_AREA_STYLE_COLOUR ( '', #294 ) ;
#192 = COLOUR_RGB ( '',0.7921568627450980005, 0.8196078431372548767, 0.9333333333333333481 ) ;
#193 = VECTOR ( 'NONE', #140, 39.37007874015748854 ) ;
#194 = CARTESIAN_POINT ( 'NONE',  ( 0.01198799999999999866, 1.468106582817846860E-18, 0.0000000000000000000 ) ) ;
#195 = EDGE_LOOP ( 'NONE', ( #185, #168, #189, #56 ) ) ;
#196 = LINE ( 'NONE', #83, #6 ) ;
#197 = LINE ( 'NONE', #70, #167 ) ;
#198 = APPLICATION_CONTEXT ( 'automotive_design' ) ;
#199 = EDGE_LOOP ( 'NONE', ( #12, #105, #248, #227 ) ) ;
#200 = PLANE ( 'NONE',  #66 ) ;
#201 = PRODUCT ( 'Micro_SME-024-2', 'Micro_SME-024-2', '', ( #125 ) ) ;
#202 = ORIENTED_EDGE ( 'NONE', *, *, #188, .F. ) ;
#203 = CIRCLE ( 'NONE', #30, 0.01198799999999999866 ) ;
#204 = SURFACE_STYLE_FILL_AREA ( #61 ) ;
#205 = DIRECTION ( 'NONE',  ( -1.224646799147353700E-16, -0.0000000000000000000, -1.000000000000000000 ) ) ;
#206 = FACE_OUTER_BOUND ( 'NONE', #124, .T. ) ;
#207 = PRODUCT_RELATED_PRODUCT_CATEGORY ( 'part', '', ( #201 ) ) ;
#208 = CARTESIAN_POINT ( 'NONE',  ( 4.408728476930472569E-18, 0.0000000000000000000, 0.03599999999999999728 ) ) ;
#209 = CARTESIAN_POINT ( 'NONE',  ( 0.01198800000000000386, 0.0000000000000000000, 0.03599999999999999728 ) ) ;
#210 = AXIS2_PLACEMENT_3D ( 'NONE', #286, #159, #257 ) ;
#211 = DIRECTION ( 'NONE',  ( 0.0000000000000000000, 0.0000000000000000000, -1.000000000000000000 ) ) ;
#212 = CLOSED_SHELL ( 'NONE', ( #64, #164, #41, #82, #120, #282, #275, #258, #269, #223 ) ) ;
#213 = CARTESIAN_POINT ( 'NONE',  ( 0.06250000000000006939, 7.654042494670963708E-18, 0.3224677872725282834 ) ) ;
#214 = DIRECTION ( 'NONE',  ( 1.224646799147353700E-16, 0.0000000000000000000, 1.000000000000000000 ) ) ;
#215 = LENGTH_MEASURE_WITH_UNIT ( LENGTH_MEASURE( 0.02539999999999999897 ), #72 );
#216 = PRODUCT_DEFINITION_CONTEXT ( 'detailed design', #21, 'design' ) ;
#217 = AXIS2_PLACEMENT_3D ( 'NONE', #187, #214, #242 ) ;
#218 =( CONVERSION_BASED_UNIT ( 'INCH', #215 ) LENGTH_UNIT ( ) NAMED_UNIT ( #253 ) );
#219 = ORIENTED_EDGE ( 'NONE', *, *, #139, .F. ) ;
#220 = ORIENTED_EDGE ( 'NONE', *, *, #285, .F. ) ;
#221 = ORIENTED_EDGE ( 'NONE', *, *, #48, .T. ) ;
#222 = APPLICATION_PROTOCOL_DEFINITION ( 'draft international standard', 'automotive_design', 1998, #21 ) ;
#223 = ADVANCED_FACE ( 'NONE', ( #107 ), #200, .F. ) ;
#224 = AXIS2_PLACEMENT_3D ( 'NONE', #106, #298, #79 ) ;
#225 =( NAMED_UNIT ( * ) SI_UNIT ( $, .STERADIAN. ) SOLID_ANGLE_UNIT ( ) );
#226 = MANIFOLD_SOLID_BREP ( 'Cut-Revolve1', #212 ) ;
#227 = ORIENTED_EDGE ( 'NONE', *, *, #291, .F. ) ;
#228 = CARTESIAN_POINT ( 'NONE',  ( -0.01198799999999999866, 0.0000000000000000000, 1.468106582817847438E-18 ) ) ;
#229 = DIRECTION ( 'NONE',  ( -1.224646799147353700E-16, -0.0000000000000000000, -1.000000000000000000 ) ) ;
#230 = VECTOR ( 'NONE', #45, 39.37007874015748143 ) ;
#231 = AXIS2_PLACEMENT_3D ( 'NONE', #46, #69, #162 ) ;
#232 = CARTESIAN_POINT ( 'NONE',  ( 4.408728476930472569E-18, 0.0000000000000000000, 0.03599999999999999728 ) ) ;
#233 = CARTESIAN_POINT ( 'NONE',  ( -0.06249999999999997918, 0.0000000000000000000, 0.3224677872725282834 ) ) ;
#234 = CARTESIAN_POINT ( 'NONE',  ( -0.04750000000000064587, 0.0000000000000000000, 1.500000000000000222 ) ) ;
#235 = EDGE_CURVE ( 'NONE', #62, #169, #114, .T. ) ;
#236 = DIRECTION ( 'NONE',  ( -1.224646799147353700E-16, -0.0000000000000000000, -1.000000000000000000 ) ) ;
#237 = VERTEX_POINT ( 'NONE', #252 ) ;
#238 = EDGE_LOOP ( 'NONE', ( #155, #131, #118, #15 ) ) ;
#239 = EDGE_CURVE ( 'NONE', #22, #262, #197, .T. ) ;
#240 = ORIENTED_EDGE ( 'NONE', *, *, #157, .T. ) ;
#241 = CIRCLE ( 'NONE', #255, 0.01198799999999999866 ) ;
#242 = DIRECTION ( 'NONE',  ( 1.000000000000000000, 0.0000000000000000000, 0.0000000000000000000 ) ) ;
#243 = VECTOR ( 'NONE', #112, 39.37007874015748854 ) ;
#244 = VERTEX_POINT ( 'NONE', #194 ) ;
#245 = DIMENSIONAL_EXPONENTS ( 1.000000000000000000, 0.0000000000000000000, 0.0000000000000000000, 0.0000000000000000000, 0.0000000000000000000, 0.0000000000000000000, 0.0000000000000000000 ) ;
#246 = ORIENTED_EDGE ( 'NONE', *, *, #285, .T. ) ;
#247 =( NAMED_UNIT ( * ) PLANE_ANGLE_UNIT ( ) SI_UNIT ( $, .RADIAN. ) );
#248 = ORIENTED_EDGE ( 'NONE', *, *, #144, .F. ) ;
#249 = FACE_OUTER_BOUND ( 'NONE', #238, .T. ) ;
#250 = AXIS2_PLACEMENT_3D ( 'NONE', #281, #160, #260 ) ;
#251 = DIRECTION ( 'NONE',  ( 1.000000000000000000, 0.0000000000000000000, 0.0000000000000000000 ) ) ;
#252 = CARTESIAN_POINT ( 'NONE',  ( 0.04750000000000064587, 6.735557395310483192E-18, 1.500000000000000222 ) ) ;
#253 = DIMENSIONAL_EXPONENTS ( 1.000000000000000000, 0.0000000000000000000, 0.0000000000000000000, 0.0000000000000000000, 0.0000000000000000000, 0.0000000000000000000, 0.0000000000000000000 ) ;
#254 =( NAMED_UNIT ( * ) PLANE_ANGLE_UNIT ( ) SI_UNIT ( $, .RADIAN. ) );
#255 = AXIS2_PLACEMENT_3D ( 'NONE', #150, #229, #23 ) ;
#256 = CIRCLE ( 'NONE', #74, 0.06250000000000002776 ) ;
#257 = DIRECTION ( 'NONE',  ( -1.000000000000000000, 0.0000000000000000000, 0.0000000000000000000 ) ) ;
#258 = ADVANCED_FACE ( 'NONE', ( #249 ), #138, .T. ) ;
#259 = CARTESIAN_POINT ( 'NONE',  ( 0.0000000000000000000, 0.0000000000000000000, 1.500000000000000222 ) ) ;
#260 = DIRECTION ( 'NONE',  ( 1.000000000000000000, 0.0000000000000000000, -0.0000000000000000000 ) ) ;
#261 = ORIENTED_EDGE ( 'NONE', *, *, #235, .T. ) ;
#262 = VERTEX_POINT ( 'NONE', #213 ) ;
#263 = DIRECTION ( 'NONE',  ( -1.224646799147353700E-16, -0.0000000000000000000, -1.000000000000000000 ) ) ;
#264 = ORIENTED_EDGE ( 'NONE', *, *, #93, .T. ) ;
#265 = DIRECTION ( 'NONE',  ( 1.000000000000000000, 0.0000000000000000000, 0.0000000000000000000 ) ) ;
#266 = CIRCLE ( 'NONE', #231, 0.06250000000000002776 ) ;
#267 = ADVANCED_BREP_SHAPE_REPRESENTATION ( 'Micro_SME-024-2', ( #226, #128 ), #80 ) ;
#268 = APPLICATION_PROTOCOL_DEFINITION ( 'draft international standard', 'automotive_design', 1998, #198 ) ;
#269 = ADVANCED_FACE ( 'NONE', ( #293 ), #295, .T. ) ;
#270 = AXIS2_PLACEMENT_3D ( 'NONE', #277, #148, #126 ) ;
#271 = EDGE_CURVE ( 'NONE', #57, #237, #86, .T. ) ;
#272 =( NAMED_UNIT ( * ) PLANE_ANGLE_UNIT ( ) SI_UNIT ( $, .RADIAN. ) );
#273 = CARTESIAN_POINT ( 'NONE',  ( 0.0000000000000000000, 0.0000000000000000000, 0.0000000000000000000 ) ) ;
#274 = AXIS2_PLACEMENT_3D ( 'NONE', #2, #35, #130 ) ;
#275 = ADVANCED_FACE ( 'NONE', ( #71 ), #87, .T. ) ;
#276 = DIRECTION ( 'NONE',  ( 1.000000000000000000, 0.0000000000000000000, 0.0000000000000000000 ) ) ;
#277 = CARTESIAN_POINT ( 'NONE',  ( 0.0000000000000000000, 0.0000000000000000000, 1.500000000000000222 ) ) ;
#278 = FILL_AREA_STYLE_COLOUR ( '', #192 ) ;
#279 = DIRECTION ( 'NONE',  ( 1.000000000000000000, 0.0000000000000000000, 0.0000000000000000000 ) ) ;
#280 = DIRECTION ( 'NONE',  ( -0.0000000000000000000, -0.0000000000000000000, -1.000000000000000000 ) ) ;
#281 = CARTESIAN_POINT ( 'NONE',  ( 0.0000000000000000000, 0.0000000000000000000, 1.500000000000000222 ) ) ;
#282 = ADVANCED_FACE ( 'NONE', ( #206 ), #137, .T. ) ;
#283 = MECHANICAL_DESIGN_GEOMETRIC_PRESENTATION_REPRESENTATION (  '', ( #49 ), #181 ) ;
#284 = CARTESIAN_POINT ( 'NONE',  ( -0.01198799999999999519, 4.561074538744403069E-18, 0.03599999999999999728 ) ) ;
#285 = EDGE_CURVE ( 'NONE', #22, #172, #142, .T. ) ;
#286 = CARTESIAN_POINT ( 'NONE',  ( 0.0000000000000000000, 0.0000000000000000000, 1.500000000000000222 ) ) ;
#287 = CARTESIAN_POINT ( 'NONE',  ( -0.01198799999999999866, 0.0000000000000000000, 2.936213165635694876E-18 ) ) ;
#288 = CARTESIAN_POINT ( 'NONE',  ( 0.0000000000000000000, 0.0000000000000000000, 1.500000000000000222 ) ) ;
#289 = SURFACE_STYLE_USAGE ( .BOTH. , #39 ) ;
#290 = EDGE_CURVE ( 'NONE', #145, #262, #266, .T. ) ;
#291 = EDGE_CURVE ( 'NONE', #57, #172, #134, .T. ) ;
#292 = SURFACE_SIDE_STYLE ('',( #38 ) ) ;
#293 = FACE_OUTER_BOUND ( 'NONE', #149, .T. ) ;
#294 = COLOUR_RGB ( '',0.7921568627450980005, 0.8196078431372548767, 0.9333333333333333481 ) ;
#295 = CYLINDRICAL_SURFACE ( 'NONE', #121, 0.01198799999999999866 ) ;
#296 = FACE_OUTER_BOUND ( 'NONE', #199, .T. ) ;
#297 = CIRCLE ( 'NONE', #270, 0.04750000000000064587 ) ;
#298 = DIRECTION ( 'NONE',  ( 0.0000000000000000000, 0.0000000000000000000, -1.000000000000000000 ) ) ;
#299 = DIRECTION ( 'NONE',  ( 0.0000000000000000000, 0.0000000000000000000, 1.000000000000000000 ) ) ;
ENDSEC;
END-ISO-10303-21;
