ISO-10303-21;
HEADER;
FILE_DESCRIPTION (( 'STEP AP214' ),
    '1' );
FILE_NAME ('Micro_BMRM-011-4.STEP',
    '2021-09-03T14:26:18',
    ( '' ),
    ( '' ),
    'SwSTEP 2.0',
    'SolidWorks 2020',
    '' );
FILE_SCHEMA (( 'AUTOMOTIVE_DESIGN' ));
ENDSEC;

DATA;
#1 = PRODUCT_RELATED_PRODUCT_CATEGORY ( 'part', '', ( #133 ) ) ;
#2 = ORIENTED_EDGE ( 'NONE', *, *, #230, .F. ) ;
#3 = ADVANCED_FACE ( 'NONE', ( #295 ), #173, .T. ) ;
#4 =( GEOMETRIC_REPRESENTATION_CONTEXT ( 3 ) GLOBAL_UNCERTAINTY_ASSIGNED_CONTEXT ( ( #251 ) ) GLOBAL_UNIT_ASSIGNED_CONTEXT ( ( #242, #291, #150 ) ) REPRESENTATION_CONTEXT ( 'NONE', 'WORKASPACE' ) );
#5 = CARTESIAN_POINT ( 'NONE',  ( 2.649137157587187450E-18, 0.0000000000000000000, 0.02163184649999999945 ) ) ;
#6 = PRODUCT_DEFINITION_SHAPE ( 'NONE', 'NONE',  #193 ) ;
#7 = APPLICATION_PROTOCOL_DEFINITION ( 'draft international standard', 'automotive_design', 1998, #55 ) ;
#8 = SPHERICAL_SURFACE ( 'NONE', #160, 0.02163184649999999945 ) ;
#9 = FILL_AREA_STYLE_COLOUR ( '', #88 ) ;
#10 = AXIS2_PLACEMENT_3D ( 'NONE', #232, #228, #301 ) ;
#11 = DIRECTION ( 'NONE',  ( 0.0000000000000000000, 0.0000000000000000000, -1.000000000000000000 ) ) ;
#12 = DIRECTION ( 'NONE',  ( -1.000000000000000000, 0.0000000000000000000, 0.0000000000000000000 ) ) ;
#13 = EDGE_CURVE ( 'NONE', #113, #63, #135, .T. ) ;
#14 = DIRECTION ( 'NONE',  ( -1.000000000000000000, 0.0000000000000000000, 1.973253873681292640E-16 ) ) ;
#15 = AXIS2_PLACEMENT_3D ( 'NONE', #25, #29, #120 ) ;
#16 =( NAMED_UNIT ( * ) SI_UNIT ( $, .STERADIAN. ) SOLID_ANGLE_UNIT ( ) );
#17 = DIRECTION ( 'NONE',  ( -1.224646799147353207E-16, -0.0000000000000000000, -1.000000000000000000 ) ) ;
#18 =( CONVERSION_BASED_UNIT ( 'INCH', #184 ) LENGTH_UNIT ( ) NAMED_UNIT ( #289 ) );
#19 = LINE ( 'NONE', #213, #58 ) ;
#20 = LINE ( 'NONE', #308, #155 ) ;
#21 = UNCERTAINTY_MEASURE_WITH_UNIT (LENGTH_MEASURE( 1.000000000000000082E-05 ), #221, 'distance_accuracy_value', 'NONE');
#22 = CIRCLE ( 'NONE', #238, 0.07874000000000000443 ) ;
#23 = DIRECTION ( 'NONE',  ( 1.000000000000000000, 0.0000000000000000000, 0.0000000000000000000 ) ) ;
#24 = SPHERICAL_SURFACE ( 'NONE', #66, 0.02163184649999999945 ) ;
#25 = CARTESIAN_POINT ( 'NONE',  ( 0.0000000000000000000, 0.0000000000000000000, 1.968503999999999809 ) ) ;
#26 = DIRECTION ( 'NONE',  ( -1.224646799147353207E-16, -0.0000000000000000000, -1.000000000000000000 ) ) ;
#27 = VERTEX_POINT ( 'NONE', #169 ) ;
#28 = LENGTH_MEASURE_WITH_UNIT ( LENGTH_MEASURE( 0.02539999999999999897 ), #302 );
#29 = DIRECTION ( 'NONE',  ( 0.0000000000000000000, 0.0000000000000000000, 1.000000000000000000 ) ) ;
#30 = CIRCLE ( 'NONE', #316, 0.02163184650000000292 ) ;
#31 = ORIENTED_EDGE ( 'NONE', *, *, #156, .T. ) ;
#32 = EDGE_CURVE ( 'NONE', #27, #226, #181, .T. ) ;
#33 = AXIS2_PLACEMENT_3D ( 'NONE', #260, #141, #43 ) ;
#34 = CARTESIAN_POINT ( 'NONE',  ( 3.973705736380780789E-18, 0.0000000000000000000, 0.0000000000000000000 ) ) ;
#35 = ADVANCED_FACE ( 'NONE', ( #99 ), #102, .T. ) ;
#36 = CARTESIAN_POINT ( 'NONE',  ( 1.591073367920233116E-17, 0.0000000000000000000, 0.1299210000000000087 ) ) ;
#37 = CARTESIAN_POINT ( 'NONE',  ( 0.0000000000000000000, 0.0000000000000000000, 0.0000000000000000000 ) ) ;
#38 = AXIS2_PLACEMENT_3D ( 'NONE', #37, #177, #152 ) ;
#39 = ADVANCED_FACE ( 'NONE', ( #201 ), #253, .T. ) ;
#40 =( NAMED_UNIT ( * ) PLANE_ANGLE_UNIT ( ) SI_UNIT ( $, .RADIAN. ) );
#41 = CARTESIAN_POINT ( 'NONE',  ( -0.07874000000000000443, 0.0000000000000000000, 1.953504000000000129 ) ) ;
#42 = DIRECTION ( 'NONE',  ( -1.000000000000000000, 0.0000000000000000000, 0.0000000000000000000 ) ) ;
#43 = DIRECTION ( 'NONE',  ( 1.000000000000000000, 0.0000000000000000000, 0.0000000000000000000 ) ) ;
#44 = CONICAL_SURFACE ( 'NONE', #200, 0.02163184650000000292, 0.1745329251994338637 ) ;
#45 = LINE ( 'NONE', #315, #218 ) ;
#46 = ORIENTED_EDGE ( 'NONE', *, *, #164, .T. ) ;
#47 = VERTEX_POINT ( 'NONE', #127 ) ;
#48 = VERTEX_POINT ( 'NONE', #53 ) ;
#49 = DIRECTION ( 'NONE',  ( 1.224646799147353207E-16, 0.0000000000000000000, 1.000000000000000000 ) ) ;
#50 = VERTEX_POINT ( 'NONE', #206 ) ;
#51 = ORIENTED_EDGE ( 'NONE', *, *, #248, .F. ) ;
#52 = CARTESIAN_POINT ( 'NONE',  ( 2.649137157587187450E-18, 0.0000000000000000000, 0.02163184649999999945 ) ) ;
#53 = CARTESIAN_POINT ( 'NONE',  ( 0.07874000000000004607, 9.642868896486264672E-18, 0.4537974326964857585 ) ) ;
#54 = FACE_OUTER_BOUND ( 'NONE', #290, .T. ) ;
#55 = APPLICATION_CONTEXT ( 'automotive_design' ) ;
#56 = SURFACE_STYLE_FILL_AREA ( #105 ) ;
#57 = DIRECTION ( 'NONE',  ( -1.000000000000000000, 0.0000000000000000000, 1.224646799147353207E-16 ) ) ;
#58 = VECTOR ( 'NONE', #163, 39.37007874015748143 ) ;
#59 = CYLINDRICAL_SURFACE ( 'NONE', #138, 0.07874000000000000443 ) ;
#60 = DIRECTION ( 'NONE',  ( -1.000000000000000000, 0.0000000000000000000, 0.0000000000000000000 ) ) ;
#61 =( GEOMETRIC_REPRESENTATION_CONTEXT ( 3 ) GLOBAL_UNCERTAINTY_ASSIGNED_CONTEXT ( ( #233 ) ) GLOBAL_UNIT_ASSIGNED_CONTEXT ( ( #18, #40, #16 ) ) REPRESENTATION_CONTEXT ( 'NONE', 'WORKASPACE' ) );
#62 = LINE ( 'NONE', #187, #175 ) ;
#63 = VERTEX_POINT ( 'NONE', #249 ) ;
#64 = LINE ( 'NONE', #237, #211 ) ;
#65 = ORIENTED_EDGE ( 'NONE', *, *, #89, .T. ) ;
#66 = AXIS2_PLACEMENT_3D ( 'NONE', #288, #110, #312 ) ;
#67 = ORIENTED_EDGE ( 'NONE', *, *, #199, .T. ) ;
#68 = EDGE_LOOP ( 'NONE', ( #219, #314, #246, #143 ) ) ;
#69 = APPLICATION_CONTEXT ( 'automotive_design' ) ;
#70 = VERTEX_POINT ( 'NONE', #34 ) ;
#71 = CLOSED_SHELL ( 'NONE', ( #124, #39, #112, #101, #172, #208, #196, #183, #3, #35, #318 ) ) ;
#72 = AXIS2_PLACEMENT_3D ( 'NONE', #82, #108, #287 ) ;
#73 = VERTEX_POINT ( 'NONE', #254 ) ;
#74 = DIRECTION ( 'NONE',  ( -1.224646799147353207E-16, -0.0000000000000000000, -1.000000000000000000 ) ) ;
#75 = EDGE_CURVE ( 'NONE', #48, #265, #310, .T. ) ;
#76 = FACE_OUTER_BOUND ( 'NONE', #176, .T. ) ;
#77 = DIRECTION ( 'NONE',  ( 1.224646799147353207E-16, 0.0000000000000000000, 1.000000000000000000 ) ) ;
#78 = PRESENTATION_STYLE_ASSIGNMENT (( #307 ) ) ;
#79 = DIRECTION ( 'NONE',  ( 0.1736481776669313581, 0.0000000000000000000, 0.9848077530122077983 ) ) ;
#80 = VECTOR ( 'NONE', #26, 39.37007874015748143 ) ;
#81 = CIRCLE ( 'NONE', #266, 0.02163184649999999945 ) ;
#82 = CARTESIAN_POINT ( 'NONE',  ( 0.0000000000000000000, 0.0000000000000000000, 1.968503999999999809 ) ) ;
#83 = DIRECTION ( 'NONE',  ( 1.000000000000000000, 0.0000000000000000000, -0.0000000000000000000 ) ) ;
#84 = CARTESIAN_POINT ( 'NONE',  ( 0.06374000000000018540, 7.805898697765251255E-18, 1.968503999999999809 ) ) ;
#85 = DIRECTION ( 'NONE',  ( 0.0000000000000000000, 0.0000000000000000000, -1.000000000000000000 ) ) ;
#86 = VERTEX_POINT ( 'NONE', #126 ) ;
#87 = FILL_AREA_STYLE ('',( #259 ) ) ;
#88 = COLOUR_RGB ( '',0.7921568627450980005, 0.8196078431372548767, 0.9333333333333333481 ) ;
#89 = EDGE_CURVE ( 'NONE', #70, #47, #190, .T. ) ;
#90 =( LENGTH_UNIT ( ) NAMED_UNIT ( * ) SI_UNIT ( $, .METRE. ) );
#91 = ORIENTED_EDGE ( 'NONE', *, *, #220, .F. ) ;
#92 = ORIENTED_EDGE ( 'NONE', *, *, #300, .T. ) ;
#93 = MECHANICAL_DESIGN_GEOMETRIC_PRESENTATION_REPRESENTATION (  '', ( #139 ), #4 ) ;
#94 = ORIENTED_EDGE ( 'NONE', *, *, #132, .F. ) ;
#95 = ORIENTED_EDGE ( 'NONE', *, *, #248, .T. ) ;
#96 = APPLICATION_PROTOCOL_DEFINITION ( 'draft international standard', 'automotive_design', 1998, #69 ) ;
#97 = ORIENTED_EDGE ( 'NONE', *, *, #164, .F. ) ;
#98 = PRODUCT_DEFINITION_FORMATION_WITH_SPECIFIED_SOURCE ( 'ANY', '', #133, .NOT_KNOWN. ) ;
#99 = FACE_OUTER_BOUND ( 'NONE', #68, .T. ) ;
#100 = CIRCLE ( 'NONE', #33, 0.07874000000000000443 ) ;
#101 = ADVANCED_FACE ( 'NONE', ( #76 ), #277, .T. ) ;
#102 = CYLINDRICAL_SURFACE ( 'NONE', #294, 0.02163184649999999945 ) ;
#103 = CARTESIAN_POINT ( 'NONE',  ( 0.0000000000000000000, 0.0000000000000000000, 0.0000000000000000000 ) ) ;
#104 = CARTESIAN_POINT ( 'NONE',  ( 0.0000000000000000000, 0.0000000000000000000, 1.968503999999999809 ) ) ;
#105 = FILL_AREA_STYLE ('',( #9 ) ) ;
#106 = LINE ( 'NONE', #154, #305 ) ;
#107 = CIRCLE ( 'NONE', #227, 0.02163184650000000292 ) ;
#108 = DIRECTION ( 'NONE',  ( -0.0000000000000000000, -0.0000000000000000000, -1.000000000000000000 ) ) ;
#109 = DIRECTION ( 'NONE',  ( -1.000000000000000000, 0.0000000000000000000, 0.0000000000000000000 ) ) ;
#110 = DIRECTION ( 'NONE',  ( 0.0000000000000000000, 1.000000000000000000, 0.0000000000000000000 ) ) ;
#111 = CARTESIAN_POINT ( 'NONE',  ( 2.649137157587187450E-18, 0.0000000000000000000, 0.02163184649999999945 ) ) ;
#112 = ADVANCED_FACE ( 'NONE', ( #151 ), #44, .T. ) ;
#113 = VERTEX_POINT ( 'NONE', #182 ) ;
#114 = LINE ( 'NONE', #241, #80 ) ;
#115 = AXIS2_PLACEMENT_3D ( 'NONE', #304, #121, #203 ) ;
#116 = ORIENTED_EDGE ( 'NONE', *, *, #89, .F. ) ;
#117 = LENGTH_MEASURE_WITH_UNIT ( LENGTH_MEASURE( 0.02539999999999999897 ), #90 );
#118 = EDGE_LOOP ( 'NONE', ( #116, #319, #322 ) ) ;
#119 = EDGE_LOOP ( 'NONE', ( #270, #168, #92, #222 ) ) ;
#120 = DIRECTION ( 'NONE',  ( 1.000000000000000000, 0.0000000000000000000, 0.0000000000000000000 ) ) ;
#121 = DIRECTION ( 'NONE',  ( 0.0000000000000000000, 0.0000000000000000000, 1.000000000000000000 ) ) ;
#122 = ORIENTED_EDGE ( 'NONE', *, *, #13, .T. ) ;
#123 = PRESENTATION_STYLE_ASSIGNMENT (( #170 ) ) ;
#124 = ADVANCED_FACE ( 'NONE', ( #54 ), #8, .T. ) ;
#125 = MANIFOLD_SOLID_BREP ( 'Fillet1', #71 ) ;
#126 = CARTESIAN_POINT ( 'NONE',  ( 0.02163184650000002027, 0.0000000000000000000, 0.1299210000000000087 ) ) ;
#127 = CARTESIAN_POINT ( 'NONE',  ( -0.02163184649999999598, 0.0000000000000000000, 0.02163184650000000292 ) ) ;
#128 = DIRECTION ( 'NONE',  ( -1.000000000000000000, 0.0000000000000000000, 0.0000000000000000000 ) ) ;
#129 = MECHANICAL_DESIGN_GEOMETRIC_PRESENTATION_REPRESENTATION (  '', ( #272 ), #61 ) ;
#130 = DIRECTION ( 'NONE',  ( -0.1736481776669311639, 2.126576849575783008E-17, 0.9848077530122080203 ) ) ;
#131 = DIRECTION ( 'NONE',  ( -1.224646799147353207E-16, -0.0000000000000000000, -1.000000000000000000 ) ) ;
#132 = EDGE_CURVE ( 'NONE', #73, #265, #106, .T. ) ;
#133 = PRODUCT ( 'Micro_BMRM-011-4', 'Micro_BMRM-011-4', '', ( #271 ) ) ;
#134 = CIRCLE ( 'NONE', #171, 0.02163184649999999945 ) ;
#135 = CIRCLE ( 'NONE', #15, 0.06374000000000018540 ) ;
#136 = DIRECTION ( 'NONE',  ( 0.0000000000000000000, 0.0000000000000000000, -1.000000000000000000 ) ) ;
#137 = FACE_OUTER_BOUND ( 'NONE', #293, .T. ) ;
#138 = AXIS2_PLACEMENT_3D ( 'NONE', #157, #257, #60 ) ;
#139 = STYLED_ITEM ( 'NONE', ( #123 ), #153 ) ;
#140 = ORIENTED_EDGE ( 'NONE', *, *, #309, .F. ) ;
#141 = DIRECTION ( 'NONE',  ( -1.224646799147353207E-16, -0.0000000000000000000, -1.000000000000000000 ) ) ;
#142 = ORIENTED_EDGE ( 'NONE', *, *, #13, .F. ) ;
#143 = ORIENTED_EDGE ( 'NONE', *, *, #263, .T. ) ;
#144 = SHAPE_DEFINITION_REPRESENTATION ( #6, #153 ) ;
#145 = AXIS2_PLACEMENT_3D ( 'NONE', #224, #325, #202 ) ;
#146 = ORIENTED_EDGE ( 'NONE', *, *, #32, .F. ) ;
#147 = EDGE_CURVE ( 'NONE', #73, #86, #30, .T. ) ;
#148 = EDGE_LOOP ( 'NONE', ( #239, #296, #46, #317 ) ) ;
#149 = DIRECTION ( 'NONE',  ( 0.0000000000000000000, 0.0000000000000000000, 1.000000000000000000 ) ) ;
#150 =( NAMED_UNIT ( * ) SI_UNIT ( $, .STERADIAN. ) SOLID_ANGLE_UNIT ( ) );
#151 = FACE_OUTER_BOUND ( 'NONE', #119, .T. ) ;
#152 = DIRECTION ( 'NONE',  ( -1.000000000000000000, 0.0000000000000000000, 1.224646799147353207E-16 ) ) ;
#153 = ADVANCED_BREP_SHAPE_REPRESENTATION ( 'Micro_BMRM-011-4', ( #125, #115 ), #264 ) ;
#154 = CARTESIAN_POINT ( 'NONE',  ( -0.02163184649999998557, 2.649137157587188220E-18, 0.1299210000000000087 ) ) ;
#155 = VECTOR ( 'NONE', #79, 39.37007874015748143 ) ;
#156 = EDGE_CURVE ( 'NONE', #113, #226, #62, .T. ) ;
#157 = CARTESIAN_POINT ( 'NONE',  ( 0.0000000000000000000, 0.0000000000000000000, 1.968503999999999809 ) ) ;
#158 = DIRECTION ( 'NONE',  ( 0.0000000000000000000, -1.000000000000000000, 0.0000000000000000000 ) ) ;
#159 = FACE_OUTER_BOUND ( 'NONE', #148, .T. ) ;
#160 = AXIS2_PLACEMENT_3D ( 'NONE', #204, #279, #229 ) ;
#161 = LINE ( 'NONE', #84, #250 ) ;
#162 = DIRECTION ( 'NONE',  ( 0.0000000000000000000, 0.0000000000000000000, -1.000000000000000000 ) ) ;
#163 = DIRECTION ( 'NONE',  ( -0.0000000000000000000, -0.0000000000000000000, -1.000000000000000000 ) ) ;
#164 = EDGE_CURVE ( 'NONE', #226, #265, #45, .T. ) ;
#165 = DIRECTION ( 'NONE',  ( 1.000000000000000000, 0.0000000000000000000, 0.0000000000000000000 ) ) ;
#166 = ORIENTED_EDGE ( 'NONE', *, *, #309, .T. ) ;
#167 = AXIS2_PLACEMENT_3D ( 'NONE', #5, #274, #303 ) ;
#168 = ORIENTED_EDGE ( 'NONE', *, *, #132, .T. ) ;
#169 = CARTESIAN_POINT ( 'NONE',  ( 0.07874000000000000443, 9.642868896486258509E-18, 1.953504000000000129 ) ) ;
#170 = SURFACE_STYLE_USAGE ( .BOTH. , #286 ) ;
#171 = AXIS2_PLACEMENT_3D ( 'NONE', #52, #180, #276 ) ;
#172 = ADVANCED_FACE ( 'NONE', ( #283 ), #311, .T. ) ;
#173 = CONICAL_SURFACE ( 'NONE', #205, 0.02163184650000000292, 0.1745329251994338637 ) ;
#174 = CARTESIAN_POINT ( 'NONE',  ( 0.0000000000000000000, 0.0000000000000000000, 1.968503999999999809 ) ) ;
#175 = VECTOR ( 'NONE', #186, 39.37007874015748854 ) ;
#176 = EDGE_LOOP ( 'NONE', ( #215, #273, #140, #269 ) ) ;
#177 = DIRECTION ( 'NONE',  ( -1.224646799147353207E-16, -0.0000000000000000000, -1.000000000000000000 ) ) ;
#178 = DIRECTION ( 'NONE',  ( 1.000000000000000000, 0.0000000000000000000, 0.0000000000000000000 ) ) ;
#179 = CARTESIAN_POINT ( 'NONE',  ( 1.591073367920233116E-17, 0.0000000000000000000, 0.1299210000000000087 ) ) ;
#180 = DIRECTION ( 'NONE',  ( 1.224646799147353207E-16, 0.0000000000000000000, 1.000000000000000000 ) ) ;
#181 = CIRCLE ( 'NONE', #145, 0.07874000000000000443 ) ;
#182 = CARTESIAN_POINT ( 'NONE',  ( -0.06374000000000018540, 0.0000000000000000000, 1.968503999999999809 ) ) ;
#183 = ADVANCED_FACE ( 'NONE', ( #214 ), #240, .T. ) ;
#184 = LENGTH_MEASURE_WITH_UNIT ( LENGTH_MEASURE( 0.02539999999999999897 ), #247 );
#185 = AXIS2_PLACEMENT_3D ( 'NONE', #111, #158, #162 ) ;
#186 = DIRECTION ( 'NONE',  ( -0.7071067811865502373, 0.0000000000000000000, -0.7071067811865446862 ) ) ;
#187 = CARTESIAN_POINT ( 'NONE',  ( -0.06374000000000018540, 0.0000000000000000000, 1.968503999999999809 ) ) ;
#188 = DIRECTION ( 'NONE',  ( 0.7071067811865502373, 8.659560562354966138E-17, -0.7071067811865446862 ) ) ;
#189 = PLANE ( 'NONE',  #299 ) ;
#190 = CIRCLE ( 'NONE', #167, 0.02163184649999999945 ) ;
#191 = SURFACE_STYLE_FILL_AREA ( #87 ) ;
#192 = EDGE_LOOP ( 'NONE', ( #166, #195, #321, #97 ) ) ;
#193 = PRODUCT_DEFINITION ( 'UNKNOWN', '', #98, #275 ) ;
#194 = ORIENTED_EDGE ( 'NONE', *, *, #75, .T. ) ;
#195 = ORIENTED_EDGE ( 'NONE', *, *, #278, .T. ) ;
#196 = ADVANCED_FACE ( 'NONE', ( #137 ), #189, .T. ) ;
#197 = ORIENTED_EDGE ( 'NONE', *, *, #282, .T. ) ;
#198 = ORIENTED_EDGE ( 'NONE', *, *, #255, .T. ) ;
#199 = EDGE_CURVE ( 'NONE', #86, #48, #20, .T. ) ;
#200 = AXIS2_PLACEMENT_3D ( 'NONE', #179, #77, #306 ) ;
#201 = FACE_OUTER_BOUND ( 'NONE', #223, .T. ) ;
#202 = DIRECTION ( 'NONE',  ( 1.000000000000000000, 0.0000000000000000000, 0.0000000000000000000 ) ) ;
#203 = DIRECTION ( 'NONE',  ( 1.000000000000000000, 0.0000000000000000000, 0.0000000000000000000 ) ) ;
#204 = CARTESIAN_POINT ( 'NONE',  ( 2.649137157587187450E-18, 0.0000000000000000000, 0.02163184649999999945 ) ) ;
#205 = AXIS2_PLACEMENT_3D ( 'NONE', #243, #49, #23 ) ;
#206 = CARTESIAN_POINT ( 'NONE',  ( 0.02163184650000000292, 2.649137157587187450E-18, 0.02163184649999999598 ) ) ;
#207 = SURFACE_SIDE_STYLE ('',( #56 ) ) ;
#208 = ADVANCED_FACE ( 'NONE', ( #159 ), #59, .T. ) ;
#209 = CARTESIAN_POINT ( 'NONE',  ( 0.0000000000000000000, 0.0000000000000000000, 1.968503999999999809 ) ) ;
#210 = EDGE_LOOP ( 'NONE', ( #268, #142, #31, #146 ) ) ;
#211 = VECTOR ( 'NONE', #17, 39.37007874015748143 ) ;
#212 = CIRCLE ( 'NONE', #252, 0.06374000000000018540 ) ;
#213 = CARTESIAN_POINT ( 'NONE',  ( 0.07874000000000000443, 9.642868896486258509E-18, 1.968503999999999809 ) ) ;
#214 = FACE_OUTER_BOUND ( 'NONE', #210, .T. ) ;
#215 = ORIENTED_EDGE ( 'NONE', *, *, #255, .F. ) ;
#216 = CARTESIAN_POINT ( 'NONE',  ( -0.07873999999999994892, 0.0000000000000000000, 0.4537974326964857585 ) ) ;
#217 = AXIS2_PLACEMENT_3D ( 'NONE', #209, #85, #109 ) ;
#218 = VECTOR ( 'NONE', #234, 39.37007874015748143 ) ;
#219 = ORIENTED_EDGE ( 'NONE', *, *, #282, .F. ) ;
#220 = EDGE_CURVE ( 'NONE', #70, #50, #280, .T. ) ;
#221 =( CONVERSION_BASED_UNIT ( 'INCH', #117 ) LENGTH_UNIT ( ) NAMED_UNIT ( #324 ) );
#222 = ORIENTED_EDGE ( 'NONE', *, *, #199, .F. ) ;
#223 = EDGE_LOOP ( 'NONE', ( #245, #197, #95, #244 ) ) ;
#224 = CARTESIAN_POINT ( 'NONE',  ( 0.0000000000000000000, 0.0000000000000000000, 1.953504000000000129 ) ) ;
#225 = DIMENSIONAL_EXPONENTS ( 1.000000000000000000, 0.0000000000000000000, 0.0000000000000000000, 0.0000000000000000000, 0.0000000000000000000, 0.0000000000000000000, 0.0000000000000000000 ) ;
#226 = VERTEX_POINT ( 'NONE', #41 ) ;
#227 = AXIS2_PLACEMENT_3D ( 'NONE', #258, #131, #42 ) ;
#228 = DIRECTION ( 'NONE',  ( -1.224646799147353207E-16, -0.0000000000000000000, -1.000000000000000000 ) ) ;
#229 = DIRECTION ( 'NONE',  ( 1.000000000000000000, 0.0000000000000000000, 0.0000000000000000000 ) ) ;
#230 = EDGE_CURVE ( 'NONE', #86, #73, #107, .T. ) ;
#231 = AXIS2_PLACEMENT_3D ( 'NONE', #104, #11, #128 ) ;
#232 = CARTESIAN_POINT ( 'NONE',  ( 5.557415734130376665E-17, 0.0000000000000000000, 0.4537974326964857585 ) ) ;
#233 = UNCERTAINTY_MEASURE_WITH_UNIT (LENGTH_MEASURE( 1.000000000000000082E-05 ), #18, 'distance_accuracy_value', 'NONE');
#234 = DIRECTION ( 'NONE',  ( -0.0000000000000000000, -0.0000000000000000000, -1.000000000000000000 ) ) ;
#235 = DIRECTION ( 'NONE',  ( 1.224646799147353207E-16, 0.0000000000000000000, 1.000000000000000000 ) ) ;
#236 =( NAMED_UNIT ( * ) PLANE_ANGLE_UNIT ( ) SI_UNIT ( $, .RADIAN. ) );
#237 = CARTESIAN_POINT ( 'NONE',  ( -0.02163184649999999945, 0.0000000000000000000, 2.649137157587187450E-18 ) ) ;
#238 = AXIS2_PLACEMENT_3D ( 'NONE', #267, #136, #165 ) ;
#239 = ORIENTED_EDGE ( 'NONE', *, *, #278, .F. ) ;
#240 = CONICAL_SURFACE ( 'NONE', #217, 0.06374000000000018540, 0.7853981633974522758 ) ;
#241 = CARTESIAN_POINT ( 'NONE',  ( 0.02163184649999999945, 2.649137157587187450E-18, -2.649137157587187450E-18 ) ) ;
#242 =( CONVERSION_BASED_UNIT ( 'INCH', #28 ) LENGTH_UNIT ( ) NAMED_UNIT ( #225 ) );
#243 = CARTESIAN_POINT ( 'NONE',  ( 1.591073367920233116E-17, 0.0000000000000000000, 0.1299210000000000087 ) ) ;
#244 = ORIENTED_EDGE ( 'NONE', *, *, #284, .F. ) ;
#245 = ORIENTED_EDGE ( 'NONE', *, *, #147, .T. ) ;
#246 = ORIENTED_EDGE ( 'NONE', *, *, #284, .T. ) ;
#247 =( LENGTH_UNIT ( ) NAMED_UNIT ( * ) SI_UNIT ( $, .METRE. ) );
#248 = EDGE_CURVE ( 'NONE', #50, #47, #81, .T. ) ;
#249 = CARTESIAN_POINT ( 'NONE',  ( 0.06374000000000018540, 8.724383797125754882E-18, 1.968503999999999809 ) ) ;
#250 = VECTOR ( 'NONE', #188, 39.37007874015748854 ) ;
#251 = UNCERTAINTY_MEASURE_WITH_UNIT (LENGTH_MEASURE( 1.000000000000000082E-05 ), #242, 'distance_accuracy_value', 'NONE');
#252 = AXIS2_PLACEMENT_3D ( 'NONE', #174, #149, #178 ) ;
#253 = CYLINDRICAL_SURFACE ( 'NONE', #38, 0.02163184649999999945 ) ;
#254 = CARTESIAN_POINT ( 'NONE',  ( -0.02163184649999998557, 6.146003027036724905E-18, 0.1299210000000000087 ) ) ;
#255 = EDGE_CURVE ( 'NONE', #63, #113, #212, .T. ) ;
#256 = PRESENTATION_LAYER_ASSIGNMENT (  '', '', ( #139 ) ) ;
#257 = DIRECTION ( 'NONE',  ( -0.0000000000000000000, -0.0000000000000000000, -1.000000000000000000 ) ) ;
#258 = CARTESIAN_POINT ( 'NONE',  ( 1.591073367920233116E-17, 0.0000000000000000000, 0.1299210000000000087 ) ) ;
#259 = FILL_AREA_STYLE_COLOUR ( '', #297 ) ;
#260 = CARTESIAN_POINT ( 'NONE',  ( 5.557415734130376665E-17, 0.0000000000000000000, 0.4537974326964857585 ) ) ;
#261 = CARTESIAN_POINT ( 'NONE',  ( 2.649137157587187450E-18, 0.0000000000000000000, 0.02163184649999999945 ) ) ;
#262 = FACE_OUTER_BOUND ( 'NONE', #118, .T. ) ;
#263 = EDGE_CURVE ( 'NONE', #47, #50, #134, .T. ) ;
#264 =( GEOMETRIC_REPRESENTATION_CONTEXT ( 3 ) GLOBAL_UNCERTAINTY_ASSIGNED_CONTEXT ( ( #21 ) ) GLOBAL_UNIT_ASSIGNED_CONTEXT ( ( #221, #236, #320 ) ) REPRESENTATION_CONTEXT ( 'NONE', 'WORKASPACE' ) );
#265 = VERTEX_POINT ( 'NONE', #216 ) ;
#266 = AXIS2_PLACEMENT_3D ( 'NONE', #261, #235, #14 ) ;
#267 = CARTESIAN_POINT ( 'NONE',  ( 0.0000000000000000000, 0.0000000000000000000, 1.953504000000000129 ) ) ;
#268 = ORIENTED_EDGE ( 'NONE', *, *, #292, .F. ) ;
#269 = ORIENTED_EDGE ( 'NONE', *, *, #156, .F. ) ;
#270 = ORIENTED_EDGE ( 'NONE', *, *, #147, .F. ) ;
#271 = PRODUCT_CONTEXT ( 'NONE', #55, 'mechanical' ) ;
#272 = STYLED_ITEM ( 'NONE', ( #78 ), #125 ) ;
#273 = ORIENTED_EDGE ( 'NONE', *, *, #292, .T. ) ;
#274 = DIRECTION ( 'NONE',  ( 1.224646799147353207E-16, 1.000000000000000000, -0.0000000000000000000 ) ) ;
#275 = PRODUCT_DEFINITION_CONTEXT ( 'detailed design', #69, 'design' ) ;
#276 = DIRECTION ( 'NONE',  ( -1.000000000000000000, 0.0000000000000000000, 1.973253873681292640E-16 ) ) ;
#277 = CONICAL_SURFACE ( 'NONE', #231, 0.06374000000000018540, 0.7853981633974522758 ) ;
#278 = EDGE_CURVE ( 'NONE', #27, #48, #19, .T. ) ;
#279 = DIRECTION ( 'NONE',  ( 0.0000000000000000000, 1.000000000000000000, 0.0000000000000000000 ) ) ;
#280 = CIRCLE ( 'NONE', #185, 0.02163184649999999945 ) ;
#281 = DIRECTION ( 'NONE',  ( -1.224646799147353207E-16, -0.0000000000000000000, -1.000000000000000000 ) ) ;
#282 = EDGE_CURVE ( 'NONE', #86, #50, #114, .T. ) ;
#283 = FACE_OUTER_BOUND ( 'NONE', #192, .T. ) ;
#284 = EDGE_CURVE ( 'NONE', #73, #47, #64, .T. ) ;
#285 = CARTESIAN_POINT ( 'NONE',  ( 0.0000000000000000000, 0.0000000000000000000, 1.968503999999999809 ) ) ;
#286 = SURFACE_SIDE_STYLE ('',( #191 ) ) ;
#287 = DIRECTION ( 'NONE',  ( -1.000000000000000000, 0.0000000000000000000, 0.0000000000000000000 ) ) ;
#288 = CARTESIAN_POINT ( 'NONE',  ( 2.649137157587187450E-18, 0.0000000000000000000, 0.02163184649999999945 ) ) ;
#289 = DIMENSIONAL_EXPONENTS ( 1.000000000000000000, 0.0000000000000000000, 0.0000000000000000000, 0.0000000000000000000, 0.0000000000000000000, 0.0000000000000000000, 0.0000000000000000000 ) ;
#290 = EDGE_LOOP ( 'NONE', ( #91, #65, #51 ) ) ;
#291 =( NAMED_UNIT ( * ) PLANE_ANGLE_UNIT ( ) SI_UNIT ( $, .RADIAN. ) );
#292 = EDGE_CURVE ( 'NONE', #63, #27, #161, .T. ) ;
#293 = EDGE_LOOP ( 'NONE', ( #122, #198 ) ) ;
#294 = AXIS2_PLACEMENT_3D ( 'NONE', #103, #74, #57 ) ;
#295 = FACE_OUTER_BOUND ( 'NONE', #298, .T. ) ;
#296 = ORIENTED_EDGE ( 'NONE', *, *, #32, .T. ) ;
#297 = COLOUR_RGB ( '',0.7921568627450980005, 0.8196078431372548767, 0.9333333333333333481 ) ;
#298 = EDGE_LOOP ( 'NONE', ( #94, #2, #67, #194 ) ) ;
#299 = AXIS2_PLACEMENT_3D ( 'NONE', #285, #313, #83 ) ;
#300 = EDGE_CURVE ( 'NONE', #265, #48, #100, .T. ) ;
#301 = DIRECTION ( 'NONE',  ( 1.000000000000000000, 0.0000000000000000000, 0.0000000000000000000 ) ) ;
#302 =( LENGTH_UNIT ( ) NAMED_UNIT ( * ) SI_UNIT ( $, .METRE. ) );
#303 = DIRECTION ( 'NONE',  ( -1.000000000000000000, 1.224646799147353207E-16, 0.0000000000000000000 ) ) ;
#304 = CARTESIAN_POINT ( 'NONE',  ( 0.0000000000000000000, 0.0000000000000000000, 0.0000000000000000000 ) ) ;
#305 = VECTOR ( 'NONE', #130, 39.37007874015747433 ) ;
#306 = DIRECTION ( 'NONE',  ( 1.000000000000000000, 0.0000000000000000000, 0.0000000000000000000 ) ) ;
#307 = SURFACE_STYLE_USAGE ( .BOTH. , #207 ) ;
#308 = CARTESIAN_POINT ( 'NONE',  ( 0.02163184650000002027, 0.0000000000000000000, 0.1299210000000000087 ) ) ;
#309 = EDGE_CURVE ( 'NONE', #226, #27, #22, .T. ) ;
#310 = CIRCLE ( 'NONE', #10, 0.07874000000000000443 ) ;
#311 = CYLINDRICAL_SURFACE ( 'NONE', #72, 0.07874000000000000443 ) ;
#312 = DIRECTION ( 'NONE',  ( 1.000000000000000000, 0.0000000000000000000, 0.0000000000000000000 ) ) ;
#313 = DIRECTION ( 'NONE',  ( 0.0000000000000000000, 0.0000000000000000000, 1.000000000000000000 ) ) ;
#314 = ORIENTED_EDGE ( 'NONE', *, *, #230, .T. ) ;
#315 = CARTESIAN_POINT ( 'NONE',  ( -0.07874000000000000443, 0.0000000000000000000, 1.968503999999999809 ) ) ;
#316 = AXIS2_PLACEMENT_3D ( 'NONE', #36, #281, #12 ) ;
#317 = ORIENTED_EDGE ( 'NONE', *, *, #75, .F. ) ;
#318 = ADVANCED_FACE ( 'NONE', ( #262 ), #24, .T. ) ;
#319 = ORIENTED_EDGE ( 'NONE', *, *, #220, .T. ) ;
#320 =( NAMED_UNIT ( * ) SI_UNIT ( $, .STERADIAN. ) SOLID_ANGLE_UNIT ( ) );
#321 = ORIENTED_EDGE ( 'NONE', *, *, #300, .F. ) ;
#322 = ORIENTED_EDGE ( 'NONE', *, *, #263, .F. ) ;
#323 = PRESENTATION_LAYER_ASSIGNMENT (  '', '', ( #272 ) ) ;
#324 = DIMENSIONAL_EXPONENTS ( 1.000000000000000000, 0.0000000000000000000, 0.0000000000000000000, 0.0000000000000000000, 0.0000000000000000000, 0.0000000000000000000, 0.0000000000000000000 ) ;
#325 = DIRECTION ( 'NONE',  ( 0.0000000000000000000, 0.0000000000000000000, -1.000000000000000000 ) ) ;
ENDSEC;
END-ISO-10303-21;
