ISO-10303-21;
HEADER;
FILE_DESCRIPTION (( 'STEP AP214' ),
    '1' );
FILE_NAME ('44157W.STEP',
    '2023-06-22T19:30:30',
    ( '' ),
    ( '' ),
    'SwSTEP 2.0',
    'SolidWorks 2023',
    '' );
FILE_SCHEMA (( 'AUTOMOTIVE_DESIGN' ));
ENDSEC;

DATA;
#1 =( NAMED_UNIT ( * ) PLANE_ANGLE_UNIT ( ) SI_UNIT ( $, .RADIAN. ) );
#2 = COLOUR_RGB ( '',0.7921568627450980005, 0.8196078431372548767, 0.9333333333333333481 ) ;
#3 = UNCERTAINTY_MEASURE_WITH_UNIT (LENGTH_MEASURE( 1.000000000000000082E-05 ), #70, 'distance_accuracy_value', 'NONE');
#4 = PLANE ( 'NONE',  #43 ) ;
#5 = DIMENSIONAL_EXPONENTS ( 1.000000000000000000, 0.000000000000000000, 0.000000000000000000, 0.000000000000000000, 0.000000000000000000, 0.000000000000000000, 0.000000000000000000 ) ;
#6 = AXIS2_PLACEMENT_3D ( 'NONE', #265, #189, #286 ) ;
#7 = COLOUR_RGB ( '',1.000000000000000000, 0.000000000000000000, 0.000000000000000000 ) ;
#8 = CARTESIAN_POINT ( 'NONE',  ( 0.1250000000000000278, 1.250000000000000000, 1.530808498934192125E-17 ) ) ;
#9 = DIMENSIONAL_EXPONENTS ( 1.000000000000000000, 0.000000000000000000, 0.000000000000000000, 0.000000000000000000, 0.000000000000000000, 0.000000000000000000, 0.000000000000000000 ) ;
#10 = ORIENTED_EDGE ( 'NONE', *, *, #23, .F. ) ;
#11 = FILL_AREA_STYLE_COLOUR ( '', #7 ) ;
#12 = CLOSED_SHELL ( 'NONE', ( #176, #236, #240, #212 ) ) ;
#13 = STYLED_ITEM ( 'NONE', ( #161 ), #240 ) ;
#14 = COLOUR_RGB ( '',0.7921568627450980005, 0.8196078431372548767, 0.9333333333333333481 ) ;
#15 = DIRECTION ( 'NONE',  ( -0.000000000000000000, -1.000000000000000000, -0.000000000000000000 ) ) ;
#16 = LENGTH_MEASURE_WITH_UNIT ( LENGTH_MEASURE( 0.02539999999999999897 ), #95 );
#17 = FACE_OUTER_BOUND ( 'NONE', #301, .T. ) ;
#18 = DIRECTION ( 'NONE',  ( -3.498990854706726443E-17, 1.000000000000000000, -0.000000000000000000 ) ) ;
#19 = AXIS2_PLACEMENT_3D ( 'NONE', #255, #42, #52 ) ;
#20 = APPLICATION_CONTEXT ( 'automotive_design' ) ;
#21 = SURFACE_STYLE_FILL_AREA ( #283 ) ;
#22 = ORIENTED_EDGE ( 'NONE', *, *, #273, .T. ) ;
#23 = EDGE_CURVE ( 'NONE', #182, #46, #120, .T. ) ;
#24 = LINE ( 'NONE', #119, #193 ) ;
#25 = ORIENTED_EDGE ( 'NONE', *, *, #71, .T. ) ;
#26 = DIRECTION ( 'NONE',  ( 0.000000000000000000, -0.000000000000000000, 1.000000000000000000 ) ) ;
#27 = AXIS2_PLACEMENT_3D ( 'NONE', #303, #293, #292 ) ;
#28 = PRESENTATION_STYLE_ASSIGNMENT (( #235 ) ) ;
#29 = ORIENTED_EDGE ( 'NONE', *, *, #294, .F. ) ;
#30 = CARTESIAN_POINT ( 'NONE',  ( 0.000000000000000000, 1.250000000000000000, 0.000000000000000000 ) ) ;
#31 = CARTESIAN_POINT ( 'NONE',  ( 0.000000000000000000, 1.250000000000000000, 0.000000000000000000 ) ) ;
#32 =( LENGTH_UNIT ( ) NAMED_UNIT ( * ) SI_UNIT ( $, .METRE. ) );
#33 = DIMENSIONAL_EXPONENTS ( 1.000000000000000000, 0.000000000000000000, 0.000000000000000000, 0.000000000000000000, 0.000000000000000000, 0.000000000000000000, 0.000000000000000000 ) ;
#34 = UNCERTAINTY_MEASURE_WITH_UNIT (LENGTH_MEASURE( 1.000000000000000082E-05 ), #35, 'distance_accuracy_value', 'NONE');
#35 =( CONVERSION_BASED_UNIT ( 'INCH', #249 ) LENGTH_UNIT ( ) NAMED_UNIT ( #5 ) );
#36 = EDGE_CURVE ( 'NONE', #112, #223, #56, .T. ) ;
#37 = PRESENTATION_STYLE_ASSIGNMENT (( #86 ) ) ;
#38 = MECHANICAL_DESIGN_GEOMETRIC_PRESENTATION_REPRESENTATION (  '', ( #250 ), #275 ) ;
#39 = DIRECTION ( 'NONE',  ( -0.000000000000000000, -1.000000000000000000, -0.000000000000000000 ) ) ;
#40 = FACE_OUTER_BOUND ( 'NONE', #91, .T. ) ;
#41 = ORIENTED_EDGE ( 'NONE', *, *, #36, .T. ) ;
#42 = DIRECTION ( 'NONE',  ( -0.000000000000000000, -1.000000000000000000, -0.000000000000000000 ) ) ;
#43 = AXIS2_PLACEMENT_3D ( 'NONE', #130, #224, #49 ) ;
#44 =( NAMED_UNIT ( * ) PLANE_ANGLE_UNIT ( ) SI_UNIT ( $, .RADIAN. ) );
#45 = MECHANICAL_DESIGN_GEOMETRIC_PRESENTATION_REPRESENTATION (  '', ( #221 ), #82 ) ;
#46 = VERTEX_POINT ( 'NONE', #79 ) ;
#47 = DIRECTION ( 'NONE',  ( 0.000000000000000000, 0.000000000000000000, -1.000000000000000000 ) ) ;
#48 = ORIENTED_EDGE ( 'NONE', *, *, #246, .F. ) ;
#49 = DIRECTION ( 'NONE',  ( 1.000000000000000000, 3.498990854706726443E-17, 0.000000000000000000 ) ) ;
#50 = ORIENTED_EDGE ( 'NONE', *, *, #85, .T. ) ;
#51 =( CONVERSION_BASED_UNIT ( 'INCH', #84 ) LENGTH_UNIT ( ) NAMED_UNIT ( #9 ) );
#52 = DIRECTION ( 'NONE',  ( 0.000000000000000000, 0.000000000000000000, -1.000000000000000000 ) ) ;
#53 = COLOUR_RGB ( '',1.000000000000000000, 0.000000000000000000, 0.000000000000000000 ) ;
#54 = ORIENTED_EDGE ( 'NONE', *, *, #266, .T. ) ;
#55 = DIMENSIONAL_EXPONENTS ( 1.000000000000000000, 0.000000000000000000, 0.000000000000000000, 0.000000000000000000, 0.000000000000000000, 0.000000000000000000, 0.000000000000000000 ) ;
#56 = CIRCLE ( 'NONE', #225, 0.1250000000000000000 ) ;
#57 = AXIS2_PLACEMENT_3D ( 'NONE', #107, #198, #252 ) ;
#58 = SURFACE_STYLE_FILL_AREA ( #83 ) ;
#59 =( NAMED_UNIT ( * ) SI_UNIT ( $, .STERADIAN. ) SOLID_ANGLE_UNIT ( ) );
#60 = FILL_AREA_STYLE ('',( #108 ) ) ;
#61 = PRODUCT_DEFINITION_CONTEXT ( 'detailed design', #20, 'design' ) ;
#62 =( NAMED_UNIT ( * ) SI_UNIT ( $, .STERADIAN. ) SOLID_ANGLE_UNIT ( ) );
#63 =( CONVERSION_BASED_UNIT ( 'INCH', #180 ) LENGTH_UNIT ( ) NAMED_UNIT ( #128 ) );
#64 = ADVANCED_FACE ( 'NONE', ( #163 ), #157, .F. ) ;
#65 =( LENGTH_UNIT ( ) NAMED_UNIT ( * ) SI_UNIT ( $, .METRE. ) );
#66 = CIRCLE ( 'NONE', #186, 0.1250000000000000278 ) ;
#67 = DIRECTION ( 'NONE',  ( 0.000000000000000000, 0.000000000000000000, -1.000000000000000000 ) ) ;
#68 =( CONVERSION_BASED_UNIT ( 'INCH', #277 ) LENGTH_UNIT ( ) NAMED_UNIT ( #216 ) );
#69 = EDGE_LOOP ( 'NONE', ( #50, #203, #29, #138 ) ) ;
#70 =( CONVERSION_BASED_UNIT ( 'INCH', #16 ) LENGTH_UNIT ( ) NAMED_UNIT ( #55 ) );
#71 = EDGE_CURVE ( 'NONE', #93, #234, #66, .T. ) ;
#72 = VERTEX_POINT ( 'NONE', #282 ) ;
#73 =( NAMED_UNIT ( * ) SI_UNIT ( $, .STERADIAN. ) SOLID_ANGLE_UNIT ( ) );
#74 = AXIS2_PLACEMENT_3D ( 'NONE', #160, #143, #47 ) ;
#75 = ORIENTED_EDGE ( 'NONE', *, *, #188, .T. ) ;
#76 = FILL_AREA_STYLE_COLOUR ( '', #53 ) ;
#77 = ORIENTED_EDGE ( 'NONE', *, *, #123, .T. ) ;
#78 = CYLINDRICAL_SURFACE ( 'NONE', #231, 0.1250000000000000278 ) ;
#79 = CARTESIAN_POINT ( 'NONE',  ( 0.1250000000000000278, 3.000000000000000444, 1.530808498934192125E-17 ) ) ;
#80 = VECTOR ( 'NONE', #39, 39.37007874015748143 ) ;
#81 = UNCERTAINTY_MEASURE_WITH_UNIT (LENGTH_MEASURE( 1.000000000000000082E-05 ), #68, 'distance_accuracy_value', 'NONE');
#82 =( GEOMETRIC_REPRESENTATION_CONTEXT ( 3 ) GLOBAL_UNCERTAINTY_ASSIGNED_CONTEXT ( ( #34 ) ) GLOBAL_UNIT_ASSIGNED_CONTEXT ( ( #35, #148, #62 ) ) REPRESENTATION_CONTEXT ( 'NONE', 'WORKASPACE' ) );
#83 = FILL_AREA_STYLE ('',( #11 ) ) ;
#84 = LENGTH_MEASURE_WITH_UNIT ( LENGTH_MEASURE( 0.02539999999999999897 ), #32 );
#85 = EDGE_CURVE ( 'NONE', #72, #182, #145, .T. ) ;
#86 = SURFACE_STYLE_USAGE ( .BOTH. , #132 ) ;
#87 =( GEOMETRIC_REPRESENTATION_CONTEXT ( 3 ) GLOBAL_UNCERTAINTY_ASSIGNED_CONTEXT ( ( #295 ) ) GLOBAL_UNIT_ASSIGNED_CONTEXT ( ( #199, #99, #268 ) ) REPRESENTATION_CONTEXT ( 'NONE', 'WORKASPACE' ) );
#88 = CIRCLE ( 'NONE', #281, 0.1250000000000000000 ) ;
#89 = DIRECTION ( 'NONE',  ( -3.498990854706726443E-17, 1.000000000000000000, -0.000000000000000000 ) ) ;
#90 = ORIENTED_EDGE ( 'NONE', *, *, #266, .F. ) ;
#91 = EDGE_LOOP ( 'NONE', ( #25, #54 ) ) ;
#92 = SURFACE_STYLE_USAGE ( .BOTH. , #202 ) ;
#93 = VERTEX_POINT ( 'NONE', #154 ) ;
#94 = ORIENTED_EDGE ( 'NONE', *, *, #219, .T. ) ;
#95 =( LENGTH_UNIT ( ) NAMED_UNIT ( * ) SI_UNIT ( $, .METRE. ) );
#96 = APPLICATION_PROTOCOL_DEFINITION ( 'draft international standard', 'automotive_design', 1998, #297 ) ;
#97 = CIRCLE ( 'NONE', #270, 0.1250000000000000555 ) ;
#98 = DIMENSIONAL_EXPONENTS ( 1.000000000000000000, 0.000000000000000000, 0.000000000000000000, 0.000000000000000000, 0.000000000000000000, 0.000000000000000000, 0.000000000000000000 ) ;
#99 =( NAMED_UNIT ( * ) PLANE_ANGLE_UNIT ( ) SI_UNIT ( $, .RADIAN. ) );
#100 = SURFACE_SIDE_STYLE ('',( #244 ) ) ;
#101 = COLOUR_RGB ( '',1.000000000000000000, 0.000000000000000000, 0.000000000000000000 ) ;
#102 = CARTESIAN_POINT ( 'NONE',  ( -0.1250000000000001388, 3.000000000000000444, 0.000000000000000000 ) ) ;
#103 = UNCERTAINTY_MEASURE_WITH_UNIT (LENGTH_MEASURE( 1.000000000000000082E-05 ), #63, 'distance_accuracy_value', 'NONE');
#104 = CARTESIAN_POINT ( 'NONE',  ( 0.000000000000000000, 0.000000000000000000, 0.000000000000000000 ) ) ;
#105 = CLOSED_SHELL ( 'NONE', ( #291, #64, #183, #232 ) ) ;
#106 =( GEOMETRIC_REPRESENTATION_CONTEXT ( 3 ) GLOBAL_UNCERTAINTY_ASSIGNED_CONTEXT ( ( #272 ) ) GLOBAL_UNIT_ASSIGNED_CONTEXT ( ( #51, #147, #245 ) ) REPRESENTATION_CONTEXT ( 'NONE', 'WORKASPACE' ) );
#107 = CARTESIAN_POINT ( 'NONE',  ( -6.123233995736772199E-17, 3.000000000000000444, 0.000000000000000000 ) ) ;
#108 = FILL_AREA_STYLE_COLOUR ( '', #101 ) ;
#109 = PRODUCT ( '44157W', '44157W', '', ( #146 ) ) ;
#110 = SURFACE_STYLE_FILL_AREA ( #253 ) ;
#111 =( LENGTH_UNIT ( ) NAMED_UNIT ( * ) SI_UNIT ( $, .METRE. ) );
#112 = VERTEX_POINT ( 'NONE', #230 ) ;
#113 = PRODUCT_DEFINITION ( 'UNKNOWN', '', #296, #61 ) ;
#114 = ORIENTED_EDGE ( 'NONE', *, *, #294, .T. ) ;
#115 = FACE_OUTER_BOUND ( 'NONE', #122, .T. ) ;
#116 = ORIENTED_EDGE ( 'NONE', *, *, #85, .F. ) ;
#117 = FILL_AREA_STYLE ('',( #76 ) ) ;
#118 = CIRCLE ( 'NONE', #27, 0.1250000000000000555 ) ;
#119 = CARTESIAN_POINT ( 'NONE',  ( -0.1250000000000001110, 3.000000000000000444, 0.000000000000000000 ) ) ;
#120 = LINE ( 'NONE', #211, #185 ) ;
#121 = DIRECTION ( 'NONE',  ( 0.000000000000000000, 1.000000000000000000, 0.000000000000000000 ) ) ;
#122 = EDGE_LOOP ( 'NONE', ( #263, #94, #140, #90 ) ) ;
#123 = EDGE_CURVE ( 'NONE', #46, #135, #118, .T. ) ;
#124 = PRESENTATION_LAYER_ASSIGNMENT (  '', '', ( #172 ) ) ;
#125 = PRESENTATION_STYLE_ASSIGNMENT (( #196 ) ) ;
#126 = SURFACE_STYLE_USAGE ( .BOTH. , #100 ) ;
#127 = CIRCLE ( 'NONE', #131, 0.1250000000000000000 ) ;
#128 = DIMENSIONAL_EXPONENTS ( 1.000000000000000000, 0.000000000000000000, 0.000000000000000000, 0.000000000000000000, 0.000000000000000000, 0.000000000000000000, 0.000000000000000000 ) ;
#129 = FACE_OUTER_BOUND ( 'NONE', #261, .T. ) ;
#130 = CARTESIAN_POINT ( 'NONE',  ( 0.1250000000000000000, 3.000000000000000444, 0.000000000000000000 ) ) ;
#131 = AXIS2_PLACEMENT_3D ( 'NONE', #274, #151, #222 ) ;
#132 = SURFACE_SIDE_STYLE ('',( #248 ) ) ;
#133 = EDGE_CURVE ( 'NONE', #223, #234, #166, .T. ) ;
#134 = PRESENTATION_STYLE_ASSIGNMENT (( #126 ) ) ;
#135 = VERTEX_POINT ( 'NONE', #102 ) ;
#136 = DIRECTION ( 'NONE',  ( 0.000000000000000000, 0.000000000000000000, -1.000000000000000000 ) ) ;
#137 = FILL_AREA_STYLE_COLOUR ( '', #2 ) ;
#138 = ORIENTED_EDGE ( 'NONE', *, *, #273, .F. ) ;
#139 =( NAMED_UNIT ( * ) SI_UNIT ( $, .STERADIAN. ) SOLID_ANGLE_UNIT ( ) );
#140 = ORIENTED_EDGE ( 'NONE', *, *, #246, .T. ) ;
#141 = CARTESIAN_POINT ( 'NONE',  ( 1.530808498934191817E-17, 1.250000000000000000, 0.1250000000000000000 ) ) ;
#142 = CARTESIAN_POINT ( 'NONE',  ( 0.000000000000000000, 0.000000000000000000, 0.000000000000000000 ) ) ;
#143 = DIRECTION ( 'NONE',  ( 0.000000000000000000, -1.000000000000000000, -0.000000000000000000 ) ) ;
#144 = PRODUCT_RELATED_PRODUCT_CATEGORY ( 'part', '', ( #109 ) ) ;
#145 = CIRCLE ( 'NONE', #201, 0.1250000000000000000 ) ;
#146 = PRODUCT_CONTEXT ( 'NONE', #297, 'mechanical' ) ;
#147 =( NAMED_UNIT ( * ) PLANE_ANGLE_UNIT ( ) SI_UNIT ( $, .RADIAN. ) );
#148 =( NAMED_UNIT ( * ) PLANE_ANGLE_UNIT ( ) SI_UNIT ( $, .RADIAN. ) );
#149 = CIRCLE ( 'NONE', #19, 0.1250000000000000278 ) ;
#150 = FACE_OUTER_BOUND ( 'NONE', #237, .T. ) ;
#151 = DIRECTION ( 'NONE',  ( -3.498990854706726443E-17, 1.000000000000000000, -0.000000000000000000 ) ) ;
#152 = LINE ( 'NONE', #279, #290 ) ;
#153 = DIRECTION ( 'NONE',  ( -3.498990854706726443E-17, 1.000000000000000000, -0.000000000000000000 ) ) ;
#154 = CARTESIAN_POINT ( 'NONE',  ( 0.000000000000000000, 0.000000000000000000, -0.1250000000000000278 ) ) ;
#155 = DIRECTION ( 'NONE',  ( -0.000000000000000000, -1.000000000000000000, -0.000000000000000000 ) ) ;
#156 = MECHANICAL_DESIGN_GEOMETRIC_PRESENTATION_REPRESENTATION (  '', ( #172 ), #87 ) ;
#157 = PLANE ( 'NONE',  #173 ) ;
#158 = MECHANICAL_DESIGN_GEOMETRIC_PRESENTATION_REPRESENTATION (  '', ( #227 ), #106 ) ;
#159 = ORIENTED_EDGE ( 'NONE', *, *, #133, .T. ) ;
#160 = CARTESIAN_POINT ( 'NONE',  ( 0.000000000000000000, 0.000000000000000000, 0.000000000000000000 ) ) ;
#161 = PRESENTATION_STYLE_ASSIGNMENT (( #285 ) ) ;
#162 = CARTESIAN_POINT ( 'NONE',  ( -6.123233995736772199E-17, 3.000000000000000444, 0.000000000000000000 ) ) ;
#163 = FACE_OUTER_BOUND ( 'NONE', #308, .T. ) ;
#164 = PRESENTATION_LAYER_ASSIGNMENT (  '', '', ( #250 ) ) ;
#165 = FILL_AREA_STYLE ('',( #257 ) ) ;
#166 = LINE ( 'NONE', #242, #80 ) ;
#167 =( CONVERSION_BASED_UNIT ( 'INCH', #267 ) LENGTH_UNIT ( ) NAMED_UNIT ( #98 ) );
#168 = AXIS2_PLACEMENT_3D ( 'NONE', #276, #260, #67 ) ;
#169 = PLANE ( 'NONE',  #195 ) ;
#170 = PRODUCT_DEFINITION_SHAPE ( 'NONE', 'NONE',  #113 ) ;
#171 = UNCERTAINTY_MEASURE_WITH_UNIT (LENGTH_MEASURE( 1.000000000000000082E-05 ), #167, 'distance_accuracy_value', 'NONE');
#172 = STYLED_ITEM ( 'NONE', ( #28 ), #309 ) ;
#173 = AXIS2_PLACEMENT_3D ( 'NONE', #258, #278, #184 ) ;
#174 = DIRECTION ( 'NONE',  ( 0.000000000000000000, 0.000000000000000000, -1.000000000000000000 ) ) ;
#175 = LENGTH_MEASURE_WITH_UNIT ( LENGTH_MEASURE( 0.02539999999999999897 ), #194 );
#176 = ADVANCED_FACE ( 'NONE', ( #17 ), #269, .T. ) ;
#177 = PRESENTATION_LAYER_ASSIGNMENT (  '', '', ( #227 ) ) ;
#178 = DIRECTION ( 'NONE',  ( -3.498990854706726443E-17, 1.000000000000000000, -0.000000000000000000 ) ) ;
#179 = DIRECTION ( 'NONE',  ( -1.000000000000000000, 0.000000000000000000, 0.000000000000000000 ) ) ;
#180 = LENGTH_MEASURE_WITH_UNIT ( LENGTH_MEASURE( 0.02539999999999999897 ), #111 );
#181 = CYLINDRICAL_SURFACE ( 'NONE', #168, 0.1250000000000000278 ) ;
#182 = VERTEX_POINT ( 'NONE', #8 ) ;
#183 = ADVANCED_FACE ( 'NONE', ( #150 ), #226, .T. ) ;
#184 = DIRECTION ( 'NONE',  ( -1.000000000000000000, -3.498990854706726443E-17, 0.000000000000000000 ) ) ;
#185 = VECTOR ( 'NONE', #205, 39.37007874015748143 ) ;
#186 = AXIS2_PLACEMENT_3D ( 'NONE', #142, #239, #136 ) ;
#187 = EDGE_LOOP ( 'NONE', ( #233, #280 ) ) ;
#188 = EDGE_CURVE ( 'NONE', #182, #72, #127, .T. ) ;
#189 = DIRECTION ( 'NONE',  ( 0.000000000000000000, 0.000000000000000000, 1.000000000000000000 ) ) ;
#190 = CARTESIAN_POINT ( 'NONE',  ( 0.000000000000000000, 1.250000000000000000, 0.000000000000000000 ) ) ;
#191 = APPLICATION_PROTOCOL_DEFINITION ( 'draft international standard', 'automotive_design', 1998, #20 ) ;
#192 =( NAMED_UNIT ( * ) PLANE_ANGLE_UNIT ( ) SI_UNIT ( $, .RADIAN. ) );
#193 = VECTOR ( 'NONE', #153, 39.37007874015748143 ) ;
#194 =( LENGTH_UNIT ( ) NAMED_UNIT ( * ) SI_UNIT ( $, .METRE. ) );
#195 = AXIS2_PLACEMENT_3D ( 'NONE', #31, #121, #26 ) ;
#196 = SURFACE_STYLE_USAGE ( .BOTH. , #271 ) ;
#197 =( GEOMETRIC_REPRESENTATION_CONTEXT ( 3 ) GLOBAL_UNCERTAINTY_ASSIGNED_CONTEXT ( ( #81 ) ) GLOBAL_UNIT_ASSIGNED_CONTEXT ( ( #68, #44, #139 ) ) REPRESENTATION_CONTEXT ( 'NONE', 'WORKASPACE' ) );
#198 = DIRECTION ( 'NONE',  ( -3.498990854706726443E-17, 1.000000000000000000, -0.000000000000000000 ) ) ;
#199 =( CONVERSION_BASED_UNIT ( 'INCH', #175 ) LENGTH_UNIT ( ) NAMED_UNIT ( #33 ) );
#200 = PRESENTATION_STYLE_ASSIGNMENT (( #92 ) ) ;
#201 = AXIS2_PLACEMENT_3D ( 'NONE', #214, #89, #179 ) ;
#202 = SURFACE_SIDE_STYLE ('',( #110 ) ) ;
#203 = ORIENTED_EDGE ( 'NONE', *, *, #23, .T. ) ;
#204 = SURFACE_SIDE_STYLE ('',( #21 ) ) ;
#205 = DIRECTION ( 'NONE',  ( -3.498990854706726443E-17, 1.000000000000000000, -0.000000000000000000 ) ) ;
#206 =( GEOMETRIC_REPRESENTATION_CONTEXT ( 3 ) GLOBAL_UNCERTAINTY_ASSIGNED_CONTEXT ( ( #171 ) ) GLOBAL_UNIT_ASSIGNED_CONTEXT ( ( #167, #192, #59 ) ) REPRESENTATION_CONTEXT ( 'NONE', 'WORKASPACE' ) );
#207 = ORIENTED_EDGE ( 'NONE', *, *, #123, .F. ) ;
#208 = DIRECTION ( 'NONE',  ( 0.000000000000000000, 0.000000000000000000, -1.000000000000000000 ) ) ;
#209 = PRESENTATION_LAYER_ASSIGNMENT (  '', '', ( #305 ) ) ;
#210 = DIRECTION ( 'NONE',  ( -1.000000000000000000, 0.000000000000000000, 0.000000000000000000 ) ) ;
#211 = CARTESIAN_POINT ( 'NONE',  ( 0.1249999999999999584, 3.000000000000000444, 1.530808498934191817E-17 ) ) ;
#212 = ADVANCED_FACE ( 'NONE', ( #40 ), #215, .T. ) ;
#213 = SURFACE_SIDE_STYLE ('',( #307 ) ) ;
#214 = CARTESIAN_POINT ( 'NONE',  ( 0.000000000000000000, 1.250000000000000000, 0.000000000000000000 ) ) ;
#215 = PLANE ( 'NONE',  #74 ) ;
#216 = DIMENSIONAL_EXPONENTS ( 1.000000000000000000, 0.000000000000000000, 0.000000000000000000, 0.000000000000000000, 0.000000000000000000, 0.000000000000000000, 0.000000000000000000 ) ;
#217 = MECHANICAL_DESIGN_GEOMETRIC_PRESENTATION_REPRESENTATION (  '', ( #305 ), #197 ) ;
#218 = AXIS2_PLACEMENT_3D ( 'NONE', #104, #15, #174 ) ;
#219 = EDGE_CURVE ( 'NONE', #223, #112, #88, .T. ) ;
#220 =( LENGTH_UNIT ( ) NAMED_UNIT ( * ) SI_UNIT ( $, .METRE. ) );
#221 = STYLED_ITEM ( 'NONE', ( #37 ), #176 ) ;
#222 = DIRECTION ( 'NONE',  ( -1.000000000000000000, 0.000000000000000000, 0.000000000000000000 ) ) ;
#223 = VERTEX_POINT ( 'NONE', #141 ) ;
#224 = DIRECTION ( 'NONE',  ( 3.498990854706726443E-17, -1.000000000000000000, 0.000000000000000000 ) ) ;
#225 = AXIS2_PLACEMENT_3D ( 'NONE', #190, #288, #254 ) ;
#226 = CYLINDRICAL_SURFACE ( 'NONE', #57, 0.1250000000000000278 ) ;
#227 = STYLED_ITEM ( 'NONE', ( #125 ), #236 ) ;
#228 =( NAMED_UNIT ( * ) SI_UNIT ( $, .STERADIAN. ) SOLID_ANGLE_UNIT ( ) );
#229 = FACE_OUTER_BOUND ( 'NONE', #69, .T. ) ;
#230 = CARTESIAN_POINT ( 'NONE',  ( 0.000000000000000000, 1.250000000000000000, -0.1250000000000000000 ) ) ;
#231 = AXIS2_PLACEMENT_3D ( 'NONE', #298, #178, #210 ) ;
#232 = ADVANCED_FACE ( 'NONE', ( #129 ), #4, .F. ) ;
#233 = ORIENTED_EDGE ( 'NONE', *, *, #36, .F. ) ;
#234 = VERTEX_POINT ( 'NONE', #259 ) ;
#235 = SURFACE_STYLE_USAGE ( .BOTH. , #204 ) ;
#236 = ADVANCED_FACE ( 'NONE', ( #243 ), #169, .T. ) ;
#237 = EDGE_LOOP ( 'NONE', ( #10, #75, #22, #207 ) ) ;
#238 = PRESENTATION_LAYER_ASSIGNMENT (  '', '', ( #221 ) ) ;
#239 = DIRECTION ( 'NONE',  ( -0.000000000000000000, -1.000000000000000000, -0.000000000000000000 ) ) ;
#240 = ADVANCED_FACE ( 'NONE', ( #115 ), #181, .T. ) ;
#241 = COLOUR_RGB ( '',1.000000000000000000, 0.000000000000000000, 0.000000000000000000 ) ;
#242 = CARTESIAN_POINT ( 'NONE',  ( 1.530808498934191817E-17, 0.000000000000000000, 0.1250000000000000278 ) ) ;
#243 = FACE_OUTER_BOUND ( 'NONE', #187, .T. ) ;
#244 = SURFACE_STYLE_FILL_AREA ( #165 ) ;
#245 =( NAMED_UNIT ( * ) SI_UNIT ( $, .STERADIAN. ) SOLID_ANGLE_UNIT ( ) );
#246 = EDGE_CURVE ( 'NONE', #112, #93, #152, .T. ) ;
#247 =( GEOMETRIC_REPRESENTATION_CONTEXT ( 3 ) GLOBAL_UNCERTAINTY_ASSIGNED_CONTEXT ( ( #3 ) ) GLOBAL_UNIT_ASSIGNED_CONTEXT ( ( #70, #251, #228 ) ) REPRESENTATION_CONTEXT ( 'NONE', 'WORKASPACE' ) );
#248 = SURFACE_STYLE_FILL_AREA ( #60 ) ;
#249 = LENGTH_MEASURE_WITH_UNIT ( LENGTH_MEASURE( 0.02539999999999999897 ), #65 );
#250 = STYLED_ITEM ( 'NONE', ( #134 ), #212 ) ;
#251 =( NAMED_UNIT ( * ) PLANE_ANGLE_UNIT ( ) SI_UNIT ( $, .RADIAN. ) );
#252 = DIRECTION ( 'NONE',  ( -1.000000000000000000, 0.000000000000000000, 0.000000000000000000 ) ) ;
#253 = FILL_AREA_STYLE ('',( #137 ) ) ;
#254 = DIRECTION ( 'NONE',  ( 0.000000000000000000, 0.000000000000000000, -1.000000000000000000 ) ) ;
#255 = CARTESIAN_POINT ( 'NONE',  ( 0.000000000000000000, 0.000000000000000000, 0.000000000000000000 ) ) ;
#256 = FILL_AREA_STYLE_COLOUR ( '', #14 ) ;
#257 = FILL_AREA_STYLE_COLOUR ( '', #241 ) ;
#258 = CARTESIAN_POINT ( 'NONE',  ( 7.651835625825817976E-35, 1.250000000000000000, 0.000000000000000000 ) ) ;
#259 = CARTESIAN_POINT ( 'NONE',  ( 1.530808498934192125E-17, 0.000000000000000000, 0.1250000000000000555 ) ) ;
#260 = DIRECTION ( 'NONE',  ( -0.000000000000000000, -1.000000000000000000, -0.000000000000000000 ) ) ;
#261 = EDGE_LOOP ( 'NONE', ( #114, #77 ) ) ;
#262 = ADVANCED_BREP_SHAPE_REPRESENTATION ( '44157W', ( #309, #300, #6 ), #206 ) ;
#263 = ORIENTED_EDGE ( 'NONE', *, *, #133, .F. ) ;
#264 = PRESENTATION_LAYER_ASSIGNMENT (  '', '', ( #13 ) ) ;
#265 = CARTESIAN_POINT ( 'NONE',  ( 0.000000000000000000, 0.000000000000000000, 0.000000000000000000 ) ) ;
#266 = EDGE_CURVE ( 'NONE', #234, #93, #149, .T. ) ;
#267 = LENGTH_MEASURE_WITH_UNIT ( LENGTH_MEASURE( 0.02539999999999999897 ), #220 );
#268 =( NAMED_UNIT ( * ) SI_UNIT ( $, .STERADIAN. ) SOLID_ANGLE_UNIT ( ) );
#269 = CYLINDRICAL_SURFACE ( 'NONE', #218, 0.1250000000000000278 ) ;
#270 = AXIS2_PLACEMENT_3D ( 'NONE', #162, #18, #287 ) ;
#271 = SURFACE_SIDE_STYLE ('',( #58 ) ) ;
#272 = UNCERTAINTY_MEASURE_WITH_UNIT (LENGTH_MEASURE( 1.000000000000000082E-05 ), #51, 'distance_accuracy_value', 'NONE');
#273 = EDGE_CURVE ( 'NONE', #72, #135, #24, .T. ) ;
#274 = CARTESIAN_POINT ( 'NONE',  ( 0.000000000000000000, 1.250000000000000000, 0.000000000000000000 ) ) ;
#275 =( GEOMETRIC_REPRESENTATION_CONTEXT ( 3 ) GLOBAL_UNCERTAINTY_ASSIGNED_CONTEXT ( ( #103 ) ) GLOBAL_UNIT_ASSIGNED_CONTEXT ( ( #63, #1, #73 ) ) REPRESENTATION_CONTEXT ( 'NONE', 'WORKASPACE' ) );
#276 = CARTESIAN_POINT ( 'NONE',  ( 0.000000000000000000, 0.000000000000000000, 0.000000000000000000 ) ) ;
#277 = LENGTH_MEASURE_WITH_UNIT ( LENGTH_MEASURE( 0.02539999999999999897 ), #302 );
#278 = DIRECTION ( 'NONE',  ( -3.498990854706726443E-17, 1.000000000000000000, 0.000000000000000000 ) ) ;
#279 = CARTESIAN_POINT ( 'NONE',  ( 0.000000000000000000, 0.000000000000000000, -0.1250000000000000278 ) ) ;
#280 = ORIENTED_EDGE ( 'NONE', *, *, #219, .F. ) ;
#281 = AXIS2_PLACEMENT_3D ( 'NONE', #30, #304, #208 ) ;
#282 = CARTESIAN_POINT ( 'NONE',  ( -0.1250000000000000000, 1.250000000000000000, 0.000000000000000000 ) ) ;
#283 = FILL_AREA_STYLE ('',( #256 ) ) ;
#284 = ORIENTED_EDGE ( 'NONE', *, *, #188, .F. ) ;
#285 = SURFACE_STYLE_USAGE ( .BOTH. , #213 ) ;
#286 = DIRECTION ( 'NONE',  ( 1.000000000000000000, 0.000000000000000000, 0.000000000000000000 ) ) ;
#287 = DIRECTION ( 'NONE',  ( -1.000000000000000000, 0.000000000000000000, 0.000000000000000000 ) ) ;
#288 = DIRECTION ( 'NONE',  ( -0.000000000000000000, -1.000000000000000000, -0.000000000000000000 ) ) ;
#289 = SHAPE_DEFINITION_REPRESENTATION ( #170, #262 ) ;
#290 = VECTOR ( 'NONE', #155, 39.37007874015748143 ) ;
#291 = ADVANCED_FACE ( 'NONE', ( #229 ), #78, .T. ) ;
#292 = DIRECTION ( 'NONE',  ( -1.000000000000000000, 0.000000000000000000, 0.000000000000000000 ) ) ;
#293 = DIRECTION ( 'NONE',  ( -3.498990854706726443E-17, 1.000000000000000000, -0.000000000000000000 ) ) ;
#294 = EDGE_CURVE ( 'NONE', #135, #46, #97, .T. ) ;
#295 = UNCERTAINTY_MEASURE_WITH_UNIT (LENGTH_MEASURE( 1.000000000000000082E-05 ), #199, 'distance_accuracy_value', 'NONE');
#296 = PRODUCT_DEFINITION_FORMATION_WITH_SPECIFIED_SOURCE ( 'ANY', '', #109, .NOT_KNOWN. ) ;
#297 = APPLICATION_CONTEXT ( 'automotive_design' ) ;
#298 = CARTESIAN_POINT ( 'NONE',  ( -6.123233995736772199E-17, 3.000000000000000444, 0.000000000000000000 ) ) ;
#299 = MECHANICAL_DESIGN_GEOMETRIC_PRESENTATION_REPRESENTATION (  '', ( #13 ), #247 ) ;
#300 = MANIFOLD_SOLID_BREP ( 'Revolve - Tool Body (Straight Shanked)', #105 ) ;
#301 = EDGE_LOOP ( 'NONE', ( #41, #159, #306, #48 ) ) ;
#302 =( LENGTH_UNIT ( ) NAMED_UNIT ( * ) SI_UNIT ( $, .METRE. ) );
#303 = CARTESIAN_POINT ( 'NONE',  ( -6.123233995736772199E-17, 3.000000000000000444, 0.000000000000000000 ) ) ;
#304 = DIRECTION ( 'NONE',  ( -0.000000000000000000, -1.000000000000000000, -0.000000000000000000 ) ) ;
#305 = STYLED_ITEM ( 'NONE', ( #200 ), #300 ) ;
#306 = ORIENTED_EDGE ( 'NONE', *, *, #71, .F. ) ;
#307 = SURFACE_STYLE_FILL_AREA ( #117 ) ;
#308 = EDGE_LOOP ( 'NONE', ( #116, #284 ) ) ;
#309 = MANIFOLD_SOLID_BREP ( 'Revolve - Cutting Edge', #12 ) ;
ENDSEC;
END-ISO-10303-21;
