ISO-10303-21;
HEADER;
FILE_DESCRIPTION (( 'STEP AP214' ),
    '1' );
FILE_NAME ('Micro_GEC-062-4-005X.STEP',
    '2021-09-03T17:03:54',
    ( '' ),
    ( '' ),
    'SwSTEP 2.0',
    'SolidWorks 2020',
    '' );
FILE_SCHEMA (( 'AUTOMOTIVE_DESIGN' ));
ENDSEC;

DATA;
#1 = CYLINDRICAL_SURFACE ( 'NONE', #333, 0.06250000000000002776 ) ;
#2 = EDGE_CURVE ( 'NONE', #38, #266, #204, .T. ) ;
#3 = ORIENTED_EDGE ( 'NONE', *, *, #173, .F. ) ;
#4 = DIRECTION ( 'NONE',  ( -1.000000000000000000, 0.0000000000000000000, 0.0000000000000000000 ) ) ;
#5 = EDGE_CURVE ( 'NONE', #351, #217, #323, .T. ) ;
#6 = FACE_OUTER_BOUND ( 'NONE', #290, .T. ) ;
#7 = DIRECTION ( 'NONE',  ( 1.000000000000000000, 0.0000000000000000000, 0.0000000000000000000 ) ) ;
#8 = PRESENTATION_STYLE_ASSIGNMENT (( #118 ) ) ;
#9 = CIRCLE ( 'NONE', #111, 0.03121875000000000691 ) ;
#10 = ADVANCED_FACE ( 'NONE', ( #78 ), #1, .T. ) ;
#11 = FILL_AREA_STYLE ('',( #254 ) ) ;
#12 = DIRECTION ( 'NONE',  ( -1.000000000000000000, 0.0000000000000000000, 0.0000000000000000000 ) ) ;
#13 = ORIENTED_EDGE ( 'NONE', *, *, #61, .F. ) ;
#14 = CONICAL_SURFACE ( 'NONE', #238, 0.04750000000000064587, 0.7853981633974466137 ) ;
#15 = DIRECTION ( 'NONE',  ( -1.224646799147353700E-16, -0.0000000000000000000, -1.000000000000000000 ) ) ;
#16 = CARTESIAN_POINT ( 'NONE',  ( 0.04750000000000064587, 6.735557395310483192E-18, 1.500000000000000222 ) ) ;
#17 = EDGE_LOOP ( 'NONE', ( #308, #257, #119, #50 ) ) ;
#18 = FACE_OUTER_BOUND ( 'NONE', #178, .T. ) ;
#19 = CONICAL_SURFACE ( 'NONE', #219, 0.03121875000000000691, 0.1745329251994338915 ) ;
#20 = EDGE_CURVE ( 'NONE', #216, #286, #319, .T. ) ;
#21 = LENGTH_MEASURE_WITH_UNIT ( LENGTH_MEASURE( 0.02539999999999999897 ), #121 );
#22 = DIRECTION ( 'NONE',  ( -1.000000000000000000, 0.0000000000000000000, 0.0000000000000000000 ) ) ;
#23 = CARTESIAN_POINT ( 'NONE',  ( 6.123233995736768848E-19, 0.0000000000000000000, 0.0000000000000000000 ) ) ;
#24 = CARTESIAN_POINT ( 'NONE',  ( -0.02621875000000000941, 3.210870826514467669E-18, 0.005000000000000000104 ) ) ;
#25 = DIRECTION ( 'NONE',  ( 1.000000000000000000, 0.0000000000000000000, -0.0000000000000000000 ) ) ;
#26 = AXIS2_PLACEMENT_3D ( 'NONE', #338, #31, #139 ) ;
#27 = DIRECTION ( 'NONE',  ( -0.0000000000000000000, -0.0000000000000000000, -1.000000000000000000 ) ) ;
#28 = EDGE_LOOP ( 'NONE', ( #147, #126 ) ) ;
#29 = DIRECTION ( 'NONE',  ( 1.000000000000000000, 0.0000000000000000000, 0.0000000000000000000 ) ) ;
#30 = ADVANCED_FACE ( 'NONE', ( #325 ), #98, .T. ) ;
#31 = DIRECTION ( 'NONE',  ( 0.0000000000000000000, 0.0000000000000000000, 1.000000000000000000 ) ) ;
#32 = CARTESIAN_POINT ( 'NONE',  ( 0.0000000000000000000, 0.0000000000000000000, 1.500000000000000222 ) ) ;
#33 = SURFACE_STYLE_FILL_AREA ( #11 ) ;
#34 = LINE ( 'NONE', #148, #281 ) ;
#35 = EDGE_CURVE ( 'NONE', #217, #42, #53, .T. ) ;
#36 = AXIS2_PLACEMENT_3D ( 'NONE', #328, #199, #304 ) ;
#37 = UNCERTAINTY_MEASURE_WITH_UNIT (LENGTH_MEASURE( 1.000000000000000082E-05 ), #215, 'distance_accuracy_value', 'NONE');
#38 = VERTEX_POINT ( 'NONE', #166 ) ;
#39 = ADVANCED_FACE ( 'NONE', ( #303 ), #160, .F. ) ;
#40 = CARTESIAN_POINT ( 'NONE',  ( 6.123233995736769811E-19, 0.0000000000000000000, 0.005000000000000000971 ) ) ;
#41 = DIRECTION ( 'NONE',  ( 1.000000000000000000, 0.0000000000000000000, 0.0000000000000000000 ) ) ;
#42 = VERTEX_POINT ( 'NONE', #192 ) ;
#43 = AXIS2_PLACEMENT_3D ( 'NONE', #302, #322, #25 ) ;
#44 = CONICAL_SURFACE ( 'NONE', #85, 0.04750000000000064587, 0.7853981633974466137 ) ;
#45 = EDGE_LOOP ( 'NONE', ( #175, #92, #66, #317 ) ) ;
#46 = CARTESIAN_POINT ( 'NONE',  ( 0.0000000000000000000, 0.0000000000000000000, 0.0000000000000000000 ) ) ;
#47 =( NAMED_UNIT ( * ) SI_UNIT ( $, .STERADIAN. ) SOLID_ANGLE_UNIT ( ) );
#48 = ORIENTED_EDGE ( 'NONE', *, *, #282, .T. ) ;
#49 = FILL_AREA_STYLE ('',( #295 ) ) ;
#50 = ORIENTED_EDGE ( 'NONE', *, *, #35, .F. ) ;
#51 = CARTESIAN_POINT ( 'NONE',  ( 6.123233995736769811E-19, 0.0000000000000000000, 0.005000000000000000971 ) ) ;
#52 = EDGE_CURVE ( 'NONE', #263, #266, #55, .T. ) ;
#53 = LINE ( 'NONE', #191, #349 ) ;
#54 = COLOUR_RGB ( '',0.7921568627450980005, 0.8196078431372548767, 0.9333333333333333481 ) ;
#55 = LINE ( 'NONE', #164, #242 ) ;
#56 = ORIENTED_EDGE ( 'NONE', *, *, #120, .T. ) ;
#57 = ADVANCED_FACE ( 'NONE', ( #248 ), #273, .T. ) ;
#58 = DIRECTION ( 'NONE',  ( 0.0000000000000000000, 0.0000000000000000000, -1.000000000000000000 ) ) ;
#59 = COLOUR_RGB ( '',0.7921568627450980005, 0.8196078431372548767, 0.9333333333333333481 ) ;
#60 = CARTESIAN_POINT ( 'NONE',  ( -0.02621875000000000941, 3.517032526301306063E-18, 0.0000000000000000000 ) ) ;
#61 = EDGE_CURVE ( 'NONE', #286, #216, #287, .T. ) ;
#62 = LENGTH_MEASURE_WITH_UNIT ( LENGTH_MEASURE( 0.02539999999999999897 ), #143 );
#63 = DIRECTION ( 'NONE',  ( 0.0000000000000000000, -1.000000000000000000, 0.0000000000000000000 ) ) ;
#64 = DIRECTION ( 'NONE',  ( 0.0000000000000000000, 0.0000000000000000000, 1.000000000000000000 ) ) ;
#65 = AXIS2_PLACEMENT_3D ( 'NONE', #40, #335, #7 ) ;
#66 = ORIENTED_EDGE ( 'NONE', *, *, #165, .T. ) ;
#67 = EDGE_CURVE ( 'NONE', #263, #130, #275, .T. ) ;
#68 = DIRECTION ( 'NONE',  ( 1.000000000000000000, 0.0000000000000000000, 0.0000000000000000000 ) ) ;
#69 = CARTESIAN_POINT ( 'NONE',  ( 2.302335982397025094E-17, 0.0000000000000000000, 0.1880000000000000282 ) ) ;
#70 = CYLINDRICAL_SURFACE ( 'NONE', #88, 0.03121875000000000691 ) ;
#71 = ORIENTED_EDGE ( 'NONE', *, *, #211, .T. ) ;
#72 = CARTESIAN_POINT ( 'NONE',  ( 0.0000000000000000000, 0.0000000000000000000, 1.500000000000000222 ) ) ;
#73 = ORIENTED_EDGE ( 'NONE', *, *, #277, .T. ) ;
#74 = DIRECTION ( 'NONE',  ( 1.000000000000000000, 0.0000000000000000000, 0.0000000000000000000 ) ) ;
#75 = EDGE_LOOP ( 'NONE', ( #260, #48, #339, #230 ) ) ;
#76 = AXIS2_PLACEMENT_3D ( 'NONE', #196, #310, #258 ) ;
#77 = AXIS2_PLACEMENT_3D ( 'NONE', #177, #64, #41 ) ;
#78 = FACE_OUTER_BOUND ( 'NONE', #75, .T. ) ;
#79 = CARTESIAN_POINT ( 'NONE',  ( -0.04750000000000064587, 0.0000000000000000000, 1.500000000000000222 ) ) ;
#80 = ORIENTED_EDGE ( 'NONE', *, *, #2, .F. ) ;
#81 = AXIS2_PLACEMENT_3D ( 'NONE', #305, #63, #279 ) ;
#82 = ORIENTED_EDGE ( 'NONE', *, *, #165, .F. ) ;
#83 = CARTESIAN_POINT ( 'NONE',  ( 2.302335982397025094E-17, 0.0000000000000000000, 0.1880000000000000282 ) ) ;
#84 = DIRECTION ( 'NONE',  ( 0.7071067811865462405, 8.659560562354916834E-17, -0.7071067811865486830 ) ) ;
#85 = AXIS2_PLACEMENT_3D ( 'NONE', #86, #203, #12 ) ;
#86 = CARTESIAN_POINT ( 'NONE',  ( 0.0000000000000000000, 0.0000000000000000000, 1.500000000000000222 ) ) ;
#87 = UNCERTAINTY_MEASURE_WITH_UNIT (LENGTH_MEASURE( 1.000000000000000082E-05 ), #236, 'distance_accuracy_value', 'NONE');
#88 = AXIS2_PLACEMENT_3D ( 'NONE', #46, #97, #179 ) ;
#89 = EDGE_LOOP ( 'NONE', ( #99, #13, #332, #80 ) ) ;
#90 = DIRECTION ( 'NONE',  ( -1.224646799147353700E-16, -0.0000000000000000000, -1.000000000000000000 ) ) ;
#91 =( CONVERSION_BASED_UNIT ( 'INCH', #62 ) LENGTH_UNIT ( ) NAMED_UNIT ( #104 ) );
#92 = ORIENTED_EDGE ( 'NONE', *, *, #52, .T. ) ;
#93 = DIRECTION ( 'NONE',  ( -1.224646799147353700E-16, -0.0000000000000000000, -1.000000000000000000 ) ) ;
#94 = ORIENTED_EDGE ( 'NONE', *, *, #200, .F. ) ;
#95 = ORIENTED_EDGE ( 'NONE', *, *, #277, .F. ) ;
#96 = DIRECTION ( 'NONE',  ( 0.0000000000000000000, 0.0000000000000000000, -1.000000000000000000 ) ) ;
#97 = DIRECTION ( 'NONE',  ( -1.224646799147353700E-16, -0.0000000000000000000, -1.000000000000000000 ) ) ;
#98 = CYLINDRICAL_SURFACE ( 'NONE', #141, 0.06250000000000002776 ) ;
#99 = ORIENTED_EDGE ( 'NONE', *, *, #298, .F. ) ;
#100 = CONICAL_SURFACE ( 'NONE', #137, 0.03121875000000000691, 0.1745329251994338915 ) ;
#101 = CARTESIAN_POINT ( 'NONE',  ( 0.03121875000000000691, 3.823194226088144458E-18, 0.005000000000000000971 ) ) ;
#102 = ORIENTED_EDGE ( 'NONE', *, *, #235, .F. ) ;
#103 = DIRECTION ( 'NONE',  ( -1.000000000000000000, 0.0000000000000000000, 0.0000000000000000000 ) ) ;
#104 = DIMENSIONAL_EXPONENTS ( 1.000000000000000000, 0.0000000000000000000, 0.0000000000000000000, 0.0000000000000000000, 0.0000000000000000000, 0.0000000000000000000, 0.0000000000000000000 ) ;
#105 = DIRECTION ( 'NONE',  ( 0.0000000000000000000, 0.0000000000000000000, 1.000000000000000000 ) ) ;
#106 = CIRCLE ( 'NONE', #307, 0.06250000000000002776 ) ;
#107 = CYLINDRICAL_SURFACE ( 'NONE', #255, 0.03121875000000000691 ) ;
#108 = CARTESIAN_POINT ( 'NONE',  ( 0.06250000000000002776, 7.654042494670959086E-18, 1.485000000000000764 ) ) ;
#109 = DIRECTION ( 'NONE',  ( 0.0000000000000000000, 0.0000000000000000000, -1.000000000000000000 ) ) ;
#110 = ADVANCED_FACE ( 'NONE', ( #115 ), #237, .T. ) ;
#111 = AXIS2_PLACEMENT_3D ( 'NONE', #69, #222, #4 ) ;
#112 = STYLED_ITEM ( 'NONE', ( #182 ), #331 ) ;
#113 = AXIS2_PLACEMENT_3D ( 'NONE', #146, #90, #74 ) ;
#114 = ORIENTED_EDGE ( 'NONE', *, *, #20, .F. ) ;
#115 = FACE_OUTER_BOUND ( 'NONE', #89, .T. ) ;
#116 = ORIENTED_EDGE ( 'NONE', *, *, #52, .F. ) ;
#117 = FACE_OUTER_BOUND ( 'NONE', #292, .T. ) ;
#118 = SURFACE_STYLE_USAGE ( .BOTH. , #140 ) ;
#119 = ORIENTED_EDGE ( 'NONE', *, *, #253, .F. ) ;
#120 = EDGE_CURVE ( 'NONE', #263, #162, #9, .T. ) ;
#121 =( LENGTH_UNIT ( ) NAMED_UNIT ( * ) SI_UNIT ( $, .METRE. ) );
#122 = PRODUCT_RELATED_PRODUCT_CATEGORY ( 'part', '', ( #124 ) ) ;
#123 = SURFACE_STYLE_FILL_AREA ( #49 ) ;
#124 = PRODUCT ( 'Micro_GEC-062-4-005X', 'Micro_GEC-062-4-005X', '', ( #278 ) ) ;
#125 = CIRCLE ( 'NONE', #65, 0.03121875000000000691 ) ;
#126 = ORIENTED_EDGE ( 'NONE', *, *, #20, .T. ) ;
#127 = CIRCLE ( 'NONE', #296, 0.06250000000000002776 ) ;
#128 = ORIENTED_EDGE ( 'NONE', *, *, #67, .F. ) ;
#129 = LINE ( 'NONE', #185, #190 ) ;
#130 = VERTEX_POINT ( 'NONE', #309 ) ;
#131 =( LENGTH_UNIT ( ) NAMED_UNIT ( * ) SI_UNIT ( $, .METRE. ) );
#132 = ORIENTED_EDGE ( 'NONE', *, *, #169, .F. ) ;
#133 = VECTOR ( 'NONE', #320, 39.37007874015748854 ) ;
#134 = EDGE_LOOP ( 'NONE', ( #3, #73, #297, #128 ) ) ;
#135 = ORIENTED_EDGE ( 'NONE', *, *, #2, .T. ) ;
#136 = LINE ( 'NONE', #327, #155 ) ;
#137 = AXIS2_PLACEMENT_3D ( 'NONE', #83, #231, #197 ) ;
#138 = FACE_OUTER_BOUND ( 'NONE', #134, .T. ) ;
#139 = DIRECTION ( 'NONE',  ( 1.000000000000000000, 0.0000000000000000000, 0.0000000000000000000 ) ) ;
#140 = SURFACE_SIDE_STYLE ('',( #33 ) ) ;
#141 = AXIS2_PLACEMENT_3D ( 'NONE', #239, #212, #103 ) ;
#142 = TOROIDAL_SURFACE ( 'NONE', #334, 0.02621875000000000941, 0.005000000000000000104 ) ;
#143 =( LENGTH_UNIT ( ) NAMED_UNIT ( * ) SI_UNIT ( $, .METRE. ) );
#144 = APPLICATION_PROTOCOL_DEFINITION ( 'draft international standard', 'automotive_design', 1998, #184 ) ;
#145 = ADVANCED_FACE ( 'NONE', ( #6 ), #19, .T. ) ;
#146 = CARTESIAN_POINT ( 'NONE',  ( 4.474917996329784544E-17, 0.0000000000000000000, 0.3654047844199155848 ) ) ;
#147 = ORIENTED_EDGE ( 'NONE', *, *, #61, .T. ) ;
#148 = CARTESIAN_POINT ( 'NONE',  ( 0.06250000000000002776, 7.654042494670959086E-18, 1.500000000000000222 ) ) ;
#149 = PRESENTATION_LAYER_ASSIGNMENT (  '', '', ( #112 ) ) ;
#150 = ORIENTED_EDGE ( 'NONE', *, *, #120, .F. ) ;
#151 = FACE_OUTER_BOUND ( 'NONE', #45, .T. ) ;
#152 = EDGE_LOOP ( 'NONE', ( #132, #213, #181, #294 ) ) ;
#153 = CARTESIAN_POINT ( 'NONE',  ( 4.474917996329784544E-17, 0.0000000000000000000, 0.3654047844199155848 ) ) ;
#154 = CARTESIAN_POINT ( 'NONE',  ( -0.04750000000000064587, 0.0000000000000000000, 1.500000000000000222 ) ) ;
#155 = VECTOR ( 'NONE', #84, 39.37007874015748854 ) ;
#156 = AXIS2_PLACEMENT_3D ( 'NONE', #72, #159, #341 ) ;
#157 = CARTESIAN_POINT ( 'NONE',  ( 6.123233995736768848E-19, 0.0000000000000000000, 0.005000000000000000104 ) ) ;
#158 = ORIENTED_EDGE ( 'NONE', *, *, #211, .F. ) ;
#159 = DIRECTION ( 'NONE',  ( 0.0000000000000000000, 0.0000000000000000000, 1.000000000000000000 ) ) ;
#160 = PLANE ( 'NONE',  #43 ) ;
#161 = APPLICATION_PROTOCOL_DEFINITION ( 'draft international standard', 'automotive_design', 1998, #326 ) ;
#162 = VERTEX_POINT ( 'NONE', #227 ) ;
#163 =( GEOMETRIC_REPRESENTATION_CONTEXT ( 3 ) GLOBAL_UNCERTAINTY_ASSIGNED_CONTEXT ( ( #87 ) ) GLOBAL_UNIT_ASSIGNED_CONTEXT ( ( #236, #233, #47 ) ) REPRESENTATION_CONTEXT ( 'NONE', 'WORKASPACE' ) );
#164 = CARTESIAN_POINT ( 'NONE',  ( 0.03121875000000000691, 3.823194226088144458E-18, -3.823194226088145998E-18 ) ) ;
#165 = EDGE_CURVE ( 'NONE', #266, #38, #125, .T. ) ;
#166 = CARTESIAN_POINT ( 'NONE',  ( -0.03121875000000000691, 0.0000000000000000000, 0.005000000000000000971 ) ) ;
#167 = CARTESIAN_POINT ( 'NONE',  ( 0.03121875000000002773, 0.0000000000000000000, 0.1880000000000000282 ) ) ;
#168 = AXIS2_PLACEMENT_3D ( 'NONE', #23, #27, #269 ) ;
#169 = EDGE_CURVE ( 'NONE', #283, #205, #136, .T. ) ;
#170 = CIRCLE ( 'NONE', #214, 0.004999999999999997502 ) ;
#171 = CARTESIAN_POINT ( 'NONE',  ( -0.06250000000000002776, 0.0000000000000000000, 1.485000000000000764 ) ) ;
#172 = FACE_OUTER_BOUND ( 'NONE', #234, .T. ) ;
#173 = EDGE_CURVE ( 'NONE', #162, #263, #180, .T. ) ;
#174 =( GEOMETRIC_REPRESENTATION_CONTEXT ( 3 ) GLOBAL_UNCERTAINTY_ASSIGNED_CONTEXT ( ( #246 ) ) GLOBAL_UNIT_ASSIGNED_CONTEXT ( ( #91, #224, #285 ) ) REPRESENTATION_CONTEXT ( 'NONE', 'WORKASPACE' ) );
#175 = ORIENTED_EDGE ( 'NONE', *, *, #173, .T. ) ;
#176 = DIRECTION ( 'NONE',  ( -1.000000000000000000, 0.0000000000000000000, 1.224646799147353700E-16 ) ) ;
#177 = CARTESIAN_POINT ( 'NONE',  ( 0.0000000000000000000, 0.0000000000000000000, 0.0000000000000000000 ) ) ;
#178 = EDGE_LOOP ( 'NONE', ( #114, #186, #82, #102 ) ) ;
#179 = DIRECTION ( 'NONE',  ( -1.000000000000000000, 0.0000000000000000000, 1.224646799147353700E-16 ) ) ;
#180 = CIRCLE ( 'NONE', #311, 0.03121875000000000691 ) ;
#181 = ORIENTED_EDGE ( 'NONE', *, *, #5, .T. ) ;
#182 = PRESENTATION_STYLE_ASSIGNMENT (( #321 ) ) ;
#183 = ADVANCED_FACE ( 'NONE', ( #117 ), #107, .T. ) ;
#184 = APPLICATION_CONTEXT ( 'automotive_design' ) ;
#185 = CARTESIAN_POINT ( 'NONE',  ( -0.03121875000000000691, 0.0000000000000000000, 3.823194226088145998E-18 ) ) ;
#186 = ORIENTED_EDGE ( 'NONE', *, *, #298, .T. ) ;
#187 = DIRECTION ( 'NONE',  ( 1.000000000000000000, 0.0000000000000000000, 0.0000000000000000000 ) ) ;
#188 = AXIS2_PLACEMENT_3D ( 'NONE', #189, #105, #218 ) ;
#189 = CARTESIAN_POINT ( 'NONE',  ( 0.0000000000000000000, 0.0000000000000000000, 1.500000000000000222 ) ) ;
#190 = VECTOR ( 'NONE', #268, 39.37007874015748143 ) ;
#191 = CARTESIAN_POINT ( 'NONE',  ( -0.06250000000000002776, 0.0000000000000000000, 1.500000000000000222 ) ) ;
#192 = CARTESIAN_POINT ( 'NONE',  ( -0.06249999999999997918, 0.0000000000000000000, 0.3654047844199155848 ) ) ;
#193 = ADVANCED_FACE ( 'NONE', ( #138 ), #100, .T. ) ;
#194 = DIRECTION ( 'NONE',  ( -0.0000000000000000000, -0.0000000000000000000, -1.000000000000000000 ) ) ;
#195 = CIRCLE ( 'NONE', #156, 0.04750000000000064587 ) ;
#196 = CARTESIAN_POINT ( 'NONE',  ( 6.123233995736768848E-19, 0.0000000000000000000, 0.0000000000000000000 ) ) ;
#197 = DIRECTION ( 'NONE',  ( 1.000000000000000000, 0.0000000000000000000, 0.0000000000000000000 ) ) ;
#198 = EDGE_CURVE ( 'NONE', #205, #130, #34, .T. ) ;
#199 = DIRECTION ( 'NONE',  ( 0.0000000000000000000, 0.0000000000000000000, 1.000000000000000000 ) ) ;
#200 = EDGE_CURVE ( 'NONE', #217, #205, #343, .T. ) ;
#201 = DIMENSIONAL_EXPONENTS ( 1.000000000000000000, 0.0000000000000000000, 0.0000000000000000000, 0.0000000000000000000, 0.0000000000000000000, 0.0000000000000000000, 0.0000000000000000000 ) ;
#202 = AXIS2_PLACEMENT_3D ( 'NONE', #51, #267, #299 ) ;
#203 = DIRECTION ( 'NONE',  ( 0.0000000000000000000, 0.0000000000000000000, -1.000000000000000000 ) ) ;
#204 = CIRCLE ( 'NONE', #202, 0.03121875000000000691 ) ;
#205 = VERTEX_POINT ( 'NONE', #108 ) ;
#206 = CARTESIAN_POINT ( 'NONE',  ( 2.302335982397025094E-17, 0.0000000000000000000, 0.1880000000000000282 ) ) ;
#207 = DIRECTION ( 'NONE',  ( 0.1736481776669313859, 0.0000000000000000000, 0.9848077530122077983 ) ) ;
#208 = CARTESIAN_POINT ( 'NONE',  ( 0.0000000000000000000, 0.0000000000000000000, 1.485000000000000764 ) ) ;
#209 = PRODUCT_DEFINITION_FORMATION_WITH_SPECIFIED_SOURCE ( 'ANY', '', #124, .NOT_KNOWN. ) ;
#210 = CARTESIAN_POINT ( 'NONE',  ( 0.02621875000000000941, 0.0000000000000000000, 0.0000000000000000000 ) ) ;
#211 = EDGE_CURVE ( 'NONE', #283, #351, #265, .T. ) ;
#212 = DIRECTION ( 'NONE',  ( -0.0000000000000000000, -0.0000000000000000000, -1.000000000000000000 ) ) ;
#213 = ORIENTED_EDGE ( 'NONE', *, *, #340, .F. ) ;
#214 = AXIS2_PLACEMENT_3D ( 'NONE', #24, #240, #316 ) ;
#215 =( CONVERSION_BASED_UNIT ( 'INCH', #241 ) LENGTH_UNIT ( ) NAMED_UNIT ( #201 ) );
#216 = VERTEX_POINT ( 'NONE', #60 ) ;
#217 = VERTEX_POINT ( 'NONE', #171 ) ;
#218 = DIRECTION ( 'NONE',  ( 1.000000000000000000, 0.0000000000000000000, -0.0000000000000000000 ) ) ;
#219 = AXIS2_PLACEMENT_3D ( 'NONE', #206, #284, #29 ) ;
#220 = ADVANCED_FACE ( 'NONE', ( #276 ), #14, .T. ) ;
#221 = CARTESIAN_POINT ( 'NONE',  ( 0.0000000000000000000, 0.0000000000000000000, 0.0000000000000000000 ) ) ;
#222 = DIRECTION ( 'NONE',  ( -1.224646799147353700E-16, -0.0000000000000000000, -1.000000000000000000 ) ) ;
#223 = DIRECTION ( 'NONE',  ( -1.000000000000000000, 0.0000000000000000000, 0.0000000000000000000 ) ) ;
#224 =( NAMED_UNIT ( * ) PLANE_ANGLE_UNIT ( ) SI_UNIT ( $, .RADIAN. ) );
#225 = ORIENTED_EDGE ( 'NONE', *, *, #274, .T. ) ;
#226 = ADVANCED_BREP_SHAPE_REPRESENTATION ( 'Micro_GEC-062-4-005X', ( #331, #77 ), #350 ) ;
#227 = CARTESIAN_POINT ( 'NONE',  ( -0.03121874999999998609, 5.738618360379552157E-18, 0.1880000000000000282 ) ) ;
#228 = MECHANICAL_DESIGN_GEOMETRIC_PRESENTATION_REPRESENTATION (  '', ( #244 ), #174 ) ;
#229 = ADVANCED_FACE ( 'NONE', ( #172 ), #44, .T. ) ;
#230 = ORIENTED_EDGE ( 'NONE', *, *, #274, .F. ) ;
#231 = DIRECTION ( 'NONE',  ( 1.224646799147353700E-16, 0.0000000000000000000, 1.000000000000000000 ) ) ;
#232 = EDGE_LOOP ( 'NONE', ( #243, #71 ) ) ;
#233 =( NAMED_UNIT ( * ) PLANE_ANGLE_UNIT ( ) SI_UNIT ( $, .RADIAN. ) );
#234 = EDGE_LOOP ( 'NONE', ( #158, #347, #94, #337 ) ) ;
#235 = EDGE_CURVE ( 'NONE', #286, #266, #314, .T. ) ;
#236 =( CONVERSION_BASED_UNIT ( 'INCH', #21 ) LENGTH_UNIT ( ) NAMED_UNIT ( #256 ) );
#237 = TOROIDAL_SURFACE ( 'NONE', #26, 0.02621875000000000941, 0.005000000000000000104 ) ;
#238 = AXIS2_PLACEMENT_3D ( 'NONE', #32, #109, #223 ) ;
#239 = CARTESIAN_POINT ( 'NONE',  ( 0.0000000000000000000, 0.0000000000000000000, 1.500000000000000222 ) ) ;
#240 = DIRECTION ( 'NONE',  ( 1.224646799147353207E-16, 1.000000000000000000, -0.0000000000000000000 ) ) ;
#241 = LENGTH_MEASURE_WITH_UNIT ( LENGTH_MEASURE( 0.02539999999999999897 ), #131 );
#242 = VECTOR ( 'NONE', #301, 39.37007874015748143 ) ;
#243 = ORIENTED_EDGE ( 'NONE', *, *, #340, .T. ) ;
#244 = STYLED_ITEM ( 'NONE', ( #8 ), #226 ) ;
#245 =( NAMED_UNIT ( * ) SI_UNIT ( $, .STERADIAN. ) SOLID_ANGLE_UNIT ( ) );
#246 = UNCERTAINTY_MEASURE_WITH_UNIT (LENGTH_MEASURE( 1.000000000000000082E-05 ), #91, 'distance_accuracy_value', 'NONE');
#247 = CARTESIAN_POINT ( 'NONE',  ( 0.0000000000000000000, 0.0000000000000000000, 1.500000000000000222 ) ) ;
#248 = FACE_OUTER_BOUND ( 'NONE', #232, .T. ) ;
#249 = DIRECTION ( 'NONE',  ( -1.000000000000000000, 0.0000000000000000000, 0.0000000000000000000 ) ) ;
#250 = VECTOR ( 'NONE', #261, 39.37007874015747433 ) ;
#251 = DIRECTION ( 'NONE',  ( -0.0000000000000000000, -0.0000000000000000000, -1.000000000000000000 ) ) ;
#252 = CARTESIAN_POINT ( 'NONE',  ( 2.302335982397025094E-17, 0.0000000000000000000, 0.1880000000000000282 ) ) ;
#253 = EDGE_CURVE ( 'NONE', #42, #130, #324, .T. ) ;
#254 = FILL_AREA_STYLE_COLOUR ( '', #54 ) ;
#255 = AXIS2_PLACEMENT_3D ( 'NONE', #221, #93, #176 ) ;
#256 = DIMENSIONAL_EXPONENTS ( 1.000000000000000000, 0.0000000000000000000, 0.0000000000000000000, 0.0000000000000000000, 0.0000000000000000000, 0.0000000000000000000, 0.0000000000000000000 ) ;
#257 = ORIENTED_EDGE ( 'NONE', *, *, #198, .T. ) ;
#258 = DIRECTION ( 'NONE',  ( 1.000000000000000000, 0.0000000000000000000, 0.0000000000000000000 ) ) ;
#259 = MECHANICAL_DESIGN_GEOMETRIC_PRESENTATION_REPRESENTATION (  '', ( #112 ), #163 ) ;
#260 = ORIENTED_EDGE ( 'NONE', *, *, #198, .F. ) ;
#261 = DIRECTION ( 'NONE',  ( -0.1736481776669311916, 2.126576849575783316E-17, 0.9848077530122080203 ) ) ;
#262 = DIRECTION ( 'NONE',  ( 1.000000000000000000, 0.0000000000000000000, 0.0000000000000000000 ) ) ;
#263 = VERTEX_POINT ( 'NONE', #291 ) ;
#264 = ADVANCED_FACE ( 'NONE', ( #151 ), #70, .T. ) ;
#265 = CIRCLE ( 'NONE', #36, 0.04750000000000064587 ) ;
#266 = VERTEX_POINT ( 'NONE', #101 ) ;
#267 = DIRECTION ( 'NONE',  ( 0.0000000000000000000, 0.0000000000000000000, 1.000000000000000000 ) ) ;
#268 = DIRECTION ( 'NONE',  ( -1.224646799147353700E-16, -0.0000000000000000000, -1.000000000000000000 ) ) ;
#269 = DIRECTION ( 'NONE',  ( 1.000000000000000000, 0.0000000000000000000, 0.0000000000000000000 ) ) ;
#270 =( NAMED_UNIT ( * ) PLANE_ANGLE_UNIT ( ) SI_UNIT ( $, .RADIAN. ) );
#271 = ORIENTED_EDGE ( 'NONE', *, *, #345, .T. ) ;
#272 = AXIS2_PLACEMENT_3D ( 'NONE', #329, #58, #68 ) ;
#273 = PLANE ( 'NONE',  #188 ) ;
#274 = EDGE_CURVE ( 'NONE', #130, #42, #127, .T. ) ;
#275 = LINE ( 'NONE', #167, #280 ) ;
#276 = FACE_OUTER_BOUND ( 'NONE', #152, .T. ) ;
#277 = EDGE_CURVE ( 'NONE', #162, #42, #293, .T. ) ;
#278 = PRODUCT_CONTEXT ( 'NONE', #326, 'mechanical' ) ;
#279 = DIRECTION ( 'NONE',  ( 0.0000000000000000000, 0.0000000000000000000, -1.000000000000000000 ) ) ;
#280 = VECTOR ( 'NONE', #207, 39.37007874015748143 ) ;
#281 = VECTOR ( 'NONE', #251, 39.37007874015748143 ) ;
#282 = EDGE_CURVE ( 'NONE', #205, #217, #106, .T. ) ;
#283 = VERTEX_POINT ( 'NONE', #16 ) ;
#284 = DIRECTION ( 'NONE',  ( 1.224646799147353700E-16, 0.0000000000000000000, 1.000000000000000000 ) ) ;
#285 =( NAMED_UNIT ( * ) SI_UNIT ( $, .STERADIAN. ) SOLID_ANGLE_UNIT ( ) );
#286 = VERTEX_POINT ( 'NONE', #210 ) ;
#287 = CIRCLE ( 'NONE', #76, 0.02621875000000000941 ) ;
#288 = CARTESIAN_POINT ( 'NONE',  ( -0.03121874999999998609, 3.823194226088144458E-18, 0.1880000000000000282 ) ) ;
#289 = PRESENTATION_LAYER_ASSIGNMENT (  '', '', ( #244 ) ) ;
#290 = EDGE_LOOP ( 'NONE', ( #95, #150, #315, #225 ) ) ;
#291 = CARTESIAN_POINT ( 'NONE',  ( 0.03121875000000002773, 0.0000000000000000000, 0.1880000000000000282 ) ) ;
#292 = EDGE_LOOP ( 'NONE', ( #116, #56, #271, #135 ) ) ;
#293 = LINE ( 'NONE', #288, #250 ) ;
#294 = ORIENTED_EDGE ( 'NONE', *, *, #282, .F. ) ;
#295 = FILL_AREA_STYLE_COLOUR ( '', #59 ) ;
#296 = AXIS2_PLACEMENT_3D ( 'NONE', #153, #348, #262 ) ;
#297 = ORIENTED_EDGE ( 'NONE', *, *, #253, .T. ) ;
#298 = EDGE_CURVE ( 'NONE', #216, #38, #170, .T. ) ;
#299 = DIRECTION ( 'NONE',  ( 1.000000000000000000, 0.0000000000000000000, 0.0000000000000000000 ) ) ;
#300 = PRODUCT_DEFINITION ( 'UNKNOWN', '', #209, #342 ) ;
#301 = DIRECTION ( 'NONE',  ( -1.224646799147353700E-16, -0.0000000000000000000, -1.000000000000000000 ) ) ;
#302 = CARTESIAN_POINT ( 'NONE',  ( 0.0000000000000000000, 0.0000000000000000000, 0.0000000000000000000 ) ) ;
#303 = FACE_OUTER_BOUND ( 'NONE', #28, .T. ) ;
#304 = DIRECTION ( 'NONE',  ( 1.000000000000000000, 0.0000000000000000000, 0.0000000000000000000 ) ) ;
#305 = CARTESIAN_POINT ( 'NONE',  ( 0.02621875000000000941, 0.0000000000000000000, 0.005000000000000000104 ) ) ;
#306 = CLOSED_SHELL ( 'NONE', ( #312, #264, #193, #229, #30, #10, #57, #220, #145, #183, #39, #110 ) ) ;
#307 = AXIS2_PLACEMENT_3D ( 'NONE', #208, #96, #318 ) ;
#308 = ORIENTED_EDGE ( 'NONE', *, *, #200, .T. ) ;
#309 = CARTESIAN_POINT ( 'NONE',  ( 0.06250000000000006939, 7.654042494670963708E-18, 0.3654047844199155848 ) ) ;
#310 = DIRECTION ( 'NONE',  ( -0.0000000000000000000, -0.0000000000000000000, -1.000000000000000000 ) ) ;
#311 = AXIS2_PLACEMENT_3D ( 'NONE', #252, #15, #249 ) ;
#312 = ADVANCED_FACE ( 'NONE', ( #18 ), #142, .T. ) ;
#313 = DIRECTION ( 'NONE',  ( 0.0000000000000000000, 0.0000000000000000000, 1.000000000000000000 ) ) ;
#314 = CIRCLE ( 'NONE', #81, 0.005000000000000000104 ) ;
#315 = ORIENTED_EDGE ( 'NONE', *, *, #67, .T. ) ;
#316 = DIRECTION ( 'NONE',  ( -1.000000000000000000, 1.224646799147353947E-16, 0.0000000000000000000 ) ) ;
#317 = ORIENTED_EDGE ( 'NONE', *, *, #345, .F. ) ;
#318 = DIRECTION ( 'NONE',  ( 1.000000000000000000, 0.0000000000000000000, 0.0000000000000000000 ) ) ;
#319 = CIRCLE ( 'NONE', #168, 0.02621875000000000941 ) ;
#320 = DIRECTION ( 'NONE',  ( -0.7071067811865462405, 0.0000000000000000000, -0.7071067811865486830 ) ) ;
#321 = SURFACE_STYLE_USAGE ( .BOTH. , #344 ) ;
#322 = DIRECTION ( 'NONE',  ( 0.0000000000000000000, 0.0000000000000000000, 1.000000000000000000 ) ) ;
#323 = LINE ( 'NONE', #79, #133 ) ;
#324 = CIRCLE ( 'NONE', #113, 0.06250000000000002776 ) ;
#325 = FACE_OUTER_BOUND ( 'NONE', #17, .T. ) ;
#326 = APPLICATION_CONTEXT ( 'automotive_design' ) ;
#327 = CARTESIAN_POINT ( 'NONE',  ( 0.04750000000000064587, 5.817072295950006528E-18, 1.500000000000000222 ) ) ;
#328 = CARTESIAN_POINT ( 'NONE',  ( 0.0000000000000000000, 0.0000000000000000000, 1.500000000000000222 ) ) ;
#329 = CARTESIAN_POINT ( 'NONE',  ( 0.0000000000000000000, 0.0000000000000000000, 1.485000000000000764 ) ) ;
#330 = PRODUCT_DEFINITION_SHAPE ( 'NONE', 'NONE',  #300 ) ;
#331 = MANIFOLD_SOLID_BREP ( 'Fillet1', #306 ) ;
#332 = ORIENTED_EDGE ( 'NONE', *, *, #235, .T. ) ;
#333 = AXIS2_PLACEMENT_3D ( 'NONE', #247, #346, #22 ) ;
#334 = AXIS2_PLACEMENT_3D ( 'NONE', #157, #313, #187 ) ;
#335 = DIRECTION ( 'NONE',  ( 0.0000000000000000000, 0.0000000000000000000, 1.000000000000000000 ) ) ;
#336 = SHAPE_DEFINITION_REPRESENTATION ( #330, #226 ) ;
#337 = ORIENTED_EDGE ( 'NONE', *, *, #5, .F. ) ;
#338 = CARTESIAN_POINT ( 'NONE',  ( 6.123233995736768848E-19, 0.0000000000000000000, 0.005000000000000000104 ) ) ;
#339 = ORIENTED_EDGE ( 'NONE', *, *, #35, .T. ) ;
#340 = EDGE_CURVE ( 'NONE', #351, #283, #195, .T. ) ;
#341 = DIRECTION ( 'NONE',  ( 1.000000000000000000, 0.0000000000000000000, 0.0000000000000000000 ) ) ;
#342 = PRODUCT_DEFINITION_CONTEXT ( 'detailed design', #184, 'design' ) ;
#343 = CIRCLE ( 'NONE', #272, 0.06250000000000002776 ) ;
#344 = SURFACE_SIDE_STYLE ('',( #123 ) ) ;
#345 = EDGE_CURVE ( 'NONE', #162, #38, #129, .T. ) ;
#346 = DIRECTION ( 'NONE',  ( -0.0000000000000000000, -0.0000000000000000000, -1.000000000000000000 ) ) ;
#347 = ORIENTED_EDGE ( 'NONE', *, *, #169, .T. ) ;
#348 = DIRECTION ( 'NONE',  ( -1.224646799147353700E-16, -0.0000000000000000000, -1.000000000000000000 ) ) ;
#349 = VECTOR ( 'NONE', #194, 39.37007874015748143 ) ;
#350 =( GEOMETRIC_REPRESENTATION_CONTEXT ( 3 ) GLOBAL_UNCERTAINTY_ASSIGNED_CONTEXT ( ( #37 ) ) GLOBAL_UNIT_ASSIGNED_CONTEXT ( ( #215, #270, #245 ) ) REPRESENTATION_CONTEXT ( 'NONE', 'WORKASPACE' ) );
#351 = VERTEX_POINT ( 'NONE', #154 ) ;
ENDSEC;
END-ISO-10303-21;
