ISO-10303-21;
HEADER;
FILE_DESCRIPTION (( 'STEP AP214' ),
    '1' );
FILE_NAME ('84044.STEP',
    '2023-06-23T10:51:41',
    ( '' ),
    ( '' ),
    'SwSTEP 2.0',
    'SolidWorks 2023',
    '' );
FILE_SCHEMA (( 'AUTOMOTIVE_DESIGN' ));
ENDSEC;

DATA;
#1 = CARTESIAN_POINT ( 'NONE',  ( 1.095514815677032768E-35, 0.1875000000000000278, 0.000000000000000000 ) ) ;
#2 = EDGE_LOOP ( 'NONE', ( #242, #249, #213, #269 ) ) ;
#3 = PLANE ( 'NONE',  #169 ) ;
#4 = ORIENTED_EDGE ( 'NONE', *, *, #185, .T. ) ;
#5 =( NAMED_UNIT ( * ) PLANE_ANGLE_UNIT ( ) SI_UNIT ( $, .RADIAN. ) );
#6 = STYLED_ITEM ( 'NONE', ( #49 ), #319 ) ;
#7 = PLANE ( 'NONE',  #30 ) ;
#8 = ORIENTED_EDGE ( 'NONE', *, *, #155, .T. ) ;
#9 = DIRECTION ( 'NONE',  ( 1.000000000000000000, 0.000000000000000000, 0.000000000000000000 ) ) ;
#10 =( NAMED_UNIT ( * ) PLANE_ANGLE_UNIT ( ) SI_UNIT ( $, .RADIAN. ) );
#11 = DIRECTION ( 'NONE',  ( -1.000000000000000000, 0.000000000000000000, 0.000000000000000000 ) ) ;
#12 = DIRECTION ( 'NONE',  ( -1.000000000000000000, 0.000000000000000000, 0.000000000000000000 ) ) ;
#13 = PRESENTATION_LAYER_ASSIGNMENT (  '', '', ( #170 ) ) ;
#14 = SURFACE_SIDE_STYLE ('',( #37 ) ) ;
#15 = FILL_AREA_STYLE ('',( #348 ) ) ;
#16 = CARTESIAN_POINT ( 'NONE',  ( -0.03125000000000000000, 0.1875000000000001110, 0.000000000000000000 ) ) ;
#17 = ADVANCED_FACE ( 'NONE', ( #192 ), #7, .T. ) ;
#18 = CARTESIAN_POINT ( 'NONE',  ( 0.000000000000000000, 0.000000000000000000, 0.000000000000000000 ) ) ;
#19 = ORIENTED_EDGE ( 'NONE', *, *, #265, .F. ) ;
#20 = LINE ( 'NONE', #77, #207 ) ;
#21 = AXIS2_PLACEMENT_3D ( 'NONE', #299, #276, #272 ) ;
#22 = DIRECTION ( 'NONE',  ( 0.000000000000000000, 0.000000000000000000, -1.000000000000000000 ) ) ;
#23 = DIRECTION ( 'NONE',  ( -0.000000000000000000, -1.000000000000000000, -0.000000000000000000 ) ) ;
#24 = ORIENTED_EDGE ( 'NONE', *, *, #95, .T. ) ;
#25 = FACE_OUTER_BOUND ( 'NONE', #2, .T. ) ;
#26 = VERTEX_POINT ( 'NONE', #33 ) ;
#27 = ADVANCED_FACE ( 'NONE', ( #197 ), #339, .T. ) ;
#28 = FACE_OUTER_BOUND ( 'NONE', #359, .T. ) ;
#29 = AXIS2_PLACEMENT_3D ( 'NONE', #323, #73, #110 ) ;
#30 = AXIS2_PLACEMENT_3D ( 'NONE', #163, #223, #31 ) ;
#31 = DIRECTION ( 'NONE',  ( 0.000000000000000000, -0.000000000000000000, 1.000000000000000000 ) ) ;
#32 = LENGTH_MEASURE_WITH_UNIT ( LENGTH_MEASURE( 0.02539999999999999897 ), #195 );
#33 = CARTESIAN_POINT ( 'NONE',  ( 0.000000000000000000, 0.000000000000000000, -0.03125000000000000000 ) ) ;
#34 = UNCERTAINTY_MEASURE_WITH_UNIT (LENGTH_MEASURE( 1.000000000000000082E-05 ), #278, 'distance_accuracy_value', 'NONE');
#35 = AXIS2_PLACEMENT_3D ( 'NONE', #145, #172, #343 ) ;
#36 = EDGE_LOOP ( 'NONE', ( #8, #267 ) ) ;
#37 = SURFACE_STYLE_FILL_AREA ( #15 ) ;
#38 = FACE_OUTER_BOUND ( 'NONE', #340, .T. ) ;
#39 = COLOUR_RGB ( '',1.000000000000000000, 0.000000000000000000, 0.000000000000000000 ) ;
#40 =( GEOMETRIC_REPRESENTATION_CONTEXT ( 3 ) GLOBAL_UNCERTAINTY_ASSIGNED_CONTEXT ( ( #194 ) ) GLOBAL_UNIT_ASSIGNED_CONTEXT ( ( #301, #217, #215 ) ) REPRESENTATION_CONTEXT ( 'NONE', 'WORKASPACE' ) );
#41 =( LENGTH_UNIT ( ) NAMED_UNIT ( * ) SI_UNIT ( $, .METRE. ) );
#42 =( NAMED_UNIT ( * ) PLANE_ANGLE_UNIT ( ) SI_UNIT ( $, .RADIAN. ) );
#43 = CIRCLE ( 'NONE', #35, 0.03125000000000000000 ) ;
#44 = CIRCLE ( 'NONE', #74, 0.03125000000000000000 ) ;
#45 = PLANE ( 'NONE',  #196 ) ;
#46 = DIMENSIONAL_EXPONENTS ( 1.000000000000000000, 0.000000000000000000, 0.000000000000000000, 0.000000000000000000, 0.000000000000000000, 0.000000000000000000, 0.000000000000000000 ) ;
#47 = CARTESIAN_POINT ( 'NONE',  ( 0.000000000000000000, 0.000000000000000000, 0.000000000000000000 ) ) ;
#48 = VERTEX_POINT ( 'NONE', #102 ) ;
#49 = PRESENTATION_STYLE_ASSIGNMENT (( #186 ) ) ;
#50 = DIMENSIONAL_EXPONENTS ( 1.000000000000000000, 0.000000000000000000, 0.000000000000000000, 0.000000000000000000, 0.000000000000000000, 0.000000000000000000, 0.000000000000000000 ) ;
#51 = VERTEX_POINT ( 'NONE', #232 ) ;
#52 =( CONVERSION_BASED_UNIT ( 'INCH', #329 ) LENGTH_UNIT ( ) NAMED_UNIT ( #349 ) );
#53 = DIRECTION ( 'NONE',  ( 0.2588190451025214611, 0.9659258262890679791, 3.169619151431773569E-17 ) ) ;
#54 = ADVANCED_FACE ( 'NONE', ( #322 ), #286, .T. ) ;
#55 = ORIENTED_EDGE ( 'NONE', *, *, #71, .T. ) ;
#56 = SURFACE_STYLE_FILL_AREA ( #134 ) ;
#57 =( CONVERSION_BASED_UNIT ( 'INCH', #266 ) LENGTH_UNIT ( ) NAMED_UNIT ( #324 ) );
#58 = FILL_AREA_STYLE_COLOUR ( '', #120 ) ;
#59 = PRESENTATION_LAYER_ASSIGNMENT (  '', '', ( #124 ) ) ;
#60 =( GEOMETRIC_REPRESENTATION_CONTEXT ( 3 ) GLOBAL_UNCERTAINTY_ASSIGNED_CONTEXT ( ( #34 ) ) GLOBAL_UNIT_ASSIGNED_CONTEXT ( ( #278, #10, #61 ) ) REPRESENTATION_CONTEXT ( 'NONE', 'WORKASPACE' ) );
#61 =( NAMED_UNIT ( * ) SI_UNIT ( $, .STERADIAN. ) SOLID_ANGLE_UNIT ( ) );
#62 = UNCERTAINTY_MEASURE_WITH_UNIT (LENGTH_MEASURE( 1.000000000000000082E-05 ), #300, 'distance_accuracy_value', 'NONE');
#63 = CARTESIAN_POINT ( 'NONE',  ( 0.000000000000000000, 0.000000000000000000, 0.000000000000000000 ) ) ;
#64 = ADVANCED_FACE ( 'NONE', ( #260 ), #173, .T. ) ;
#65 = ORIENTED_EDGE ( 'NONE', *, *, #334, .T. ) ;
#66 = CARTESIAN_POINT ( 'NONE',  ( 0.000000000000000000, 0.000000000000000000, 0.000000000000000000 ) ) ;
#67 = SHAPE_DEFINITION_REPRESENTATION ( #231, #352 ) ;
#68 = COLOUR_RGB ( '',0.7921568627450980005, 0.8196078431372548767, 0.9333333333333333481 ) ;
#69 = CARTESIAN_POINT ( 'NONE',  ( 0.000000000000000000, 0.000000000000000000, 0.000000000000000000 ) ) ;
#70 = CIRCLE ( 'NONE', #88, 0.1250000000000000278 ) ;
#71 = EDGE_CURVE ( 'NONE', #271, #199, #44, .T. ) ;
#72 = DIRECTION ( 'NONE',  ( -2.647884971129412640E-17, 1.000000000000000000, -0.000000000000000000 ) ) ;
#73 = DIRECTION ( 'NONE',  ( -2.647884971129412640E-17, 1.000000000000000000, -0.000000000000000000 ) ) ;
#74 = AXIS2_PLACEMENT_3D ( 'NONE', #78, #357, #105 ) ;
#75 = AXIS2_PLACEMENT_3D ( 'NONE', #66, #254, #9 ) ;
#76 = LINE ( 'NONE', #161, #123 ) ;
#77 = CARTESIAN_POINT ( 'NONE',  ( 0.1249999999999999584, 2.500000000000000000, 1.530808498934191817E-17 ) ) ;
#78 = CARTESIAN_POINT ( 'NONE',  ( 7.582401355855259480E-33, 0.1875000000000001110, 0.000000000000000000 ) ) ;
#79 = VECTOR ( 'NONE', #135, 39.37007874015748143 ) ;
#80 = PRESENTATION_LAYER_ASSIGNMENT (  '', '', ( #358 ) ) ;
#81 = CARTESIAN_POINT ( 'NONE',  ( -0.1250000000000001110, 2.500000000000000000, 0.000000000000000000 ) ) ;
#82 = DIRECTION ( 'NONE',  ( -2.647884971129412640E-17, 1.000000000000000000, -0.000000000000000000 ) ) ;
#83 = CYLINDRICAL_SURFACE ( 'NONE', #21, 0.1250000000000000278 ) ;
#84 = ORIENTED_EDGE ( 'NONE', *, *, #151, .F. ) ;
#85 = EDGE_CURVE ( 'NONE', #220, #222, #138, .T. ) ;
#86 = CARTESIAN_POINT ( 'NONE',  ( 3.827021247335478772E-18, 0.1875000000000000278, 0.03125000000000000000 ) ) ;
#87 = AXIS2_PLACEMENT_3D ( 'NONE', #99, #206, #94 ) ;
#88 = AXIS2_PLACEMENT_3D ( 'NONE', #333, #285, #12 ) ;
#89 = MECHANICAL_DESIGN_GEOMETRIC_PRESENTATION_REPRESENTATION (  '', ( #170 ), #60 ) ;
#90 = ORIENTED_EDGE ( 'NONE', *, *, #248, .F. ) ;
#91 = UNCERTAINTY_MEASURE_WITH_UNIT (LENGTH_MEASURE( 1.000000000000000082E-05 ), #310, 'distance_accuracy_value', 'NONE');
#92 = APPLICATION_PROTOCOL_DEFINITION ( 'draft international standard', 'automotive_design', 1998, #314 ) ;
#93 = ORIENTED_EDGE ( 'NONE', *, *, #176, .T. ) ;
#94 = DIRECTION ( 'NONE',  ( 0.000000000000000000, 0.000000000000000000, -1.000000000000000000 ) ) ;
#95 = EDGE_CURVE ( 'NONE', #51, #307, #245, .T. ) ;
#96 = CIRCLE ( 'NONE', #142, 0.03125000000000000000 ) ;
#97 = CARTESIAN_POINT ( 'NONE',  ( -0.1250000000000000278, 0.5373797632095813626, 0.000000000000000000 ) ) ;
#98 = DIRECTION ( 'NONE',  ( -0.000000000000000000, -1.000000000000000000, -0.000000000000000000 ) ) ;
#99 = CARTESIAN_POINT ( 'NONE',  ( 0.000000000000000000, 0.000000000000000000, 0.000000000000000000 ) ) ;
#100 = AXIS2_PLACEMENT_3D ( 'NONE', #63, #303, #240 ) ;
#101 = PRODUCT_DEFINITION_CONTEXT ( 'detailed design', #321, 'design' ) ;
#102 = CARTESIAN_POINT ( 'NONE',  ( 0.1250000000000000000, 0.5373797632095813626, 1.530808498934191817E-17 ) ) ;
#103 = CARTESIAN_POINT ( 'NONE',  ( 0.03125000000000000000, 0.1875000000000001110, 9.567553118338697316E-18 ) ) ;
#104 = LENGTH_MEASURE_WITH_UNIT ( LENGTH_MEASURE( 0.02539999999999999897 ), #41 );
#105 = DIRECTION ( 'NONE',  ( -1.000000000000000000, 0.000000000000000000, 0.000000000000000000 ) ) ;
#106 =( GEOMETRIC_REPRESENTATION_CONTEXT ( 3 ) GLOBAL_UNCERTAINTY_ASSIGNED_CONTEXT ( ( #62 ) ) GLOBAL_UNIT_ASSIGNED_CONTEXT ( ( #300, #159, #328 ) ) REPRESENTATION_CONTEXT ( 'NONE', 'WORKASPACE' ) );
#107 = DIRECTION ( 'NONE',  ( 0.000000000000000000, 0.000000000000000000, -1.000000000000000000 ) ) ;
#108 = EDGE_LOOP ( 'NONE', ( #139, #111, #184, #117 ) ) ;
#109 = SURFACE_STYLE_USAGE ( .BOTH. , #247 ) ;
#110 = DIRECTION ( 'NONE',  ( -1.000000000000000000, 0.000000000000000000, 0.000000000000000000 ) ) ;
#111 = ORIENTED_EDGE ( 'NONE', *, *, #284, .T. ) ;
#112 = DIRECTION ( 'NONE',  ( 1.000000000000000000, 2.647884971129412640E-17, 0.000000000000000000 ) ) ;
#113 =( GEOMETRIC_REPRESENTATION_CONTEXT ( 3 ) GLOBAL_UNCERTAINTY_ASSIGNED_CONTEXT ( ( #320 ) ) GLOBAL_UNIT_ASSIGNED_CONTEXT ( ( #52, #5, #119 ) ) REPRESENTATION_CONTEXT ( 'NONE', 'WORKASPACE' ) );
#114 = DIRECTION ( 'NONE',  ( -1.000000000000000000, 0.000000000000000000, 0.000000000000000000 ) ) ;
#115 = CYLINDRICAL_SURFACE ( 'NONE', #100, 0.03125000000000000000 ) ;
#116 = DIRECTION ( 'NONE',  ( -0.000000000000000000, -1.000000000000000000, -0.000000000000000000 ) ) ;
#117 = ORIENTED_EDGE ( 'NONE', *, *, #85, .F. ) ;
#118 = FILL_AREA_STYLE_COLOUR ( '', #39 ) ;
#119 =( NAMED_UNIT ( * ) SI_UNIT ( $, .STERADIAN. ) SOLID_ANGLE_UNIT ( ) );
#120 = COLOUR_RGB ( '',1.000000000000000000, 0.000000000000000000, 0.000000000000000000 ) ;
#121 =( LENGTH_UNIT ( ) NAMED_UNIT ( * ) SI_UNIT ( $, .METRE. ) );
#122 =( LENGTH_UNIT ( ) NAMED_UNIT ( * ) SI_UNIT ( $, .METRE. ) );
#123 = VECTOR ( 'NONE', #53, 39.37007874015748143 ) ;
#124 = STYLED_ITEM ( 'NONE', ( #238 ), #198 ) ;
#125 =( NAMED_UNIT ( * ) SI_UNIT ( $, .STERADIAN. ) SOLID_ANGLE_UNIT ( ) );
#126 = CONICAL_SURFACE ( 'NONE', #280, 0.03125000000000000000, 0.2617993877991501850 ) ;
#127 = SURFACE_STYLE_USAGE ( .BOTH. , #14 ) ;
#128 = PRESENTATION_STYLE_ASSIGNMENT (( #127 ) ) ;
#129 = CIRCLE ( 'NONE', #289, 0.1250000000000000555 ) ;
#130 = DIRECTION ( 'NONE',  ( -1.000000000000000000, 0.000000000000000000, 0.000000000000000000 ) ) ;
#131 =( LENGTH_UNIT ( ) NAMED_UNIT ( * ) SI_UNIT ( $, .METRE. ) );
#132 = EDGE_LOOP ( 'NONE', ( #93, #171 ) ) ;
#133 = COLOUR_RGB ( '',0.7921568627450980005, 0.8196078431372548767, 0.9333333333333333481 ) ;
#134 = FILL_AREA_STYLE ('',( #58 ) ) ;
#135 = DIRECTION ( 'NONE',  ( -0.2588190451025214611, 0.9659258262890679791, 0.000000000000000000 ) ) ;
#136 = EDGE_CURVE ( 'NONE', #271, #48, #76, .T. ) ;
#137 = FILL_AREA_STYLE ('',( #236 ) ) ;
#138 = LINE ( 'NONE', #81, #304 ) ;
#139 = ORIENTED_EDGE ( 'NONE', *, *, #178, .T. ) ;
#140 = CARTESIAN_POINT ( 'NONE',  ( 7.582401355855259480E-33, 0.1875000000000001110, 0.000000000000000000 ) ) ;
#141 = PRESENTATION_STYLE_ASSIGNMENT (( #109 ) ) ;
#142 = AXIS2_PLACEMENT_3D ( 'NONE', #157, #214, #114 ) ;
#143 =( NAMED_UNIT ( * ) SI_UNIT ( $, .STERADIAN. ) SOLID_ANGLE_UNIT ( ) );
#144 = EDGE_LOOP ( 'NONE', ( #84, #201 ) ) ;
#145 = CARTESIAN_POINT ( 'NONE',  ( 0.000000000000000000, 0.1875000000000000278, 0.000000000000000000 ) ) ;
#146 = EDGE_LOOP ( 'NONE', ( #302, #274 ) ) ;
#147 = SURFACE_STYLE_FILL_AREA ( #282 ) ;
#148 = CARTESIAN_POINT ( 'NONE',  ( 0.1250000000000000278, 2.500000000000000000, 1.530808498934192125E-17 ) ) ;
#149 = PRODUCT_CONTEXT ( 'NONE', #314, 'mechanical' ) ;
#150 = DIRECTION ( 'NONE',  ( -2.647884971129412640E-17, 1.000000000000000000, 0.000000000000000000 ) ) ;
#151 = EDGE_CURVE ( 'NONE', #199, #271, #96, .T. ) ;
#152 = DIRECTION ( 'NONE',  ( 0.000000000000000000, -1.000000000000000000, -0.000000000000000000 ) ) ;
#153 = COLOUR_RGB ( '',1.000000000000000000, 0.000000000000000000, 0.000000000000000000 ) ;
#154 = AXIS2_PLACEMENT_3D ( 'NONE', #218, #190, #177 ) ;
#155 = EDGE_CURVE ( 'NONE', #222, #225, #344, .T. ) ;
#156 = AXIS2_PLACEMENT_3D ( 'NONE', #261, #72, #179 ) ;
#157 = CARTESIAN_POINT ( 'NONE',  ( 7.582401355855259480E-33, 0.1875000000000001110, 0.000000000000000000 ) ) ;
#158 = DIRECTION ( 'NONE',  ( -2.647884971129412640E-17, 1.000000000000000000, -0.000000000000000000 ) ) ;
#159 =( NAMED_UNIT ( * ) PLANE_ANGLE_UNIT ( ) SI_UNIT ( $, .RADIAN. ) );
#160 = ADVANCED_FACE ( 'NONE', ( #25 ), #126, .T. ) ;
#161 = CARTESIAN_POINT ( 'NONE',  ( 0.03125000000000000000, 0.1875000000000001110, 3.827021247335478772E-18 ) ) ;
#162 =( NAMED_UNIT ( * ) PLANE_ANGLE_UNIT ( ) SI_UNIT ( $, .RADIAN. ) );
#163 = CARTESIAN_POINT ( 'NONE',  ( 0.000000000000000000, 0.1875000000000000278, 0.000000000000000000 ) ) ;
#164 = MECHANICAL_DESIGN_GEOMETRIC_PRESENTATION_REPRESENTATION (  '', ( #291 ), #227 ) ;
#165 = DIRECTION ( 'NONE',  ( -1.000000000000000000, -2.647884971129412640E-17, 0.000000000000000000 ) ) ;
#166 = EDGE_LOOP ( 'NONE', ( #24, #356, #279, #308 ) ) ;
#167 = UNCERTAINTY_MEASURE_WITH_UNIT (LENGTH_MEASURE( 1.000000000000000082E-05 ), #317, 'distance_accuracy_value', 'NONE');
#168 = ORIENTED_EDGE ( 'NONE', *, *, #136, .F. ) ;
#169 = AXIS2_PLACEMENT_3D ( 'NONE', #221, #189, #112 ) ;
#170 = STYLED_ITEM ( 'NONE', ( #342 ), #17 ) ;
#171 = ORIENTED_EDGE ( 'NONE', *, *, #248, .T. ) ;
#172 = DIRECTION ( 'NONE',  ( -0.000000000000000000, -1.000000000000000000, -0.000000000000000000 ) ) ;
#173 = CYLINDRICAL_SURFACE ( 'NONE', #204, 0.03125000000000000000 ) ;
#174 = DIRECTION ( 'NONE',  ( 0.000000000000000000, 0.000000000000000000, -1.000000000000000000 ) ) ;
#175 =( GEOMETRIC_REPRESENTATION_CONTEXT ( 3 ) GLOBAL_UNCERTAINTY_ASSIGNED_CONTEXT ( ( #91 ) ) GLOBAL_UNIT_ASSIGNED_CONTEXT ( ( #310, #341, #251 ) ) REPRESENTATION_CONTEXT ( 'NONE', 'WORKASPACE' ) );
#176 = EDGE_CURVE ( 'NONE', #26, #239, #277, .T. ) ;
#177 = DIRECTION ( 'NONE',  ( -1.000000000000000000, 0.000000000000000000, 0.000000000000000000 ) ) ;
#178 = EDGE_CURVE ( 'NONE', #220, #48, #336, .T. ) ;
#179 = DIRECTION ( 'NONE',  ( -1.000000000000000000, 0.000000000000000000, 0.000000000000000000 ) ) ;
#180 = CLOSED_SHELL ( 'NONE', ( #283, #160, #212, #270, #54, #296 ) ) ;
#181 = FILL_AREA_STYLE_COLOUR ( '', #68 ) ;
#182 = PRESENTATION_LAYER_ASSIGNMENT (  '', '', ( #291 ) ) ;
#183 =( LENGTH_UNIT ( ) NAMED_UNIT ( * ) SI_UNIT ( $, .METRE. ) );
#184 = ORIENTED_EDGE ( 'NONE', *, *, #155, .F. ) ;
#185 = EDGE_CURVE ( 'NONE', #199, #220, #187, .T. ) ;
#186 = SURFACE_STYLE_USAGE ( .BOTH. , #326 ) ;
#187 = LINE ( 'NONE', #16, #79 ) ;
#188 = CARTESIAN_POINT ( 'NONE',  ( 0.000000000000000000, 0.1875000000000000278, 0.000000000000000000 ) ) ;
#189 = DIRECTION ( 'NONE',  ( 2.647884971129412640E-17, -1.000000000000000000, 0.000000000000000000 ) ) ;
#190 = DIRECTION ( 'NONE',  ( -2.647884971129412640E-17, 1.000000000000000000, -0.000000000000000000 ) ) ;
#191 = ORIENTED_EDGE ( 'NONE', *, *, #265, .T. ) ;
#192 = FACE_OUTER_BOUND ( 'NONE', #146, .T. ) ;
#193 = CLOSED_SHELL ( 'NONE', ( #64, #17, #316, #27 ) ) ;
#194 = UNCERTAINTY_MEASURE_WITH_UNIT (LENGTH_MEASURE( 1.000000000000000082E-05 ), #301, 'distance_accuracy_value', 'NONE');
#195 =( LENGTH_UNIT ( ) NAMED_UNIT ( * ) SI_UNIT ( $, .METRE. ) );
#196 = AXIS2_PLACEMENT_3D ( 'NONE', #1, #150, #165 ) ;
#197 = FACE_OUTER_BOUND ( 'NONE', #132, .T. ) ;
#198 = MANIFOLD_SOLID_BREP ( 'Revolve - Tool Body (Reduced Cut Diameter)', #180 ) ;
#199 = VERTEX_POINT ( 'NONE', #257 ) ;
#200 = CARTESIAN_POINT ( 'NONE',  ( 0.000000000000000000, 0.000000000000000000, -0.03125000000000000000 ) ) ;
#201 = ORIENTED_EDGE ( 'NONE', *, *, #71, .F. ) ;
#202 = APPLICATION_PROTOCOL_DEFINITION ( 'draft international standard', 'automotive_design', 1998, #321 ) ;
#203 = CIRCLE ( 'NONE', #87, 0.03125000000000000000 ) ;
#204 = AXIS2_PLACEMENT_3D ( 'NONE', #18, #23, #241 ) ;
#205 = LINE ( 'NONE', #255, #258 ) ;
#206 = DIRECTION ( 'NONE',  ( -0.000000000000000000, -1.000000000000000000, -0.000000000000000000 ) ) ;
#207 = VECTOR ( 'NONE', #82, 39.37007874015748143 ) ;
#208 = SURFACE_STYLE_USAGE ( .BOTH. , #209 ) ;
#209 = SURFACE_SIDE_STYLE ('',( #315 ) ) ;
#210 = SURFACE_STYLE_USAGE ( .BOTH. , #298 ) ;
#211 = AXIS2_PLACEMENT_3D ( 'NONE', #47, #268, #22 ) ;
#212 = ADVANCED_FACE ( 'NONE', ( #229 ), #45, .F. ) ;
#213 = ORIENTED_EDGE ( 'NONE', *, *, #178, .F. ) ;
#214 = DIRECTION ( 'NONE',  ( -2.647884971129412640E-17, 1.000000000000000000, -0.000000000000000000 ) ) ;
#215 =( NAMED_UNIT ( * ) SI_UNIT ( $, .STERADIAN. ) SOLID_ANGLE_UNIT ( ) );
#216 =( GEOMETRIC_REPRESENTATION_CONTEXT ( 3 ) GLOBAL_UNCERTAINTY_ASSIGNED_CONTEXT ( ( #293 ) ) GLOBAL_UNIT_ASSIGNED_CONTEXT ( ( #57, #162, #143 ) ) REPRESENTATION_CONTEXT ( 'NONE', 'WORKASPACE' ) );
#217 =( NAMED_UNIT ( * ) PLANE_ANGLE_UNIT ( ) SI_UNIT ( $, .RADIAN. ) );
#218 = CARTESIAN_POINT ( 'NONE',  ( 7.582401355855259480E-33, 0.1875000000000001110, 0.000000000000000000 ) ) ;
#219 = FACE_OUTER_BOUND ( 'NONE', #108, .T. ) ;
#220 = VERTEX_POINT ( 'NONE', #97 ) ;
#221 = CARTESIAN_POINT ( 'NONE',  ( 0.1250000000000000000, 2.500000000000000000, 0.000000000000000000 ) ) ;
#222 = VERTEX_POINT ( 'NONE', #311 ) ;
#223 = DIRECTION ( 'NONE',  ( 0.000000000000000000, 1.000000000000000000, 0.000000000000000000 ) ) ;
#224 = LENGTH_MEASURE_WITH_UNIT ( LENGTH_MEASURE( 0.02539999999999999897 ), #122 );
#225 = VERTEX_POINT ( 'NONE', #148 ) ;
#226 = CARTESIAN_POINT ( 'NONE',  ( -6.123233995736766036E-17, 2.500000000000000000, 0.000000000000000000 ) ) ;
#227 =( GEOMETRIC_REPRESENTATION_CONTEXT ( 3 ) GLOBAL_UNCERTAINTY_ASSIGNED_CONTEXT ( ( #167 ) ) GLOBAL_UNIT_ASSIGNED_CONTEXT ( ( #317, #42, #125 ) ) REPRESENTATION_CONTEXT ( 'NONE', 'WORKASPACE' ) );
#228 = AXIS2_PLACEMENT_3D ( 'NONE', #294, #158, #264 ) ;
#229 = FACE_OUTER_BOUND ( 'NONE', #144, .T. ) ;
#230 = PRODUCT_DEFINITION ( 'UNKNOWN', '', #345, #101 ) ;
#231 = PRODUCT_DEFINITION_SHAPE ( 'NONE', 'NONE',  #230 ) ;
#232 = CARTESIAN_POINT ( 'NONE',  ( 0.000000000000000000, 0.1875000000000000278, -0.03125000000000000000 ) ) ;
#233 = FILL_AREA_STYLE ('',( #181 ) ) ;
#234 = DIRECTION ( 'NONE',  ( -2.647884971129412640E-17, 1.000000000000000000, -0.000000000000000000 ) ) ;
#235 = PRESENTATION_LAYER_ASSIGNMENT (  '', '', ( #318 ) ) ;
#236 = FILL_AREA_STYLE_COLOUR ( '', #133 ) ;
#237 = EDGE_CURVE ( 'NONE', #307, #239, #205, .T. ) ;
#238 = PRESENTATION_STYLE_ASSIGNMENT (( #210 ) ) ;
#239 = VERTEX_POINT ( 'NONE', #331 ) ;
#240 = DIRECTION ( 'NONE',  ( 0.000000000000000000, 0.000000000000000000, -1.000000000000000000 ) ) ;
#241 = DIRECTION ( 'NONE',  ( 0.000000000000000000, 0.000000000000000000, -1.000000000000000000 ) ) ;
#242 = ORIENTED_EDGE ( 'NONE', *, *, #151, .T. ) ;
#243 = DIRECTION ( 'NONE',  ( -2.647884971129412640E-17, 1.000000000000000000, -0.000000000000000000 ) ) ;
#244 = MECHANICAL_DESIGN_GEOMETRIC_PRESENTATION_REPRESENTATION (  '', ( #6 ), #113 ) ;
#245 = CIRCLE ( 'NONE', #273, 0.03125000000000000000 ) ;
#246 = ORIENTED_EDGE ( 'NONE', *, *, #284, .F. ) ;
#247 = SURFACE_SIDE_STYLE ('',( #56 ) ) ;
#248 = EDGE_CURVE ( 'NONE', #239, #26, #203, .T. ) ;
#249 = ORIENTED_EDGE ( 'NONE', *, *, #136, .T. ) ;
#250 = LENGTH_MEASURE_WITH_UNIT ( LENGTH_MEASURE( 0.02539999999999999897 ), #121 );
#251 =( NAMED_UNIT ( * ) SI_UNIT ( $, .STERADIAN. ) SOLID_ANGLE_UNIT ( ) );
#252 = SURFACE_SIDE_STYLE ('',( #147 ) ) ;
#253 = LINE ( 'NONE', #200, #297 ) ;
#254 = DIRECTION ( 'NONE',  ( 0.000000000000000000, 0.000000000000000000, 1.000000000000000000 ) ) ;
#255 = CARTESIAN_POINT ( 'NONE',  ( 3.827021247335478772E-18, 0.000000000000000000, 0.03125000000000000000 ) ) ;
#256 = COLOUR_RGB ( '',1.000000000000000000, 0.000000000000000000, 0.000000000000000000 ) ;
#257 = CARTESIAN_POINT ( 'NONE',  ( -0.03125000000000000000, 0.1875000000000001110, 0.000000000000000000 ) ) ;
#258 = VECTOR ( 'NONE', #116, 39.37007874015748143 ) ;
#259 = AXIS2_PLACEMENT_3D ( 'NONE', #69, #152, #174 ) ;
#260 = FACE_OUTER_BOUND ( 'NONE', #166, .T. ) ;
#261 = CARTESIAN_POINT ( 'NONE',  ( -6.123233995736766036E-17, 2.500000000000000000, 0.000000000000000000 ) ) ;
#262 = FILL_AREA_STYLE_COLOUR ( '', #256 ) ;
#263 = MECHANICAL_DESIGN_GEOMETRIC_PRESENTATION_REPRESENTATION (  '', ( #318 ), #40 ) ;
#264 = DIRECTION ( 'NONE',  ( -1.000000000000000000, 0.000000000000000000, 0.000000000000000000 ) ) ;
#265 = EDGE_CURVE ( 'NONE', #48, #220, #70, .T. ) ;
#266 = LENGTH_MEASURE_WITH_UNIT ( LENGTH_MEASURE( 0.02539999999999999897 ), #183 );
#267 = ORIENTED_EDGE ( 'NONE', *, *, #347, .T. ) ;
#268 = DIRECTION ( 'NONE',  ( -0.000000000000000000, -1.000000000000000000, -0.000000000000000000 ) ) ;
#269 = ORIENTED_EDGE ( 'NONE', *, *, #185, .F. ) ;
#270 = ADVANCED_FACE ( 'NONE', ( #38 ), #275, .T. ) ;
#271 = VERTEX_POINT ( 'NONE', #103 ) ;
#272 = DIRECTION ( 'NONE',  ( -1.000000000000000000, 0.000000000000000000, 0.000000000000000000 ) ) ;
#273 = AXIS2_PLACEMENT_3D ( 'NONE', #188, #351, #107 ) ;
#274 = ORIENTED_EDGE ( 'NONE', *, *, #330, .F. ) ;
#275 = CONICAL_SURFACE ( 'NONE', #154, 0.03125000000000000000, 0.2617993877991501850 ) ;
#276 = DIRECTION ( 'NONE',  ( -2.647884971129412640E-17, 1.000000000000000000, -0.000000000000000000 ) ) ;
#277 = CIRCLE ( 'NONE', #211, 0.03125000000000000000 ) ;
#278 =( CONVERSION_BASED_UNIT ( 'INCH', #250 ) LENGTH_UNIT ( ) NAMED_UNIT ( #327 ) );
#279 = ORIENTED_EDGE ( 'NONE', *, *, #176, .F. ) ;
#280 = AXIS2_PLACEMENT_3D ( 'NONE', #140, #243, #130 ) ;
#281 = MECHANICAL_DESIGN_GEOMETRIC_PRESENTATION_REPRESENTATION (  '', ( #358 ), #106 ) ;
#282 = FILL_AREA_STYLE ('',( #118 ) ) ;
#283 = ADVANCED_FACE ( 'NONE', ( #219 ), #83, .T. ) ;
#284 = EDGE_CURVE ( 'NONE', #48, #225, #20, .T. ) ;
#285 = DIRECTION ( 'NONE',  ( -2.647884971129412640E-17, 1.000000000000000000, -0.000000000000000000 ) ) ;
#286 = CYLINDRICAL_SURFACE ( 'NONE', #156, 0.1250000000000000278 ) ;
#287 = FILL_AREA_STYLE ('',( #262 ) ) ;
#288 = DIMENSIONAL_EXPONENTS ( 1.000000000000000000, 0.000000000000000000, 0.000000000000000000, 0.000000000000000000, 0.000000000000000000, 0.000000000000000000, 0.000000000000000000 ) ;
#289 = AXIS2_PLACEMENT_3D ( 'NONE', #226, #313, #11 ) ;
#290 = LENGTH_MEASURE_WITH_UNIT ( LENGTH_MEASURE( 0.02539999999999999897 ), #131 );
#291 = STYLED_ITEM ( 'NONE', ( #346 ), #27 ) ;
#292 = PRODUCT ( '84044', '84044', '', ( #149 ) ) ;
#293 = UNCERTAINTY_MEASURE_WITH_UNIT (LENGTH_MEASURE( 1.000000000000000082E-05 ), #57, 'distance_accuracy_value', 'NONE');
#294 = CARTESIAN_POINT ( 'NONE',  ( -6.123233995736766036E-17, 2.500000000000000000, 0.000000000000000000 ) ) ;
#295 =( LENGTH_UNIT ( ) NAMED_UNIT ( * ) SI_UNIT ( $, .METRE. ) );
#296 = ADVANCED_FACE ( 'NONE', ( #332 ), #3, .F. ) ;
#297 = VECTOR ( 'NONE', #98, 39.37007874015748143 ) ;
#298 = SURFACE_SIDE_STYLE ('',( #350 ) ) ;
#299 = CARTESIAN_POINT ( 'NONE',  ( -6.123233995736766036E-17, 2.500000000000000000, 0.000000000000000000 ) ) ;
#300 =( CONVERSION_BASED_UNIT ( 'INCH', #290 ) LENGTH_UNIT ( ) NAMED_UNIT ( #50 ) );
#301 =( CONVERSION_BASED_UNIT ( 'INCH', #32 ) LENGTH_UNIT ( ) NAMED_UNIT ( #355 ) );
#302 = ORIENTED_EDGE ( 'NONE', *, *, #95, .F. ) ;
#303 = DIRECTION ( 'NONE',  ( -0.000000000000000000, -1.000000000000000000, -0.000000000000000000 ) ) ;
#304 = VECTOR ( 'NONE', #234, 39.37007874015748143 ) ;
#305 = PRESENTATION_LAYER_ASSIGNMENT (  '', '', ( #6 ) ) ;
#306 = SURFACE_STYLE_USAGE ( .BOTH. , #252 ) ;
#307 = VERTEX_POINT ( 'NONE', #86 ) ;
#308 = ORIENTED_EDGE ( 'NONE', *, *, #334, .F. ) ;
#309 = MECHANICAL_DESIGN_GEOMETRIC_PRESENTATION_REPRESENTATION (  '', ( #124 ), #216 ) ;
#310 =( CONVERSION_BASED_UNIT ( 'INCH', #224 ) LENGTH_UNIT ( ) NAMED_UNIT ( #46 ) );
#311 = CARTESIAN_POINT ( 'NONE',  ( -0.1250000000000001388, 2.500000000000000000, 0.000000000000000000 ) ) ;
#312 = ORIENTED_EDGE ( 'NONE', *, *, #237, .F. ) ;
#313 = DIRECTION ( 'NONE',  ( -2.647884971129412640E-17, 1.000000000000000000, -0.000000000000000000 ) ) ;
#314 = APPLICATION_CONTEXT ( 'automotive_design' ) ;
#315 = SURFACE_STYLE_FILL_AREA ( #287 ) ;
#316 = ADVANCED_FACE ( 'NONE', ( #28 ), #115, .T. ) ;
#317 =( CONVERSION_BASED_UNIT ( 'INCH', #104 ) LENGTH_UNIT ( ) NAMED_UNIT ( #288 ) );
#318 = STYLED_ITEM ( 'NONE', ( #141 ), #316 ) ;
#319 = MANIFOLD_SOLID_BREP ( 'Revolve - Cutting Edge', #193 ) ;
#320 = UNCERTAINTY_MEASURE_WITH_UNIT (LENGTH_MEASURE( 1.000000000000000082E-05 ), #52, 'distance_accuracy_value', 'NONE');
#321 = APPLICATION_CONTEXT ( 'automotive_design' ) ;
#322 = FACE_OUTER_BOUND ( 'NONE', #325, .T. ) ;
#323 = CARTESIAN_POINT ( 'NONE',  ( -9.264413667049672299E-18, 0.5373797632095813626, 0.000000000000000000 ) ) ;
#324 = DIMENSIONAL_EXPONENTS ( 1.000000000000000000, 0.000000000000000000, 0.000000000000000000, 0.000000000000000000, 0.000000000000000000, 0.000000000000000000, 0.000000000000000000 ) ;
#325 = EDGE_LOOP ( 'NONE', ( #246, #191, #338, #353 ) ) ;
#326 = SURFACE_SIDE_STYLE ('',( #354 ) ) ;
#327 = DIMENSIONAL_EXPONENTS ( 1.000000000000000000, 0.000000000000000000, 0.000000000000000000, 0.000000000000000000, 0.000000000000000000, 0.000000000000000000, 0.000000000000000000 ) ;
#328 =( NAMED_UNIT ( * ) SI_UNIT ( $, .STERADIAN. ) SOLID_ANGLE_UNIT ( ) );
#329 = LENGTH_MEASURE_WITH_UNIT ( LENGTH_MEASURE( 0.02539999999999999897 ), #295 );
#330 = EDGE_CURVE ( 'NONE', #307, #51, #43, .T. ) ;
#331 = CARTESIAN_POINT ( 'NONE',  ( 3.827021247335478772E-18, 0.000000000000000000, 0.03125000000000000000 ) ) ;
#332 = FACE_OUTER_BOUND ( 'NONE', #36, .T. ) ;
#333 = CARTESIAN_POINT ( 'NONE',  ( -9.264413667049672299E-18, 0.5373797632095813626, 0.000000000000000000 ) ) ;
#334 = EDGE_CURVE ( 'NONE', #51, #26, #253, .T. ) ;
#335 = ORIENTED_EDGE ( 'NONE', *, *, #330, .T. ) ;
#336 = CIRCLE ( 'NONE', #29, 0.1250000000000000278 ) ;
#337 = PRODUCT_RELATED_PRODUCT_CATEGORY ( 'part', '', ( #292 ) ) ;
#338 = ORIENTED_EDGE ( 'NONE', *, *, #85, .T. ) ;
#339 = PLANE ( 'NONE',  #259 ) ;
#340 = EDGE_LOOP ( 'NONE', ( #168, #55, #4, #19 ) ) ;
#341 =( NAMED_UNIT ( * ) PLANE_ANGLE_UNIT ( ) SI_UNIT ( $, .RADIAN. ) );
#342 = PRESENTATION_STYLE_ASSIGNMENT (( #306 ) ) ;
#343 = DIRECTION ( 'NONE',  ( 0.000000000000000000, 0.000000000000000000, -1.000000000000000000 ) ) ;
#344 = CIRCLE ( 'NONE', #228, 0.1250000000000000555 ) ;
#345 = PRODUCT_DEFINITION_FORMATION_WITH_SPECIFIED_SOURCE ( 'ANY', '', #292, .NOT_KNOWN. ) ;
#346 = PRESENTATION_STYLE_ASSIGNMENT (( #208 ) ) ;
#347 = EDGE_CURVE ( 'NONE', #225, #222, #129, .T. ) ;
#348 = FILL_AREA_STYLE_COLOUR ( '', #153 ) ;
#349 = DIMENSIONAL_EXPONENTS ( 1.000000000000000000, 0.000000000000000000, 0.000000000000000000, 0.000000000000000000, 0.000000000000000000, 0.000000000000000000, 0.000000000000000000 ) ;
#350 = SURFACE_STYLE_FILL_AREA ( #233 ) ;
#351 = DIRECTION ( 'NONE',  ( -0.000000000000000000, -1.000000000000000000, -0.000000000000000000 ) ) ;
#352 = ADVANCED_BREP_SHAPE_REPRESENTATION ( '84044', ( #319, #198, #75 ), #175 ) ;
#353 = ORIENTED_EDGE ( 'NONE', *, *, #347, .F. ) ;
#354 = SURFACE_STYLE_FILL_AREA ( #137 ) ;
#355 = DIMENSIONAL_EXPONENTS ( 1.000000000000000000, 0.000000000000000000, 0.000000000000000000, 0.000000000000000000, 0.000000000000000000, 0.000000000000000000, 0.000000000000000000 ) ;
#356 = ORIENTED_EDGE ( 'NONE', *, *, #237, .T. ) ;
#357 = DIRECTION ( 'NONE',  ( -2.647884971129412640E-17, 1.000000000000000000, -0.000000000000000000 ) ) ;
#358 = STYLED_ITEM ( 'NONE', ( #128 ), #64 ) ;
#359 = EDGE_LOOP ( 'NONE', ( #312, #335, #65, #90 ) ) ;
ENDSEC;
END-ISO-10303-21;
