ISO-10303-21;
HEADER;
FILE_DESCRIPTION (( 'STEP AP214' ),
    '1' );
FILE_NAME ('Micro_EMH-281-06X.STEP',
    '2022-03-15T14:36:40',
    ( '' ),
    ( '' ),
    'SwSTEP 2.0',
    'SolidWorks 2022',
    '' );
FILE_SCHEMA (( 'AUTOMOTIVE_DESIGN' ));
ENDSEC;

DATA;
#1 = ORIENTED_EDGE ( 'NONE', *, *, #128, .F. ) ;
#2 = AXIS2_PLACEMENT_3D ( 'NONE', #131, #214, #194 ) ;
#3 =( NAMED_UNIT ( * ) SI_UNIT ( $, .STERADIAN. ) SOLID_ANGLE_UNIT ( ) );
#4 = EDGE_LOOP ( 'NONE', ( #104, #78, #64, #1 ) ) ;
#5 = VERTEX_POINT ( 'NONE', #42 ) ;
#6 = DIRECTION ( 'NONE',  ( 0.1736481776669312194, 0.000000000000000000, 0.9848077530122077983 ) ) ;
#7 = CARTESIAN_POINT ( 'NONE',  ( 0.1405093500000000883, 0.000000000000000000, 0.7500000000000001110 ) ) ;
#8 = EDGE_CURVE ( 'NONE', #5, #75, #174, .T. ) ;
#9 = VERTEX_POINT ( 'NONE', #236 ) ;
#10 = CIRCLE ( 'NONE', #255, 0.1405093499999999773 ) ;
#11 = LINE ( 'NONE', #88, #54 ) ;
#12 = DIRECTION ( 'NONE',  ( -0.7071067811865410224, 0.000000000000000000, -0.7071067811865539010 ) ) ;
#13 = ORIENTED_EDGE ( 'NONE', *, *, #269, .F. ) ;
#14 = CARTESIAN_POINT ( 'NONE',  ( 2.107302722179589238E-33, 0.000000000000000000, 1.720743257277751542E-17 ) ) ;
#15 = FACE_OUTER_BOUND ( 'NONE', #283, .T. ) ;
#16 = COLOUR_RGB ( '',0.7921568627450980005, 0.8196078431372548767, 0.9333333333333333481 ) ;
#17 = CIRCLE ( 'NONE', #44, 0.1562500000000000000 ) ;
#18 = CARTESIAN_POINT ( 'NONE',  ( 0.000000000000000000, 0.000000000000000000, 2.500000000000000000 ) ) ;
#19 = DIRECTION ( 'NONE',  ( 1.000000000000000000, 0.000000000000000000, 0.000000000000000000 ) ) ;
#20 =( CONVERSION_BASED_UNIT ( 'INCH', #23 ) LENGTH_UNIT ( ) NAMED_UNIT ( #33 ) );
#21 = PRODUCT_RELATED_PRODUCT_CATEGORY ( 'part', '', ( #87 ) ) ;
#22 = CIRCLE ( 'NONE', #261, 0.1405093499999999773 ) ;
#23 = LENGTH_MEASURE_WITH_UNIT ( LENGTH_MEASURE( 0.02539999999999999897 ), #250 );
#24 = PRESENTATION_STYLE_ASSIGNMENT (( #229 ) ) ;
#25 = ORIENTED_EDGE ( 'NONE', *, *, #57, .T. ) ;
#26 = FILL_AREA_STYLE ('',( #232 ) ) ;
#27 = EDGE_LOOP ( 'NONE', ( #102, #111 ) ) ;
#28 = VERTEX_POINT ( 'NONE', #35 ) ;
#29 = CONICAL_SURFACE ( 'NONE', #73, 0.1412499999999994871, 0.7853981633974391752 ) ;
#30 = UNCERTAINTY_MEASURE_WITH_UNIT (LENGTH_MEASURE( 1.000000000000000082E-05 ), #20, 'distance_accuracy_value', 'NONE');
#31 = ORIENTED_EDGE ( 'NONE', *, *, #177, .T. ) ;
#32 = DIRECTION ( 'NONE',  ( -1.224646799147353207E-16, -0.000000000000000000, -1.000000000000000000 ) ) ;
#33 = DIMENSIONAL_EXPONENTS ( 1.000000000000000000, 0.000000000000000000, 0.000000000000000000, 0.000000000000000000, 0.000000000000000000, 0.000000000000000000, 0.000000000000000000 ) ;
#34 = PRODUCT_DEFINITION_CONTEXT ( 'detailed design', #171, 'design' ) ;
#35 = CARTESIAN_POINT ( 'NONE',  ( -0.1405093500000000051, 0.000000000000000000, 3.441486514555503084E-17 ) ) ;
#36 = VECTOR ( 'NONE', #183, 39.37007874015748143 ) ;
#37 = AXIS2_PLACEMENT_3D ( 'NONE', #114, #246, #219 ) ;
#38 = AXIS2_PLACEMENT_3D ( 'NONE', #247, #228, #47 ) ;
#39 = EDGE_LOOP ( 'NONE', ( #63, #191 ) ) ;
#40 = EDGE_CURVE ( 'NONE', #123, #75, #59, .T. ) ;
#41 = LINE ( 'NONE', #196, #188 ) ;
#42 = CARTESIAN_POINT ( 'NONE',  ( 0.1412499999999994871, 1.821662113731684786E-17, 2.500000000000000000 ) ) ;
#43 = CARTESIAN_POINT ( 'NONE',  ( -0.1562500000000000000, 0.000000000000000000, 2.484999999999999432 ) ) ;
#44 = AXIS2_PLACEMENT_3D ( 'NONE', #112, #32, #202 ) ;
#45 = ORIENTED_EDGE ( 'NONE', *, *, #108, .T. ) ;
#46 = CYLINDRICAL_SURFACE ( 'NONE', #155, 0.1562500000000000000 ) ;
#47 = DIRECTION ( 'NONE',  ( -1.000000000000000000, 0.000000000000000000, 1.224646799147353207E-16 ) ) ;
#48 = CONICAL_SURFACE ( 'NONE', #66, 0.1412499999999994871, 0.7853981633974391752 ) ;
#49 = DIRECTION ( 'NONE',  ( -1.224646799147353207E-16, -0.000000000000000000, -1.000000000000000000 ) ) ;
#50 = CYLINDRICAL_SURFACE ( 'NONE', #259, 0.1405093500000000051 ) ;
#51 = PRESENTATION_STYLE_ASSIGNMENT (( #164 ) ) ;
#52 = SURFACE_STYLE_FILL_AREA ( #26 ) ;
#53 = ORIENTED_EDGE ( 'NONE', *, *, #205, .T. ) ;
#54 = VECTOR ( 'NONE', #6, 39.37007874015748143 ) ;
#55 = SURFACE_STYLE_FILL_AREA ( #273 ) ;
#56 = APPLICATION_PROTOCOL_DEFINITION ( 'draft international standard', 'automotive_design', 1998, #139 ) ;
#57 = EDGE_CURVE ( 'NONE', #134, #170, #11, .T. ) ;
#58 = ORIENTED_EDGE ( 'NONE', *, *, #136, .T. ) ;
#59 = CIRCLE ( 'NONE', #2, 0.1562500000000000000 ) ;
#60 = CIRCLE ( 'NONE', #291, 0.1405093500000000051 ) ;
#61 = DIRECTION ( 'NONE',  ( 1.224646799147353207E-16, 0.000000000000000000, 1.000000000000000000 ) ) ;
#62 = ADVANCED_FACE ( 'NONE', ( #215 ), #29, .T. ) ;
#63 = ORIENTED_EDGE ( 'NONE', *, *, #199, .T. ) ;
#64 = ORIENTED_EDGE ( 'NONE', *, *, #40, .F. ) ;
#65 = ORIENTED_EDGE ( 'NONE', *, *, #108, .F. ) ;
#66 = AXIS2_PLACEMENT_3D ( 'NONE', #67, #289, #266 ) ;
#67 = CARTESIAN_POINT ( 'NONE',  ( 0.000000000000000000, 0.000000000000000000, 2.500000000000000000 ) ) ;
#68 = FACE_OUTER_BOUND ( 'NONE', #253, .T. ) ;
#69 = STYLED_ITEM ( 'NONE', ( #51 ), #239 ) ;
#70 = FACE_OUTER_BOUND ( 'NONE', #165, .T. ) ;
#71 = DIRECTION ( 'NONE',  ( -1.000000000000000000, 0.000000000000000000, 1.224646799147353207E-16 ) ) ;
#72 = PRODUCT_DEFINITION ( 'UNKNOWN', '', #97, #34 ) ;
#73 = AXIS2_PLACEMENT_3D ( 'NONE', #172, #113, #193 ) ;
#74 = DIRECTION ( 'NONE',  ( 1.000000000000000000, 0.000000000000000000, 0.000000000000000000 ) ) ;
#75 = VERTEX_POINT ( 'NONE', #110 ) ;
#76 =( GEOMETRIC_REPRESENTATION_CONTEXT ( 3 ) GLOBAL_UNCERTAINTY_ASSIGNED_CONTEXT ( ( #83 ) ) GLOBAL_UNIT_ASSIGNED_CONTEXT ( ( #106, #280, #82 ) ) REPRESENTATION_CONTEXT ( 'NONE', 'WORKASPACE' ) );
#77 = CARTESIAN_POINT ( 'NONE',  ( -0.1405093500000000051, 0.000000000000000000, 1.720743257277751542E-17 ) ) ;
#78 = ORIENTED_EDGE ( 'NONE', *, *, #8, .T. ) ;
#79 = DIRECTION ( 'NONE',  ( 0.000000000000000000, 0.000000000000000000, 1.000000000000000000 ) ) ;
#80 = DIRECTION ( 'NONE',  ( 1.000000000000000000, 0.000000000000000000, 0.000000000000000000 ) ) ;
#81 = EDGE_CURVE ( 'NONE', #134, #190, #84, .T. ) ;
#82 =( NAMED_UNIT ( * ) SI_UNIT ( $, .STERADIAN. ) SOLID_ANGLE_UNIT ( ) );
#83 = UNCERTAINTY_MEASURE_WITH_UNIT (LENGTH_MEASURE( 1.000000000000000082E-05 ), #106, 'distance_accuracy_value', 'NONE');
#84 = LINE ( 'NONE', #173, #224 ) ;
#85 = CARTESIAN_POINT ( 'NONE',  ( -0.1405093499999998941, 1.720743257277751542E-17, 0.7500000000000001110 ) ) ;
#86 = CONICAL_SURFACE ( 'NONE', #244, 0.1405093499999999773, 0.1745329251994337250 ) ;
#87 = PRODUCT ( 'Micro_EMH-281-06X', 'Micro_EMH-281-06X', '', ( #125 ) ) ;
#88 = CARTESIAN_POINT ( 'NONE',  ( 0.1405093500000000883, 0.000000000000000000, 0.7500000000000001110 ) ) ;
#89 = LINE ( 'NONE', #243, #181 ) ;
#90 = EDGE_LOOP ( 'NONE', ( #274, #143, #264, #65 ) ) ;
#91 = DIRECTION ( 'NONE',  ( -1.000000000000000000, 0.000000000000000000, 1.224646799147353207E-16 ) ) ;
#92 = AXIS2_PLACEMENT_3D ( 'NONE', #265, #238, #133 ) ;
#93 = VECTOR ( 'NONE', #267, 39.37007874015748854 ) ;
#94 = DIRECTION ( 'NONE',  ( -1.224646799147353207E-16, -0.000000000000000000, -1.000000000000000000 ) ) ;
#95 = SURFACE_SIDE_STYLE ('',( #55 ) ) ;
#96 = DIRECTION ( 'NONE',  ( -1.224646799147353207E-16, -0.000000000000000000, -1.000000000000000000 ) ) ;
#97 = PRODUCT_DEFINITION_FORMATION_WITH_SPECIFIED_SOURCE ( 'ANY', '', #87, .NOT_KNOWN. ) ;
#98 = DIRECTION ( 'NONE',  ( 1.000000000000000000, 0.000000000000000000, 0.000000000000000000 ) ) ;
#99 = ADVANCED_FACE ( 'NONE', ( #154 ), #288, .T. ) ;
#100 = DIRECTION ( 'NONE',  ( 0.000000000000000000, 0.000000000000000000, 1.000000000000000000 ) ) ;
#101 = DIRECTION ( 'NONE',  ( 0.000000000000000000, 0.000000000000000000, -1.000000000000000000 ) ) ;
#102 = ORIENTED_EDGE ( 'NONE', *, *, #153, .T. ) ;
#103 = MECHANICAL_DESIGN_GEOMETRIC_PRESENTATION_REPRESENTATION (  '', ( #292 ), #76 ) ;
#104 = ORIENTED_EDGE ( 'NONE', *, *, #258, .F. ) ;
#105 = ORIENTED_EDGE ( 'NONE', *, *, #115, .T. ) ;
#106 =( CONVERSION_BASED_UNIT ( 'INCH', #279 ) LENGTH_UNIT ( ) NAMED_UNIT ( #130 ) );
#107 = ADVANCED_BREP_SHAPE_REPRESENTATION ( 'Micro_EMH-281-06X', ( #239, #218 ), #161 ) ;
#108 = EDGE_CURVE ( 'NONE', #126, #28, #270, .T. ) ;
#109 = ORIENTED_EDGE ( 'NONE', *, *, #297, .T. ) ;
#110 = CARTESIAN_POINT ( 'NONE',  ( 0.1562500000000000000, 1.913510623667739463E-17, 2.484999999999999432 ) ) ;
#111 = ORIENTED_EDGE ( 'NONE', *, *, #258, .T. ) ;
#112 = CARTESIAN_POINT ( 'NONE',  ( 1.027808905402827143E-16, 0.000000000000000000, 0.8392696621739652585 ) ) ;
#113 = DIRECTION ( 'NONE',  ( 0.000000000000000000, 0.000000000000000000, -1.000000000000000000 ) ) ;
#114 = CARTESIAN_POINT ( 'NONE',  ( 0.000000000000000000, 0.000000000000000000, 2.500000000000000000 ) ) ;
#115 = EDGE_CURVE ( 'NONE', #134, #126, #10, .T. ) ;
#116 = AXIS2_PLACEMENT_3D ( 'NONE', #206, #101, #268 ) ;
#117 = CLOSED_SHELL ( 'NONE', ( #235, #226, #62, #182, #282, #99, #163, #260, #277, #245 ) ) ;
#118 = MECHANICAL_DESIGN_GEOMETRIC_PRESENTATION_REPRESENTATION (  '', ( #69 ), #150 ) ;
#119 = DIRECTION ( 'NONE',  ( -0.000000000000000000, -0.000000000000000000, -1.000000000000000000 ) ) ;
#120 = CARTESIAN_POINT ( 'NONE',  ( 0.000000000000000000, 0.000000000000000000, 0.000000000000000000 ) ) ;
#121 = CARTESIAN_POINT ( 'NONE',  ( 9.184850993605150903E-17, 0.000000000000000000, 0.7500000000000001110 ) ) ;
#122 = CYLINDRICAL_SURFACE ( 'NONE', #38, 0.1405093500000000051 ) ;
#123 = VERTEX_POINT ( 'NONE', #43 ) ;
#124 = PLANE ( 'NONE',  #127 ) ;
#125 = PRODUCT_CONTEXT ( 'NONE', #139, 'mechanical' ) ;
#126 = VERTEX_POINT ( 'NONE', #290 ) ;
#127 = AXIS2_PLACEMENT_3D ( 'NONE', #251, #100, #184 ) ;
#128 = EDGE_CURVE ( 'NONE', #9, #123, #89, .T. ) ;
#129 = DIRECTION ( 'NONE',  ( -1.000000000000000000, 0.000000000000000000, 1.224646799147353207E-16 ) ) ;
#130 = DIMENSIONAL_EXPONENTS ( 1.000000000000000000, 0.000000000000000000, 0.000000000000000000, 0.000000000000000000, 0.000000000000000000, 0.000000000000000000, 0.000000000000000000 ) ;
#131 = CARTESIAN_POINT ( 'NONE',  ( 0.000000000000000000, 0.000000000000000000, 2.484999999999999432 ) ) ;
#132 = CIRCLE ( 'NONE', #116, 0.1562500000000000000 ) ;
#133 = DIRECTION ( 'NONE',  ( 1.000000000000000000, 0.000000000000000000, -0.000000000000000000 ) ) ;
#134 = VERTEX_POINT ( 'NONE', #7 ) ;
#135 = DIRECTION ( 'NONE',  ( -1.224646799147353207E-16, -0.000000000000000000, -1.000000000000000000 ) ) ;
#136 = EDGE_CURVE ( 'NONE', #170, #147, #17, .T. ) ;
#137 = CARTESIAN_POINT ( 'NONE',  ( 0.000000000000000000, 0.000000000000000000, 2.500000000000000000 ) ) ;
#138 = CARTESIAN_POINT ( 'NONE',  ( 0.1562500000000001110, 1.913510623667740388E-17, 0.8392696621739652585 ) ) ;
#139 = APPLICATION_CONTEXT ( 'automotive_design' ) ;
#140 = FACE_OUTER_BOUND ( 'NONE', #146, .T. ) ;
#141 = CARTESIAN_POINT ( 'NONE',  ( 0.1562500000000000000, 1.913510623667739463E-17, 2.500000000000000000 ) ) ;
#142 = FILL_AREA_STYLE_COLOUR ( '', #256 ) ;
#143 = ORIENTED_EDGE ( 'NONE', *, *, #81, .T. ) ;
#144 = AXIS2_PLACEMENT_3D ( 'NONE', #14, #200, #91 ) ;
#145 = EDGE_LOOP ( 'NONE', ( #151, #207, #25, #58 ) ) ;
#146 = EDGE_LOOP ( 'NONE', ( #169, #230, #31, #220 ) ) ;
#147 = VERTEX_POINT ( 'NONE', #222 ) ;
#148 = DIMENSIONAL_EXPONENTS ( 1.000000000000000000, 0.000000000000000000, 0.000000000000000000, 0.000000000000000000, 0.000000000000000000, 0.000000000000000000, 0.000000000000000000 ) ;
#149 = EDGE_CURVE ( 'NONE', #190, #28, #60, .T. ) ;
#150 =( GEOMETRIC_REPRESENTATION_CONTEXT ( 3 ) GLOBAL_UNCERTAINTY_ASSIGNED_CONTEXT ( ( #30 ) ) GLOBAL_UNIT_ASSIGNED_CONTEXT ( ( #20, #227, #166 ) ) REPRESENTATION_CONTEXT ( 'NONE', 'WORKASPACE' ) );
#151 = ORIENTED_EDGE ( 'NONE', *, *, #205, .F. ) ;
#152 = FACE_OUTER_BOUND ( 'NONE', #233, .T. ) ;
#153 = EDGE_CURVE ( 'NONE', #9, #5, #167, .T. ) ;
#154 = FACE_OUTER_BOUND ( 'NONE', #27, .T. ) ;
#155 = AXIS2_PLACEMENT_3D ( 'NONE', #137, #192, #221 ) ;
#156 = CARTESIAN_POINT ( 'NONE',  ( 9.184850993605150903E-17, 0.000000000000000000, 0.7500000000000001110 ) ) ;
#157 = DIRECTION ( 'NONE',  ( -1.000000000000000000, 0.000000000000000000, 0.000000000000000000 ) ) ;
#158 = DIRECTION ( 'NONE',  ( 1.000000000000000000, 0.000000000000000000, 0.000000000000000000 ) ) ;
#159 = SURFACE_SIDE_STYLE ('',( #52 ) ) ;
#160 = VECTOR ( 'NONE', #286, 39.37007874015748854 ) ;
#161 =( GEOMETRIC_REPRESENTATION_CONTEXT ( 3 ) GLOBAL_UNCERTAINTY_ASSIGNED_CONTEXT ( ( #189 ) ) GLOBAL_UNIT_ASSIGNED_CONTEXT ( ( #210, #162, #3 ) ) REPRESENTATION_CONTEXT ( 'NONE', 'WORKASPACE' ) );
#162 =( NAMED_UNIT ( * ) PLANE_ANGLE_UNIT ( ) SI_UNIT ( $, .RADIAN. ) );
#163 = ADVANCED_FACE ( 'NONE', ( #152 ), #48, .T. ) ;
#164 = SURFACE_STYLE_USAGE ( .BOTH. , #95 ) ;
#165 = EDGE_LOOP ( 'NONE', ( #284, #105, #45, #216 ) ) ;
#166 =( NAMED_UNIT ( * ) SI_UNIT ( $, .STERADIAN. ) SOLID_ANGLE_UNIT ( ) );
#167 = CIRCLE ( 'NONE', #37, 0.1412499999999994871 ) ;
#168 = ORIENTED_EDGE ( 'NONE', *, *, #287, .F. ) ;
#169 = ORIENTED_EDGE ( 'NONE', *, *, #297, .F. ) ;
#170 = VERTEX_POINT ( 'NONE', #138 ) ;
#171 = APPLICATION_CONTEXT ( 'automotive_design' ) ;
#172 = CARTESIAN_POINT ( 'NONE',  ( 0.000000000000000000, 0.000000000000000000, 2.500000000000000000 ) ) ;
#173 = CARTESIAN_POINT ( 'NONE',  ( 0.1405093500000000051, 1.720743257277751542E-17, -1.720743257277751542E-17 ) ) ;
#174 = LINE ( 'NONE', #217, #160 ) ;
#175 = DIRECTION ( 'NONE',  ( -1.000000000000000000, 0.000000000000000000, 0.000000000000000000 ) ) ;
#176 = ORIENTED_EDGE ( 'NONE', *, *, #287, .T. ) ;
#177 = EDGE_CURVE ( 'NONE', #123, #147, #41, .T. ) ;
#178 = LINE ( 'NONE', #85, #93 ) ;
#179 = CIRCLE ( 'NONE', #249, 0.1562500000000000000 ) ;
#180 = DIRECTION ( 'NONE',  ( 1.224646799147353207E-16, 0.000000000000000000, 1.000000000000000000 ) ) ;
#181 = VECTOR ( 'NONE', #12, 39.37007874015748854 ) ;
#182 = ADVANCED_FACE ( 'NONE', ( #68 ), #46, .T. ) ;
#183 = DIRECTION ( 'NONE',  ( -0.000000000000000000, -0.000000000000000000, -1.000000000000000000 ) ) ;
#184 = DIRECTION ( 'NONE',  ( 1.000000000000000000, 0.000000000000000000, -0.000000000000000000 ) ) ;
#185 = SHAPE_DEFINITION_REPRESENTATION ( #281, #107 ) ;
#186 = PRESENTATION_LAYER_ASSIGNMENT (  '', '', ( #69 ) ) ;
#187 =( LENGTH_UNIT ( ) NAMED_UNIT ( * ) SI_UNIT ( $, .METRE. ) );
#188 = VECTOR ( 'NONE', #241, 39.37007874015748143 ) ;
#189 = UNCERTAINTY_MEASURE_WITH_UNIT (LENGTH_MEASURE( 1.000000000000000082E-05 ), #210, 'distance_accuracy_value', 'NONE');
#190 = VERTEX_POINT ( 'NONE', #212 ) ;
#191 = ORIENTED_EDGE ( 'NONE', *, *, #149, .T. ) ;
#192 = DIRECTION ( 'NONE',  ( -0.000000000000000000, -0.000000000000000000, -1.000000000000000000 ) ) ;
#193 = DIRECTION ( 'NONE',  ( -1.000000000000000000, 0.000000000000000000, 0.000000000000000000 ) ) ;
#194 = DIRECTION ( 'NONE',  ( 1.000000000000000000, 0.000000000000000000, 0.000000000000000000 ) ) ;
#195 = VECTOR ( 'NONE', #94, 39.37007874015748143 ) ;
#196 = CARTESIAN_POINT ( 'NONE',  ( -0.1562500000000000000, 0.000000000000000000, 2.500000000000000000 ) ) ;
#197 = DIRECTION ( 'NONE',  ( -1.224646799147353207E-16, -0.000000000000000000, -1.000000000000000000 ) ) ;
#198 = DIRECTION ( 'NONE',  ( -1.224646799147353207E-16, -0.000000000000000000, -1.000000000000000000 ) ) ;
#199 = EDGE_CURVE ( 'NONE', #28, #190, #213, .T. ) ;
#200 = DIRECTION ( 'NONE',  ( -1.224646799147353207E-16, -0.000000000000000000, -1.000000000000000000 ) ) ;
#201 = PRESENTATION_LAYER_ASSIGNMENT (  '', '', ( #292 ) ) ;
#202 = DIRECTION ( 'NONE',  ( 1.000000000000000000, 0.000000000000000000, 0.000000000000000000 ) ) ;
#203 = DIRECTION ( 'NONE',  ( -1.000000000000000000, 0.000000000000000000, 0.000000000000000000 ) ) ;
#204 = FACE_OUTER_BOUND ( 'NONE', #39, .T. ) ;
#205 = EDGE_CURVE ( 'NONE', #126, #147, #178, .T. ) ;
#206 = CARTESIAN_POINT ( 'NONE',  ( 0.000000000000000000, 0.000000000000000000, 2.484999999999999432 ) ) ;
#207 = ORIENTED_EDGE ( 'NONE', *, *, #115, .F. ) ;
#208 = DIRECTION ( 'NONE',  ( 0.000000000000000000, 0.000000000000000000, 1.000000000000000000 ) ) ;
#209 = ORIENTED_EDGE ( 'NONE', *, *, #8, .F. ) ;
#210 =( CONVERSION_BASED_UNIT ( 'INCH', #299 ) LENGTH_UNIT ( ) NAMED_UNIT ( #148 ) );
#211 = ORIENTED_EDGE ( 'NONE', *, *, #128, .T. ) ;
#212 = CARTESIAN_POINT ( 'NONE',  ( 0.1405093500000000051, 1.720743257277751542E-17, 0.000000000000000000 ) ) ;
#213 = CIRCLE ( 'NONE', #144, 0.1405093500000000051 ) ;
#214 = DIRECTION ( 'NONE',  ( 0.000000000000000000, 0.000000000000000000, -1.000000000000000000 ) ) ;
#215 = FACE_OUTER_BOUND ( 'NONE', #4, .T. ) ;
#216 = ORIENTED_EDGE ( 'NONE', *, *, #149, .F. ) ;
#217 = CARTESIAN_POINT ( 'NONE',  ( 0.1412499999999994871, 1.729813603795630110E-17, 2.500000000000000000 ) ) ;
#218 = AXIS2_PLACEMENT_3D ( 'NONE', #257, #79, #80 ) ;
#219 = DIRECTION ( 'NONE',  ( 1.000000000000000000, 0.000000000000000000, 0.000000000000000000 ) ) ;
#220 = ORIENTED_EDGE ( 'NONE', *, *, #136, .F. ) ;
#221 = DIRECTION ( 'NONE',  ( -1.000000000000000000, 0.000000000000000000, 0.000000000000000000 ) ) ;
#222 = CARTESIAN_POINT ( 'NONE',  ( -0.1562499999999999167, 0.000000000000000000, 0.8392696621739652585 ) ) ;
#223 = CONICAL_SURFACE ( 'NONE', #275, 0.1405093499999999773, 0.1745329251994337250 ) ;
#224 = VECTOR ( 'NONE', #197, 39.37007874015748143 ) ;
#225 = CYLINDRICAL_SURFACE ( 'NONE', #276, 0.1562500000000000000 ) ;
#226 = ADVANCED_FACE ( 'NONE', ( #15 ), #86, .T. ) ;
#227 =( NAMED_UNIT ( * ) PLANE_ANGLE_UNIT ( ) SI_UNIT ( $, .RADIAN. ) );
#228 = DIRECTION ( 'NONE',  ( -1.224646799147353207E-16, -0.000000000000000000, -1.000000000000000000 ) ) ;
#229 = SURFACE_STYLE_USAGE ( .BOTH. , #159 ) ;
#230 = ORIENTED_EDGE ( 'NONE', *, *, #269, .T. ) ;
#231 = APPLICATION_PROTOCOL_DEFINITION ( 'draft international standard', 'automotive_design', 1998, #171 ) ;
#232 = FILL_AREA_STYLE_COLOUR ( '', #16 ) ;
#233 = EDGE_LOOP ( 'NONE', ( #209, #262, #211, #13 ) ) ;
#234 = ORIENTED_EDGE ( 'NONE', *, *, #40, .T. ) ;
#235 = ADVANCED_FACE ( 'NONE', ( #254 ), #50, .T. ) ;
#236 = CARTESIAN_POINT ( 'NONE',  ( -0.1412499999999994871, 0.000000000000000000, 2.500000000000000000 ) ) ;
#237 = AXIS2_PLACEMENT_3D ( 'NONE', #295, #208, #158 ) ;
#238 = DIRECTION ( 'NONE',  ( 0.000000000000000000, 0.000000000000000000, 1.000000000000000000 ) ) ;
#239 = MANIFOLD_SOLID_BREP ( 'Cut-Revolve1', #117 ) ;
#240 = ORIENTED_EDGE ( 'NONE', *, *, #177, .F. ) ;
#241 = DIRECTION ( 'NONE',  ( -0.000000000000000000, -0.000000000000000000, -1.000000000000000000 ) ) ;
#242 = ORIENTED_EDGE ( 'NONE', *, *, #252, .F. ) ;
#243 = CARTESIAN_POINT ( 'NONE',  ( -0.1412499999999994871, 0.000000000000000000, 2.500000000000000000 ) ) ;
#244 = AXIS2_PLACEMENT_3D ( 'NONE', #293, #61, #19 ) ;
#245 = ADVANCED_FACE ( 'NONE', ( #204 ), #124, .F. ) ;
#246 = DIRECTION ( 'NONE',  ( 0.000000000000000000, 0.000000000000000000, 1.000000000000000000 ) ) ;
#247 = CARTESIAN_POINT ( 'NONE',  ( 0.000000000000000000, 0.000000000000000000, 0.000000000000000000 ) ) ;
#248 = LINE ( 'NONE', #141, #36 ) ;
#249 = AXIS2_PLACEMENT_3D ( 'NONE', #296, #294, #98 ) ;
#250 =( LENGTH_UNIT ( ) NAMED_UNIT ( * ) SI_UNIT ( $, .METRE. ) );
#251 = CARTESIAN_POINT ( 'NONE',  ( 0.000000000000000000, 0.000000000000000000, 0.000000000000000000 ) ) ;
#252 = EDGE_CURVE ( 'NONE', #126, #134, #22, .T. ) ;
#253 = EDGE_LOOP ( 'NONE', ( #234, #109, #168, #240 ) ) ;
#254 = FACE_OUTER_BOUND ( 'NONE', #90, .T. ) ;
#255 = AXIS2_PLACEMENT_3D ( 'NONE', #156, #198, #175 ) ;
#256 = COLOUR_RGB ( '',0.7921568627450980005, 0.8196078431372548767, 0.9333333333333333481 ) ;
#257 = CARTESIAN_POINT ( 'NONE',  ( 0.000000000000000000, 0.000000000000000000, 0.000000000000000000 ) ) ;
#258 = EDGE_CURVE ( 'NONE', #5, #9, #285, .T. ) ;
#259 = AXIS2_PLACEMENT_3D ( 'NONE', #120, #96, #71 ) ;
#260 = ADVANCED_FACE ( 'NONE', ( #272 ), #223, .T. ) ;
#261 = AXIS2_PLACEMENT_3D ( 'NONE', #121, #49, #157 ) ;
#262 = ORIENTED_EDGE ( 'NONE', *, *, #153, .F. ) ;
#263 = CARTESIAN_POINT ( 'NONE',  ( 2.107302722179589238E-33, 0.000000000000000000, 1.720743257277751542E-17 ) ) ;
#264 = ORIENTED_EDGE ( 'NONE', *, *, #199, .F. ) ;
#265 = CARTESIAN_POINT ( 'NONE',  ( 0.000000000000000000, 0.000000000000000000, 2.500000000000000000 ) ) ;
#266 = DIRECTION ( 'NONE',  ( -1.000000000000000000, 0.000000000000000000, 0.000000000000000000 ) ) ;
#267 = DIRECTION ( 'NONE',  ( -0.1736481776669309973, 2.126576849575781159E-17, 0.9848077530122080203 ) ) ;
#268 = DIRECTION ( 'NONE',  ( 1.000000000000000000, 0.000000000000000000, 0.000000000000000000 ) ) ;
#269 = EDGE_CURVE ( 'NONE', #75, #123, #132, .T. ) ;
#270 = LINE ( 'NONE', #77, #195 ) ;
#271 =( LENGTH_UNIT ( ) NAMED_UNIT ( * ) SI_UNIT ( $, .METRE. ) );
#272 = FACE_OUTER_BOUND ( 'NONE', #145, .T. ) ;
#273 = FILL_AREA_STYLE ('',( #142 ) ) ;
#274 = ORIENTED_EDGE ( 'NONE', *, *, #252, .T. ) ;
#275 = AXIS2_PLACEMENT_3D ( 'NONE', #298, #180, #74 ) ;
#276 = AXIS2_PLACEMENT_3D ( 'NONE', #18, #119, #203 ) ;
#277 = ADVANCED_FACE ( 'NONE', ( #70 ), #122, .T. ) ;
#278 = ORIENTED_EDGE ( 'NONE', *, *, #57, .F. ) ;
#279 = LENGTH_MEASURE_WITH_UNIT ( LENGTH_MEASURE( 0.02539999999999999897 ), #271 );
#280 =( NAMED_UNIT ( * ) PLANE_ANGLE_UNIT ( ) SI_UNIT ( $, .RADIAN. ) );
#281 = PRODUCT_DEFINITION_SHAPE ( 'NONE', 'NONE',  #72 ) ;
#282 = ADVANCED_FACE ( 'NONE', ( #140 ), #225, .T. ) ;
#283 = EDGE_LOOP ( 'NONE', ( #242, #53, #176, #278 ) ) ;
#284 = ORIENTED_EDGE ( 'NONE', *, *, #81, .F. ) ;
#285 = CIRCLE ( 'NONE', #237, 0.1412499999999994871 ) ;
#286 = DIRECTION ( 'NONE',  ( 0.7071067811865410224, 8.659560562354852739E-17, -0.7071067811865539010 ) ) ;
#287 = EDGE_CURVE ( 'NONE', #147, #170, #179, .T. ) ;
#288 = PLANE ( 'NONE',  #92 ) ;
#289 = DIRECTION ( 'NONE',  ( 0.000000000000000000, 0.000000000000000000, -1.000000000000000000 ) ) ;
#290 = CARTESIAN_POINT ( 'NONE',  ( -0.1405093499999998941, 1.817126940472745349E-17, 0.7500000000000001110 ) ) ;
#291 = AXIS2_PLACEMENT_3D ( 'NONE', #263, #135, #129 ) ;
#292 = STYLED_ITEM ( 'NONE', ( #24 ), #107 ) ;
#293 = CARTESIAN_POINT ( 'NONE',  ( 9.184850993605150903E-17, 0.000000000000000000, 0.7500000000000001110 ) ) ;
#294 = DIRECTION ( 'NONE',  ( -1.224646799147353207E-16, -0.000000000000000000, -1.000000000000000000 ) ) ;
#295 = CARTESIAN_POINT ( 'NONE',  ( 0.000000000000000000, 0.000000000000000000, 2.500000000000000000 ) ) ;
#296 = CARTESIAN_POINT ( 'NONE',  ( 1.027808905402827143E-16, 0.000000000000000000, 0.8392696621739652585 ) ) ;
#297 = EDGE_CURVE ( 'NONE', #75, #170, #248, .T. ) ;
#298 = CARTESIAN_POINT ( 'NONE',  ( 9.184850993605150903E-17, 0.000000000000000000, 0.7500000000000001110 ) ) ;
#299 = LENGTH_MEASURE_WITH_UNIT ( LENGTH_MEASURE( 0.02539999999999999897 ), #187 );
ENDSEC;
END-ISO-10303-21;
