ISO-10303-21;
HEADER;
FILE_DESCRIPTION (( 'STEP AP214' ),
    '1' );
FILE_NAME ('44317W.STEP',
    '2023-06-22T20:04:13',
    ( '' ),
    ( '' ),
    'SwSTEP 2.0',
    'SolidWorks 2023',
    '' );
FILE_SCHEMA (( 'AUTOMOTIVE_DESIGN' ));
ENDSEC;

DATA;
#1 = FILL_AREA_STYLE_COLOUR ( '', #60 ) ;
#2 = ORIENTED_EDGE ( 'NONE', *, *, #191, .T. ) ;
#3 = EDGE_CURVE ( 'NONE', #97, #75, #203, .T. ) ;
#4 =( LENGTH_UNIT ( ) NAMED_UNIT ( * ) SI_UNIT ( $, .METRE. ) );
#5 = CYLINDRICAL_SURFACE ( 'NONE', #126, 0.3125000000000000000 ) ;
#6 = FACE_OUTER_BOUND ( 'NONE', #132, .T. ) ;
#7 = PRODUCT_RELATED_PRODUCT_CATEGORY ( 'part', '', ( #183 ) ) ;
#8 = LINE ( 'NONE', #275, #211 ) ;
#9 = EDGE_CURVE ( 'NONE', #71, #12, #95, .T. ) ;
#10 = DIRECTION ( 'NONE',  ( 0.000000000000000000, 0.000000000000000000, -1.000000000000000000 ) ) ;
#11 = MECHANICAL_DESIGN_GEOMETRIC_PRESENTATION_REPRESENTATION (  '', ( #118 ), #66 ) ;
#12 = VERTEX_POINT ( 'NONE', #206 ) ;
#13 = DIRECTION ( 'NONE',  ( -1.000000000000000000, 0.000000000000000000, 0.000000000000000000 ) ) ;
#14 = DIRECTION ( 'NONE',  ( -1.000000000000000000, 0.000000000000000000, 0.000000000000000000 ) ) ;
#15 = SURFACE_STYLE_USAGE ( .BOTH. , #233 ) ;
#16 = ORIENTED_EDGE ( 'NONE', *, *, #171, .F. ) ;
#17 = CLOSED_SHELL ( 'NONE', ( #79, #164, #198, #222 ) ) ;
#18 = STYLED_ITEM ( 'NONE', ( #140 ), #250 ) ;
#19 =( CONVERSION_BASED_UNIT ( 'INCH', #266 ) LENGTH_UNIT ( ) NAMED_UNIT ( #251 ) );
#20 = SURFACE_SIDE_STYLE ('',( #285 ) ) ;
#21 = DIRECTION ( 'NONE',  ( 0.000000000000000000, 0.000000000000000000, -1.000000000000000000 ) ) ;
#22 = VERTEX_POINT ( 'NONE', #163 ) ;
#23 = PRESENTATION_LAYER_ASSIGNMENT (  '', '', ( #18 ) ) ;
#24 = EDGE_CURVE ( 'NONE', #209, #161, #173, .T. ) ;
#25 = ORIENTED_EDGE ( 'NONE', *, *, #261, .T. ) ;
#26 = FACE_OUTER_BOUND ( 'NONE', #34, .T. ) ;
#27 = DIRECTION ( 'NONE',  ( 5.442874662877122010E-17, 1.000000000000000000, -0.000000000000000000 ) ) ;
#28 =( GEOMETRIC_REPRESENTATION_CONTEXT ( 3 ) GLOBAL_UNCERTAINTY_ASSIGNED_CONTEXT ( ( #108 ) ) GLOBAL_UNIT_ASSIGNED_CONTEXT ( ( #19, #188, #213 ) ) REPRESENTATION_CONTEXT ( 'NONE', 'WORKASPACE' ) );
#29 = CARTESIAN_POINT ( 'NONE',  ( -0.3124999999999998335, 3.000000000000000444, 0.000000000000000000 ) ) ;
#30 = LINE ( 'NONE', #35, #73 ) ;
#31 = DIRECTION ( 'NONE',  ( 1.000000000000000000, -5.442874662877122010E-17, 0.000000000000000000 ) ) ;
#32 =( GEOMETRIC_REPRESENTATION_CONTEXT ( 3 ) GLOBAL_UNCERTAINTY_ASSIGNED_CONTEXT ( ( #309 ) ) GLOBAL_UNIT_ASSIGNED_CONTEXT ( ( #102, #270, #308 ) ) REPRESENTATION_CONTEXT ( 'NONE', 'WORKASPACE' ) );
#33 = ORIENTED_EDGE ( 'NONE', *, *, #146, .T. ) ;
#34 = EDGE_LOOP ( 'NONE', ( #40, #280 ) ) ;
#35 = CARTESIAN_POINT ( 'NONE',  ( 0.3125000000000000555, 3.000000000000000444, 3.827021247335477694E-17 ) ) ;
#36 = MECHANICAL_DESIGN_GEOMETRIC_PRESENTATION_REPRESENTATION (  '', ( #190 ), #224 ) ;
#37 = AXIS2_PLACEMENT_3D ( 'NONE', #106, #194, #258 ) ;
#38 =( LENGTH_UNIT ( ) NAMED_UNIT ( * ) SI_UNIT ( $, .METRE. ) );
#39 = EDGE_LOOP ( 'NONE', ( #2, #257 ) ) ;
#40 = ORIENTED_EDGE ( 'NONE', *, *, #171, .T. ) ;
#41 = MANIFOLD_SOLID_BREP ( 'Revolve - Tool Body (Straight Shanked)', #17 ) ;
#42 = AXIS2_PLACEMENT_3D ( 'NONE', #111, #230, #10 ) ;
#43 = EDGE_CURVE ( 'NONE', #12, #161, #125, .T. ) ;
#44 = SURFACE_SIDE_STYLE ('',( #303 ) ) ;
#45 = SURFACE_STYLE_USAGE ( .BOTH. , #215 ) ;
#46 = UNCERTAINTY_MEASURE_WITH_UNIT (LENGTH_MEASURE( 1.000000000000000082E-05 ), #187, 'distance_accuracy_value', 'NONE');
#47 = SURFACE_STYLE_FILL_AREA ( #50 ) ;
#48 = APPLICATION_PROTOCOL_DEFINITION ( 'draft international standard', 'automotive_design', 1998, #169 ) ;
#49 = AXIS2_PLACEMENT_3D ( 'NONE', #158, #252, #31 ) ;
#50 = FILL_AREA_STYLE ('',( #1 ) ) ;
#51 = ADVANCED_FACE ( 'NONE', ( #136 ), #5, .T. ) ;
#52 = PRESENTATION_STYLE_ASSIGNMENT (( #223 ) ) ;
#53 = PRESENTATION_LAYER_ASSIGNMENT (  '', '', ( #247 ) ) ;
#54 =( NAMED_UNIT ( * ) PLANE_ANGLE_UNIT ( ) SI_UNIT ( $, .RADIAN. ) );
#55 = AXIS2_PLACEMENT_3D ( 'NONE', #240, #263, #21 ) ;
#56 = CARTESIAN_POINT ( 'NONE',  ( 0.3125000000000000000, 3.000000000000000444, 3.827021247335477694E-17 ) ) ;
#57 = UNCERTAINTY_MEASURE_WITH_UNIT (LENGTH_MEASURE( 1.000000000000000082E-05 ), #290, 'distance_accuracy_value', 'NONE');
#58 = DIRECTION ( 'NONE',  ( -1.000000000000000000, 0.000000000000000000, 0.000000000000000000 ) ) ;
#59 = CARTESIAN_POINT ( 'NONE',  ( 0.000000000000000000, 0.000000000000000000, -0.3125000000000000000 ) ) ;
#60 = COLOUR_RGB ( '',1.000000000000000000, 0.000000000000000000, 0.000000000000000000 ) ;
#61 = EDGE_CURVE ( 'NONE', #12, #71, #297, .T. ) ;
#62 = DIMENSIONAL_EXPONENTS ( 1.000000000000000000, 0.000000000000000000, 0.000000000000000000, 0.000000000000000000, 0.000000000000000000, 0.000000000000000000, 0.000000000000000000 ) ;
#63 = DIRECTION ( 'NONE',  ( -0.000000000000000000, -1.000000000000000000, -0.000000000000000000 ) ) ;
#64 = DIRECTION ( 'NONE',  ( -0.000000000000000000, -1.000000000000000000, -0.000000000000000000 ) ) ;
#65 = DIRECTION ( 'NONE',  ( 0.000000000000000000, 0.000000000000000000, -1.000000000000000000 ) ) ;
#66 =( GEOMETRIC_REPRESENTATION_CONTEXT ( 3 ) GLOBAL_UNCERTAINTY_ASSIGNED_CONTEXT ( ( #220 ) ) GLOBAL_UNIT_ASSIGNED_CONTEXT ( ( #93, #139, #152 ) ) REPRESENTATION_CONTEXT ( 'NONE', 'WORKASPACE' ) );
#67 = AXIS2_PLACEMENT_3D ( 'NONE', #131, #279, #58 ) ;
#68 = FILL_AREA_STYLE_COLOUR ( '', #253 ) ;
#69 = ADVANCED_FACE ( 'NONE', ( #292 ), #130, .T. ) ;
#70 = ORIENTED_EDGE ( 'NONE', *, *, #114, .F. ) ;
#71 = VERTEX_POINT ( 'NONE', #200 ) ;
#72 = AXIS2_PLACEMENT_3D ( 'NONE', #246, #244, #103 ) ;
#73 = VECTOR ( 'NONE', #179, 39.37007874015748143 ) ;
#74 = PRESENTATION_STYLE_ASSIGNMENT (( #45 ) ) ;
#75 = VERTEX_POINT ( 'NONE', #277 ) ;
#76 =( LENGTH_UNIT ( ) NAMED_UNIT ( * ) SI_UNIT ( $, .METRE. ) );
#77 = DIRECTION ( 'NONE',  ( 0.000000000000000000, 0.000000000000000000, 1.000000000000000000 ) ) ;
#78 = COLOUR_RGB ( '',1.000000000000000000, 0.000000000000000000, 0.000000000000000000 ) ;
#79 = ADVANCED_FACE ( 'NONE', ( #90 ), #300, .T. ) ;
#80 =( NAMED_UNIT ( * ) SI_UNIT ( $, .STERADIAN. ) SOLID_ANGLE_UNIT ( ) );
#81 = ADVANCED_BREP_SHAPE_REPRESENTATION ( '44317W', ( #250, #41, #138 ), #101 ) ;
#82 = CARTESIAN_POINT ( 'NONE',  ( 0.000000000000000000, 0.000000000000000000, 0.000000000000000000 ) ) ;
#83 = PLANE ( 'NONE',  #155 ) ;
#84 = PRESENTATION_STYLE_ASSIGNMENT (( #265 ) ) ;
#85 = PRODUCT_DEFINITION ( 'UNKNOWN', '', #133, #189 ) ;
#86 = CIRCLE ( 'NONE', #42, 0.3125000000000000000 ) ;
#87 = CARTESIAN_POINT ( 'NONE',  ( 1.224646799147352714E-16, 3.000000000000000444, 0.000000000000000000 ) ) ;
#88 = PLANE ( 'NONE',  #91 ) ;
#89 = FILL_AREA_STYLE_COLOUR ( '', #78 ) ;
#90 = FACE_OUTER_BOUND ( 'NONE', #124, .T. ) ;
#91 = AXIS2_PLACEMENT_3D ( 'NONE', #162, #205, #92 ) ;
#92 = DIRECTION ( 'NONE',  ( -1.000000000000000000, 5.442874662877122010E-17, 0.000000000000000000 ) ) ;
#93 =( CONVERSION_BASED_UNIT ( 'INCH', #259 ) LENGTH_UNIT ( ) NAMED_UNIT ( #299 ) );
#94 = CARTESIAN_POINT ( 'NONE',  ( 0.000000000000000000, 0.7499999999999998890, 0.000000000000000000 ) ) ;
#95 = CIRCLE ( 'NONE', #216, 0.3125000000000000000 ) ;
#96 = CIRCLE ( 'NONE', #55, 0.3125000000000000000 ) ;
#97 = VERTEX_POINT ( 'NONE', #165 ) ;
#98 = CARTESIAN_POINT ( 'NONE',  ( 1.224646799147352714E-16, 3.000000000000000444, 0.000000000000000000 ) ) ;
#99 = DIRECTION ( 'NONE',  ( 0.000000000000000000, -0.000000000000000000, 1.000000000000000000 ) ) ;
#100 = SURFACE_STYLE_USAGE ( .BOTH. , #44 ) ;
#101 =( GEOMETRIC_REPRESENTATION_CONTEXT ( 3 ) GLOBAL_UNCERTAINTY_ASSIGNED_CONTEXT ( ( #214 ) ) GLOBAL_UNIT_ASSIGNED_CONTEXT ( ( #192, #225, #245 ) ) REPRESENTATION_CONTEXT ( 'NONE', 'WORKASPACE' ) );
#102 =( CONVERSION_BASED_UNIT ( 'INCH', #219 ) LENGTH_UNIT ( ) NAMED_UNIT ( #157 ) );
#103 = DIRECTION ( 'NONE',  ( -1.000000000000000000, 0.000000000000000000, 0.000000000000000000 ) ) ;
#104 = PRODUCT_CONTEXT ( 'NONE', #150, 'mechanical' ) ;
#105 = UNCERTAINTY_MEASURE_WITH_UNIT (LENGTH_MEASURE( 1.000000000000000082E-05 ), #269, 'distance_accuracy_value', 'NONE');
#106 = CARTESIAN_POINT ( 'NONE',  ( 0.000000000000000000, 0.000000000000000000, 0.000000000000000000 ) ) ;
#107 = DIRECTION ( 'NONE',  ( 0.000000000000000000, 0.000000000000000000, -1.000000000000000000 ) ) ;
#108 = UNCERTAINTY_MEASURE_WITH_UNIT (LENGTH_MEASURE( 1.000000000000000082E-05 ), #19, 'distance_accuracy_value', 'NONE');
#109 = LINE ( 'NONE', #177, #204 ) ;
#110 = PLANE ( 'NONE',  #149 ) ;
#111 = CARTESIAN_POINT ( 'NONE',  ( 0.000000000000000000, 0.000000000000000000, 0.000000000000000000 ) ) ;
#112 = PRODUCT_DEFINITION_SHAPE ( 'NONE', 'NONE',  #85 ) ;
#113 = DIRECTION ( 'NONE',  ( -0.000000000000000000, -1.000000000000000000, -0.000000000000000000 ) ) ;
#114 = EDGE_CURVE ( 'NONE', #22, #208, #86, .T. ) ;
#115 = FILL_AREA_STYLE ('',( #68 ) ) ;
#116 = LENGTH_MEASURE_WITH_UNIT ( LENGTH_MEASURE( 0.02539999999999999897 ), #182 );
#117 = EDGE_LOOP ( 'NONE', ( #262, #186, #180, #238 ) ) ;
#118 = STYLED_ITEM ( 'NONE', ( #166 ), #41 ) ;
#119 = EDGE_LOOP ( 'NONE', ( #304, #25, #284, #70 ) ) ;
#120 = FILL_AREA_STYLE ('',( #237 ) ) ;
#121 = COLOUR_RGB ( '',1.000000000000000000, 0.000000000000000000, 0.000000000000000000 ) ;
#122 = CIRCLE ( 'NONE', #176, 0.3125000000000000000 ) ;
#123 = FILL_AREA_STYLE ('',( #193 ) ) ;
#124 = EDGE_LOOP ( 'NONE', ( #283, #33, #302, #243 ) ) ;
#125 = LINE ( 'NONE', #29, #175 ) ;
#126 = AXIS2_PLACEMENT_3D ( 'NONE', #82, #218, #226 ) ;
#127 = APPLICATION_PROTOCOL_DEFINITION ( 'draft international standard', 'automotive_design', 1998, #150 ) ;
#128 = PRESENTATION_LAYER_ASSIGNMENT (  '', '', ( #273 ) ) ;
#129 = FILL_AREA_STYLE ('',( #241 ) ) ;
#130 = CYLINDRICAL_SURFACE ( 'NONE', #37, 0.3125000000000000000 ) ;
#131 = CARTESIAN_POINT ( 'NONE',  ( 1.224646799147352714E-16, 3.000000000000000444, 0.000000000000000000 ) ) ;
#132 = EDGE_LOOP ( 'NONE', ( #306, #296 ) ) ;
#133 = PRODUCT_DEFINITION_FORMATION_WITH_SPECIFIED_SOURCE ( 'ANY', '', #183, .NOT_KNOWN. ) ;
#134 = FACE_OUTER_BOUND ( 'NONE', #249, .T. ) ;
#135 = DIRECTION ( 'NONE',  ( -1.000000000000000000, 0.000000000000000000, 0.000000000000000000 ) ) ;
#136 = FACE_OUTER_BOUND ( 'NONE', #119, .T. ) ;
#137 = EDGE_CURVE ( 'NONE', #75, #22, #109, .T. ) ;
#138 = AXIS2_PLACEMENT_3D ( 'NONE', #196, #77, #268 ) ;
#139 =( NAMED_UNIT ( * ) PLANE_ANGLE_UNIT ( ) SI_UNIT ( $, .RADIAN. ) );
#140 = PRESENTATION_STYLE_ASSIGNMENT (( #185 ) ) ;
#141 = ORIENTED_EDGE ( 'NONE', *, *, #3, .T. ) ;
#142 = DIRECTION ( 'NONE',  ( 0.000000000000000000, 1.000000000000000000, 0.000000000000000000 ) ) ;
#143 = DIRECTION ( 'NONE',  ( 0.000000000000000000, 0.000000000000000000, -1.000000000000000000 ) ) ;
#144 =( NAMED_UNIT ( * ) SI_UNIT ( $, .STERADIAN. ) SOLID_ANGLE_UNIT ( ) );
#145 =( LENGTH_UNIT ( ) NAMED_UNIT ( * ) SI_UNIT ( $, .METRE. ) );
#146 = EDGE_CURVE ( 'NONE', #71, #209, #30, .T. ) ;
#147 =( NAMED_UNIT ( * ) SI_UNIT ( $, .STERADIAN. ) SOLID_ANGLE_UNIT ( ) );
#148 = AXIS2_PLACEMENT_3D ( 'NONE', #181, #295, #13 ) ;
#149 = AXIS2_PLACEMENT_3D ( 'NONE', #307, #142, #99 ) ;
#150 = APPLICATION_CONTEXT ( 'automotive_design' ) ;
#151 = SHAPE_DEFINITION_REPRESENTATION ( #112, #81 ) ;
#152 =( NAMED_UNIT ( * ) SI_UNIT ( $, .STERADIAN. ) SOLID_ANGLE_UNIT ( ) );
#153 = AXIS2_PLACEMENT_3D ( 'NONE', #98, #232, #184 ) ;
#154 = LENGTH_MEASURE_WITH_UNIT ( LENGTH_MEASURE( 0.02539999999999999897 ), #145 );
#155 = AXIS2_PLACEMENT_3D ( 'NONE', #267, #172, #107 ) ;
#156 = FACE_OUTER_BOUND ( 'NONE', #39, .T. ) ;
#157 = DIMENSIONAL_EXPONENTS ( 1.000000000000000000, 0.000000000000000000, 0.000000000000000000, 0.000000000000000000, 0.000000000000000000, 0.000000000000000000, 0.000000000000000000 ) ;
#158 = CARTESIAN_POINT ( 'NONE',  ( 0.3125000000000000000, 3.000000000000000444, 0.000000000000000000 ) ) ;
#159 = PRESENTATION_LAYER_ASSIGNMENT (  '', '', ( #118 ) ) ;
#160 = CYLINDRICAL_SURFACE ( 'NONE', #248, 0.3124999999999999445 ) ;
#161 = VERTEX_POINT ( 'NONE', #201 ) ;
#162 = CARTESIAN_POINT ( 'NONE',  ( 4.628888218092148898E-34, 0.7499999999999998890, 0.000000000000000000 ) ) ;
#163 = CARTESIAN_POINT ( 'NONE',  ( 3.827021247335478926E-17, 0.000000000000000000, 0.3125000000000000000 ) ) ;
#164 = ADVANCED_FACE ( 'NONE', ( #6 ), #88, .F. ) ;
#165 = CARTESIAN_POINT ( 'NONE',  ( 0.000000000000000000, 0.7499999999999998890, -0.3125000000000000000 ) ) ;
#166 = PRESENTATION_STYLE_ASSIGNMENT (( #15 ) ) ;
#167 = COLOUR_RGB ( '',0.7921568627450980005, 0.8196078431372548767, 0.9333333333333333481 ) ;
#168 = PRESENTATION_STYLE_ASSIGNMENT (( #100 ) ) ;
#169 = APPLICATION_CONTEXT ( 'automotive_design' ) ;
#170 = ORIENTED_EDGE ( 'NONE', *, *, #178, .F. ) ;
#171 = EDGE_CURVE ( 'NONE', #208, #22, #122, .T. ) ;
#172 = DIRECTION ( 'NONE',  ( 0.000000000000000000, -1.000000000000000000, -0.000000000000000000 ) ) ;
#173 = CIRCLE ( 'NONE', #153, 0.3124999999999998890 ) ;
#174 =( LENGTH_UNIT ( ) NAMED_UNIT ( * ) SI_UNIT ( $, .METRE. ) );
#175 = VECTOR ( 'NONE', #27, 39.37007874015748143 ) ;
#176 = AXIS2_PLACEMENT_3D ( 'NONE', #255, #113, #65 ) ;
#177 = CARTESIAN_POINT ( 'NONE',  ( 3.827021247335478926E-17, 0.000000000000000000, 0.3125000000000000000 ) ) ;
#178 = EDGE_CURVE ( 'NONE', #97, #208, #8, .T. ) ;
#179 = DIRECTION ( 'NONE',  ( 5.442874662877122010E-17, 1.000000000000000000, -0.000000000000000000 ) ) ;
#180 = ORIENTED_EDGE ( 'NONE', *, *, #43, .T. ) ;
#181 = CARTESIAN_POINT ( 'NONE',  ( 1.224646799147352714E-16, 3.000000000000000444, 0.000000000000000000 ) ) ;
#182 =( LENGTH_UNIT ( ) NAMED_UNIT ( * ) SI_UNIT ( $, .METRE. ) );
#183 = PRODUCT ( '44317W', '44317W', '', ( #104 ) ) ;
#184 = DIRECTION ( 'NONE',  ( -1.000000000000000000, 0.000000000000000000, 0.000000000000000000 ) ) ;
#185 = SURFACE_STYLE_USAGE ( .BOTH. , #20 ) ;
#186 = ORIENTED_EDGE ( 'NONE', *, *, #9, .T. ) ;
#187 =( CONVERSION_BASED_UNIT ( 'INCH', #116 ) LENGTH_UNIT ( ) NAMED_UNIT ( #278 ) );
#188 =( NAMED_UNIT ( * ) PLANE_ANGLE_UNIT ( ) SI_UNIT ( $, .RADIAN. ) );
#189 = PRODUCT_DEFINITION_CONTEXT ( 'detailed design', #169, 'design' ) ;
#190 = STYLED_ITEM ( 'NONE', ( #52 ), #51 ) ;
#191 = EDGE_CURVE ( 'NONE', #161, #209, #289, .T. ) ;
#192 =( CONVERSION_BASED_UNIT ( 'INCH', #154 ) LENGTH_UNIT ( ) NAMED_UNIT ( #62 ) );
#193 = FILL_AREA_STYLE_COLOUR ( '', #242 ) ;
#194 = DIRECTION ( 'NONE',  ( -0.000000000000000000, -1.000000000000000000, -0.000000000000000000 ) ) ;
#195 = LENGTH_MEASURE_WITH_UNIT ( LENGTH_MEASURE( 0.02539999999999999897 ), #174 );
#196 = CARTESIAN_POINT ( 'NONE',  ( 0.000000000000000000, 0.000000000000000000, 0.000000000000000000 ) ) ;
#197 = SURFACE_STYLE_FILL_AREA ( #129 ) ;
#198 = ADVANCED_FACE ( 'NONE', ( #207 ), #160, .T. ) ;
#199 =( GEOMETRIC_REPRESENTATION_CONTEXT ( 3 ) GLOBAL_UNCERTAINTY_ASSIGNED_CONTEXT ( ( #46 ) ) GLOBAL_UNIT_ASSIGNED_CONTEXT ( ( #187, #210, #144 ) ) REPRESENTATION_CONTEXT ( 'NONE', 'WORKASPACE' ) );
#200 = CARTESIAN_POINT ( 'NONE',  ( 0.3125000000000000000, 0.7499999999999998890, 3.827021247335477694E-17 ) ) ;
#201 = CARTESIAN_POINT ( 'NONE',  ( -0.3124999999999997224, 3.000000000000000444, 0.000000000000000000 ) ) ;
#202 = ORIENTED_EDGE ( 'NONE', *, *, #3, .F. ) ;
#203 = CIRCLE ( 'NONE', #305, 0.3125000000000000000 ) ;
#204 = VECTOR ( 'NONE', #63, 39.37007874015748143 ) ;
#205 = DIRECTION ( 'NONE',  ( 5.442874662877122010E-17, 1.000000000000000000, -0.000000000000000000 ) ) ;
#206 = CARTESIAN_POINT ( 'NONE',  ( -0.3125000000000000000, 0.7499999999999998890, 0.000000000000000000 ) ) ;
#207 = FACE_OUTER_BOUND ( 'NONE', #117, .T. ) ;
#208 = VERTEX_POINT ( 'NONE', #59 ) ;
#209 = VERTEX_POINT ( 'NONE', #56 ) ;
#210 =( NAMED_UNIT ( * ) PLANE_ANGLE_UNIT ( ) SI_UNIT ( $, .RADIAN. ) );
#211 = VECTOR ( 'NONE', #294, 39.37007874015748143 ) ;
#212 = CARTESIAN_POINT ( 'NONE',  ( -1.516480271171051896E-32, 0.7499999999999998890, 0.000000000000000000 ) ) ;
#213 =( NAMED_UNIT ( * ) SI_UNIT ( $, .STERADIAN. ) SOLID_ANGLE_UNIT ( ) );
#214 = UNCERTAINTY_MEASURE_WITH_UNIT (LENGTH_MEASURE( 1.000000000000000082E-05 ), #192, 'distance_accuracy_value', 'NONE');
#215 = SURFACE_SIDE_STYLE ('',( #217 ) ) ;
#216 = AXIS2_PLACEMENT_3D ( 'NONE', #212, #254, #14 ) ;
#217 = SURFACE_STYLE_FILL_AREA ( #123 ) ;
#218 = DIRECTION ( 'NONE',  ( -0.000000000000000000, -1.000000000000000000, -0.000000000000000000 ) ) ;
#219 = LENGTH_MEASURE_WITH_UNIT ( LENGTH_MEASURE( 0.02539999999999999897 ), #4 );
#220 = UNCERTAINTY_MEASURE_WITH_UNIT (LENGTH_MEASURE( 1.000000000000000082E-05 ), #93, 'distance_accuracy_value', 'NONE');
#221 = SURFACE_SIDE_STYLE ('',( #47 ) ) ;
#222 = ADVANCED_FACE ( 'NONE', ( #156 ), #228, .F. ) ;
#223 = SURFACE_STYLE_USAGE ( .BOTH. , #221 ) ;
#224 =( GEOMETRIC_REPRESENTATION_CONTEXT ( 3 ) GLOBAL_UNCERTAINTY_ASSIGNED_CONTEXT ( ( #57 ) ) GLOBAL_UNIT_ASSIGNED_CONTEXT ( ( #290, #291, #147 ) ) REPRESENTATION_CONTEXT ( 'NONE', 'WORKASPACE' ) );
#225 =( NAMED_UNIT ( * ) PLANE_ANGLE_UNIT ( ) SI_UNIT ( $, .RADIAN. ) );
#226 = DIRECTION ( 'NONE',  ( 0.000000000000000000, 0.000000000000000000, -1.000000000000000000 ) ) ;
#227 = SURFACE_SIDE_STYLE ('',( #197 ) ) ;
#228 = PLANE ( 'NONE',  #49 ) ;
#229 = CLOSED_SHELL ( 'NONE', ( #69, #231, #51, #264 ) ) ;
#230 = DIRECTION ( 'NONE',  ( -0.000000000000000000, -1.000000000000000000, -0.000000000000000000 ) ) ;
#231 = ADVANCED_FACE ( 'NONE', ( #134 ), #110, .T. ) ;
#232 = DIRECTION ( 'NONE',  ( 5.442874662877122626E-17, 1.000000000000000000, -0.000000000000000000 ) ) ;
#233 = SURFACE_SIDE_STYLE ('',( #301 ) ) ;
#234 = MECHANICAL_DESIGN_GEOMETRIC_PRESENTATION_REPRESENTATION (  '', ( #18 ), #199 ) ;
#235 = EDGE_LOOP ( 'NONE', ( #141, #236, #16, #170 ) ) ;
#236 = ORIENTED_EDGE ( 'NONE', *, *, #137, .T. ) ;
#237 = FILL_AREA_STYLE_COLOUR ( '', #167 ) ;
#238 = ORIENTED_EDGE ( 'NONE', *, *, #24, .F. ) ;
#239 = PRESENTATION_LAYER_ASSIGNMENT (  '', '', ( #190 ) ) ;
#240 = CARTESIAN_POINT ( 'NONE',  ( 0.000000000000000000, 0.7499999999999998890, 0.000000000000000000 ) ) ;
#241 = FILL_AREA_STYLE_COLOUR ( '', #121 ) ;
#242 = COLOUR_RGB ( '',1.000000000000000000, 0.000000000000000000, 0.000000000000000000 ) ;
#243 = ORIENTED_EDGE ( 'NONE', *, *, #43, .F. ) ;
#244 = DIRECTION ( 'NONE',  ( 5.442874662877122626E-17, 1.000000000000000000, -0.000000000000000000 ) ) ;
#245 =( NAMED_UNIT ( * ) SI_UNIT ( $, .STERADIAN. ) SOLID_ANGLE_UNIT ( ) );
#246 = CARTESIAN_POINT ( 'NONE',  ( -1.516480271171051896E-32, 0.7499999999999998890, 0.000000000000000000 ) ) ;
#247 = STYLED_ITEM ( 'NONE', ( #84 ), #69 ) ;
#248 = AXIS2_PLACEMENT_3D ( 'NONE', #87, #274, #135 ) ;
#249 = EDGE_LOOP ( 'NONE', ( #202, #298 ) ) ;
#250 = MANIFOLD_SOLID_BREP ( 'Revolve - Cutting Edge', #229 ) ;
#251 = DIMENSIONAL_EXPONENTS ( 1.000000000000000000, 0.000000000000000000, 0.000000000000000000, 0.000000000000000000, 0.000000000000000000, 0.000000000000000000, 0.000000000000000000 ) ;
#252 = DIRECTION ( 'NONE',  ( -5.442874662877122010E-17, -1.000000000000000000, 0.000000000000000000 ) ) ;
#253 = COLOUR_RGB ( '',0.7921568627450980005, 0.8196078431372548767, 0.9333333333333333481 ) ;
#254 = DIRECTION ( 'NONE',  ( 5.442874662877122626E-17, 1.000000000000000000, -0.000000000000000000 ) ) ;
#255 = CARTESIAN_POINT ( 'NONE',  ( 0.000000000000000000, 0.000000000000000000, 0.000000000000000000 ) ) ;
#256 = DIMENSIONAL_EXPONENTS ( 1.000000000000000000, 0.000000000000000000, 0.000000000000000000, 0.000000000000000000, 0.000000000000000000, 0.000000000000000000, 0.000000000000000000 ) ;
#257 = ORIENTED_EDGE ( 'NONE', *, *, #24, .T. ) ;
#258 = DIRECTION ( 'NONE',  ( 0.000000000000000000, 0.000000000000000000, -1.000000000000000000 ) ) ;
#259 = LENGTH_MEASURE_WITH_UNIT ( LENGTH_MEASURE( 0.02539999999999999897 ), #281 );
#260 = MECHANICAL_DESIGN_GEOMETRIC_PRESENTATION_REPRESENTATION (  '', ( #282 ), #28 ) ;
#261 = EDGE_CURVE ( 'NONE', #75, #97, #96, .T. ) ;
#262 = ORIENTED_EDGE ( 'NONE', *, *, #146, .F. ) ;
#263 = DIRECTION ( 'NONE',  ( -0.000000000000000000, -1.000000000000000000, -0.000000000000000000 ) ) ;
#264 = ADVANCED_FACE ( 'NONE', ( #26 ), #83, .T. ) ;
#265 = SURFACE_STYLE_USAGE ( .BOTH. , #227 ) ;
#266 = LENGTH_MEASURE_WITH_UNIT ( LENGTH_MEASURE( 0.02539999999999999897 ), #38 );
#267 = CARTESIAN_POINT ( 'NONE',  ( 0.000000000000000000, 0.000000000000000000, 0.000000000000000000 ) ) ;
#268 = DIRECTION ( 'NONE',  ( 1.000000000000000000, 0.000000000000000000, 0.000000000000000000 ) ) ;
#269 =( CONVERSION_BASED_UNIT ( 'INCH', #288 ) LENGTH_UNIT ( ) NAMED_UNIT ( #272 ) );
#270 =( NAMED_UNIT ( * ) PLANE_ANGLE_UNIT ( ) SI_UNIT ( $, .RADIAN. ) );
#271 =( GEOMETRIC_REPRESENTATION_CONTEXT ( 3 ) GLOBAL_UNCERTAINTY_ASSIGNED_CONTEXT ( ( #105 ) ) GLOBAL_UNIT_ASSIGNED_CONTEXT ( ( #269, #54, #80 ) ) REPRESENTATION_CONTEXT ( 'NONE', 'WORKASPACE' ) );
#272 = DIMENSIONAL_EXPONENTS ( 1.000000000000000000, 0.000000000000000000, 0.000000000000000000, 0.000000000000000000, 0.000000000000000000, 0.000000000000000000, 0.000000000000000000 ) ;
#273 = STYLED_ITEM ( 'NONE', ( #74 ), #264 ) ;
#274 = DIRECTION ( 'NONE',  ( 5.442874662877122626E-17, 1.000000000000000000, -0.000000000000000000 ) ) ;
#275 = CARTESIAN_POINT ( 'NONE',  ( 0.000000000000000000, 0.000000000000000000, -0.3125000000000000000 ) ) ;
#276 = FILL_AREA_STYLE ('',( #89 ) ) ;
#277 = CARTESIAN_POINT ( 'NONE',  ( 3.827021247335478926E-17, 0.7499999999999998890, 0.3125000000000000000 ) ) ;
#278 = DIMENSIONAL_EXPONENTS ( 1.000000000000000000, 0.000000000000000000, 0.000000000000000000, 0.000000000000000000, 0.000000000000000000, 0.000000000000000000, 0.000000000000000000 ) ;
#279 = DIRECTION ( 'NONE',  ( 5.442874662877122626E-17, 1.000000000000000000, -0.000000000000000000 ) ) ;
#280 = ORIENTED_EDGE ( 'NONE', *, *, #114, .T. ) ;
#281 =( LENGTH_UNIT ( ) NAMED_UNIT ( * ) SI_UNIT ( $, .METRE. ) );
#282 = STYLED_ITEM ( 'NONE', ( #168 ), #231 ) ;
#283 = ORIENTED_EDGE ( 'NONE', *, *, #61, .T. ) ;
#284 = ORIENTED_EDGE ( 'NONE', *, *, #178, .T. ) ;
#285 = SURFACE_STYLE_FILL_AREA ( #120 ) ;
#286 = MECHANICAL_DESIGN_GEOMETRIC_PRESENTATION_REPRESENTATION (  '', ( #247 ), #271 ) ;
#287 = MECHANICAL_DESIGN_GEOMETRIC_PRESENTATION_REPRESENTATION (  '', ( #273 ), #32 ) ;
#288 = LENGTH_MEASURE_WITH_UNIT ( LENGTH_MEASURE( 0.02539999999999999897 ), #76 );
#289 = CIRCLE ( 'NONE', #67, 0.3124999999999998890 ) ;
#290 =( CONVERSION_BASED_UNIT ( 'INCH', #195 ) LENGTH_UNIT ( ) NAMED_UNIT ( #256 ) );
#291 =( NAMED_UNIT ( * ) PLANE_ANGLE_UNIT ( ) SI_UNIT ( $, .RADIAN. ) );
#292 = FACE_OUTER_BOUND ( 'NONE', #235, .T. ) ;
#293 = PRESENTATION_LAYER_ASSIGNMENT (  '', '', ( #282 ) ) ;
#294 = DIRECTION ( 'NONE',  ( -0.000000000000000000, -1.000000000000000000, -0.000000000000000000 ) ) ;
#295 = DIRECTION ( 'NONE',  ( 5.442874662877122626E-17, 1.000000000000000000, -0.000000000000000000 ) ) ;
#296 = ORIENTED_EDGE ( 'NONE', *, *, #9, .F. ) ;
#297 = CIRCLE ( 'NONE', #72, 0.3125000000000000000 ) ;
#298 = ORIENTED_EDGE ( 'NONE', *, *, #261, .F. ) ;
#299 = DIMENSIONAL_EXPONENTS ( 1.000000000000000000, 0.000000000000000000, 0.000000000000000000, 0.000000000000000000, 0.000000000000000000, 0.000000000000000000, 0.000000000000000000 ) ;
#300 = CYLINDRICAL_SURFACE ( 'NONE', #148, 0.3124999999999999445 ) ;
#301 = SURFACE_STYLE_FILL_AREA ( #115 ) ;
#302 = ORIENTED_EDGE ( 'NONE', *, *, #191, .F. ) ;
#303 = SURFACE_STYLE_FILL_AREA ( #276 ) ;
#304 = ORIENTED_EDGE ( 'NONE', *, *, #137, .F. ) ;
#305 = AXIS2_PLACEMENT_3D ( 'NONE', #94, #64, #143 ) ;
#306 = ORIENTED_EDGE ( 'NONE', *, *, #61, .F. ) ;
#307 = CARTESIAN_POINT ( 'NONE',  ( 0.000000000000000000, 0.7499999999999998890, 0.000000000000000000 ) ) ;
#308 =( NAMED_UNIT ( * ) SI_UNIT ( $, .STERADIAN. ) SOLID_ANGLE_UNIT ( ) );
#309 = UNCERTAINTY_MEASURE_WITH_UNIT (LENGTH_MEASURE( 1.000000000000000082E-05 ), #102, 'distance_accuracy_value', 'NONE');
ENDSEC;
END-ISO-10303-21;
