ISO-10303-21;
HEADER;
FILE_DESCRIPTION (( 'STEP AP214' ),
    '1' );
FILE_NAME ('44347.STEP',
    '2023-06-22T20:12:16',
    ( '' ),
    ( '' ),
    'SwSTEP 2.0',
    'SolidWorks 2023',
    '' );
FILE_SCHEMA (( 'AUTOMOTIVE_DESIGN' ));
ENDSEC;

DATA;
#1 = APPLICATION_PROTOCOL_DEFINITION ( 'draft international standard', 'automotive_design', 1998, #47 ) ;
#2 = SURFACE_SIDE_STYLE ('',( #31 ) ) ;
#3 = PRODUCT_RELATED_PRODUCT_CATEGORY ( 'part', '', ( #29 ) ) ;
#4 = DIRECTION ( 'NONE',  ( -0.000000000000000000, -1.000000000000000000, -0.000000000000000000 ) ) ;
#5 = ORIENTED_EDGE ( 'NONE', *, *, #277, .T. ) ;
#6 = CIRCLE ( 'NONE', #136, 0.3125000000000000000 ) ;
#7 =( GEOMETRIC_REPRESENTATION_CONTEXT ( 3 ) GLOBAL_UNCERTAINTY_ASSIGNED_CONTEXT ( ( #221 ) ) GLOBAL_UNIT_ASSIGNED_CONTEXT ( ( #111, #172, #252 ) ) REPRESENTATION_CONTEXT ( 'NONE', 'WORKASPACE' ) );
#8 = CYLINDRICAL_SURFACE ( 'NONE', #206, 0.3125000000000000000 ) ;
#9 = CIRCLE ( 'NONE', #78, 0.3125000000000000000 ) ;
#10 = PRESENTATION_STYLE_ASSIGNMENT (( #66 ) ) ;
#11 =( LENGTH_UNIT ( ) NAMED_UNIT ( * ) SI_UNIT ( $, .METRE. ) );
#12 = DIMENSIONAL_EXPONENTS ( 1.000000000000000000, 0.000000000000000000, 0.000000000000000000, 0.000000000000000000, 0.000000000000000000, 0.000000000000000000, 0.000000000000000000 ) ;
#13 = CARTESIAN_POINT ( 'NONE',  ( -0.3125000000000000555, 4.000000000000000000, 0.000000000000000000 ) ) ;
#14 = STYLED_ITEM ( 'NONE', ( #263 ), #115 ) ;
#15 = PRESENTATION_STYLE_ASSIGNMENT (( #40 ) ) ;
#16 = FACE_OUTER_BOUND ( 'NONE', #151, .T. ) ;
#17 = SURFACE_STYLE_FILL_AREA ( #43 ) ;
#18 = ADVANCED_FACE ( 'NONE', ( #175 ), #45, .T. ) ;
#19 = UNCERTAINTY_MEASURE_WITH_UNIT (LENGTH_MEASURE( 1.000000000000000082E-05 ), #205, 'distance_accuracy_value', 'NONE');
#20 = ORIENTED_EDGE ( 'NONE', *, *, #249, .F. ) ;
#21 = DIRECTION ( 'NONE',  ( 0.000000000000000000, 0.000000000000000000, -1.000000000000000000 ) ) ;
#22 =( GEOMETRIC_REPRESENTATION_CONTEXT ( 3 ) GLOBAL_UNCERTAINTY_ASSIGNED_CONTEXT ( ( #165 ) ) GLOBAL_UNIT_ASSIGNED_CONTEXT ( ( #292, #73, #125 ) ) REPRESENTATION_CONTEXT ( 'NONE', 'WORKASPACE' ) );
#23 = DIRECTION ( 'NONE',  ( -0.000000000000000000, -1.000000000000000000, -0.000000000000000000 ) ) ;
#24 = FILL_AREA_STYLE_COLOUR ( '', #283 ) ;
#25 = FILL_AREA_STYLE_COLOUR ( '', #282 ) ;
#26 = PRODUCT_CONTEXT ( 'NONE', #47, 'mechanical' ) ;
#27 = MECHANICAL_DESIGN_GEOMETRIC_PRESENTATION_REPRESENTATION (  '', ( #153 ), #7 ) ;
#28 = PRESENTATION_LAYER_ASSIGNMENT (  '', '', ( #200 ) ) ;
#29 = PRODUCT ( '44347', '44347', '', ( #26 ) ) ;
#30 = ADVANCED_FACE ( 'NONE', ( #62 ), #245, .T. ) ;
#31 = SURFACE_STYLE_FILL_AREA ( #35 ) ;
#32 = PRODUCT_DEFINITION_SHAPE ( 'NONE', 'NONE',  #59 ) ;
#33 = VERTEX_POINT ( 'NONE', #279 ) ;
#34 = ORIENTED_EDGE ( 'NONE', *, *, #237, .F. ) ;
#35 = FILL_AREA_STYLE ('',( #190 ) ) ;
#36 = DIMENSIONAL_EXPONENTS ( 1.000000000000000000, 0.000000000000000000, 0.000000000000000000, 0.000000000000000000, 0.000000000000000000, 0.000000000000000000, 0.000000000000000000 ) ;
#37 = DIRECTION ( 'NONE',  ( -3.265724797726275178E-17, 1.000000000000000000, -0.000000000000000000 ) ) ;
#38 = AXIS2_PLACEMENT_3D ( 'NONE', #54, #160, #236 ) ;
#39 =( CONVERSION_BASED_UNIT ( 'INCH', #202 ) LENGTH_UNIT ( ) NAMED_UNIT ( #82 ) );
#40 = SURFACE_STYLE_USAGE ( .BOTH. , #246 ) ;
#41 = FACE_OUTER_BOUND ( 'NONE', #159, .T. ) ;
#42 = DIMENSIONAL_EXPONENTS ( 1.000000000000000000, 0.000000000000000000, 0.000000000000000000, 0.000000000000000000, 0.000000000000000000, 0.000000000000000000, 0.000000000000000000 ) ;
#43 = FILL_AREA_STYLE ('',( #248 ) ) ;
#44 = DIRECTION ( 'NONE',  ( 0.000000000000000000, -1.000000000000000000, -0.000000000000000000 ) ) ;
#45 = PLANE ( 'NONE',  #294 ) ;
#46 = CIRCLE ( 'NONE', #177, 0.3125000000000000555 ) ;
#47 = APPLICATION_CONTEXT ( 'automotive_design' ) ;
#48 =( CONVERSION_BASED_UNIT ( 'INCH', #233 ) LENGTH_UNIT ( ) NAMED_UNIT ( #12 ) );
#49 = PRESENTATION_STYLE_ASSIGNMENT (( #183 ) ) ;
#50 = VECTOR ( 'NONE', #114, 39.37007874015748143 ) ;
#51 = CARTESIAN_POINT ( 'NONE',  ( 0.000000000000000000, 0.000000000000000000, -0.3125000000000000000 ) ) ;
#52 = EDGE_LOOP ( 'NONE', ( #297, #270, #275, #231 ) ) ;
#53 = DIRECTION ( 'NONE',  ( -0.000000000000000000, -1.000000000000000000, -0.000000000000000000 ) ) ;
#54 = CARTESIAN_POINT ( 'NONE',  ( 0.000000000000000000, 0.000000000000000000, 0.000000000000000000 ) ) ;
#55 = MANIFOLD_SOLID_BREP ( 'Revolve - Cutting Edge', #123 ) ;
#56 = ORIENTED_EDGE ( 'NONE', *, *, #120, .F. ) ;
#57 =( NAMED_UNIT ( * ) SI_UNIT ( $, .STERADIAN. ) SOLID_ANGLE_UNIT ( ) );
#58 = LINE ( 'NONE', #13, #50 ) ;
#59 = PRODUCT_DEFINITION ( 'UNKNOWN', '', #86, #273 ) ;
#60 = LENGTH_MEASURE_WITH_UNIT ( LENGTH_MEASURE( 0.02539999999999999897 ), #11 );
#61 = MECHANICAL_DESIGN_GEOMETRIC_PRESENTATION_REPRESENTATION (  '', ( #200 ), #170 ) ;
#62 = FACE_OUTER_BOUND ( 'NONE', #211, .T. ) ;
#63 = MANIFOLD_SOLID_BREP ( 'Revolve - Tool Body (Straight Shanked)', #71 ) ;
#64 = CARTESIAN_POINT ( 'NONE',  ( 0.000000000000000000, 0.000000000000000000, 0.000000000000000000 ) ) ;
#65 = FILL_AREA_STYLE ('',( #281 ) ) ;
#66 = SURFACE_STYLE_USAGE ( .BOTH. , #68 ) ;
#67 =( LENGTH_UNIT ( ) NAMED_UNIT ( * ) SI_UNIT ( $, .METRE. ) );
#68 = SURFACE_SIDE_STYLE ('',( #222 ) ) ;
#69 =( CONVERSION_BASED_UNIT ( 'INCH', #230 ) LENGTH_UNIT ( ) NAMED_UNIT ( #42 ) );
#70 = LINE ( 'NONE', #93, #214 ) ;
#71 = CLOSED_SHELL ( 'NONE', ( #30, #150, #243, #217 ) ) ;
#72 = CIRCLE ( 'NONE', #113, 0.3125000000000000555 ) ;
#73 =( NAMED_UNIT ( * ) PLANE_ANGLE_UNIT ( ) SI_UNIT ( $, .RADIAN. ) );
#74 = STYLED_ITEM ( 'NONE', ( #259 ), #63 ) ;
#75 = CYLINDRICAL_SURFACE ( 'NONE', #208, 0.3125000000000000000 ) ;
#76 = CARTESIAN_POINT ( 'NONE',  ( 3.827021247335478926E-17, 2.125000000000000000, 0.3125000000000000000 ) ) ;
#77 = CARTESIAN_POINT ( 'NONE',  ( 0.000000000000000000, 0.000000000000000000, 0.000000000000000000 ) ) ;
#78 = AXIS2_PLACEMENT_3D ( 'NONE', #250, #81, #87 ) ;
#79 = VERTEX_POINT ( 'NONE', #51 ) ;
#80 = EDGE_CURVE ( 'NONE', #167, #219, #144, .T. ) ;
#81 = DIRECTION ( 'NONE',  ( -3.265724797726275178E-17, 1.000000000000000000, -0.000000000000000000 ) ) ;
#82 = DIMENSIONAL_EXPONENTS ( 1.000000000000000000, 0.000000000000000000, 0.000000000000000000, 0.000000000000000000, 0.000000000000000000, 0.000000000000000000, 0.000000000000000000 ) ;
#83 = DIRECTION ( 'NONE',  ( -3.265724797726275178E-17, 1.000000000000000000, 0.000000000000000000 ) ) ;
#84 = CARTESIAN_POINT ( 'NONE',  ( 0.000000000000000000, 2.125000000000000000, 0.000000000000000000 ) ) ;
#85 = PRESENTATION_LAYER_ASSIGNMENT (  '', '', ( #153 ) ) ;
#86 = PRODUCT_DEFINITION_FORMATION_WITH_SPECIFIED_SOURCE ( 'ANY', '', #29, .NOT_KNOWN. ) ;
#87 = DIRECTION ( 'NONE',  ( -1.000000000000000000, 0.000000000000000000, 0.000000000000000000 ) ) ;
#88 = CARTESIAN_POINT ( 'NONE',  ( 3.827021247335478926E-17, 0.000000000000000000, 0.3125000000000000000 ) ) ;
#89 = LENGTH_MEASURE_WITH_UNIT ( LENGTH_MEASURE( 0.02539999999999999897 ), #229 );
#90 = DIRECTION ( 'NONE',  ( 0.000000000000000000, 0.000000000000000000, -1.000000000000000000 ) ) ;
#91 = FILL_AREA_STYLE ('',( #244 ) ) ;
#92 = DIRECTION ( 'NONE',  ( -0.000000000000000000, -1.000000000000000000, -0.000000000000000000 ) ) ;
#93 = CARTESIAN_POINT ( 'NONE',  ( 0.000000000000000000, 0.000000000000000000, -0.3125000000000000000 ) ) ;
#94 = SURFACE_STYLE_USAGE ( .BOTH. , #155 ) ;
#95 = PRESENTATION_LAYER_ASSIGNMENT (  '', '', ( #14 ) ) ;
#96 = SURFACE_STYLE_FILL_AREA ( #285 ) ;
#97 =( LENGTH_UNIT ( ) NAMED_UNIT ( * ) SI_UNIT ( $, .METRE. ) );
#98 =( NAMED_UNIT ( * ) PLANE_ANGLE_UNIT ( ) SI_UNIT ( $, .RADIAN. ) );
#99 = SURFACE_STYLE_USAGE ( .BOTH. , #2 ) ;
#100 = ORIENTED_EDGE ( 'NONE', *, *, #185, .T. ) ;
#101 = AXIS2_PLACEMENT_3D ( 'NONE', #207, #92, #90 ) ;
#102 = DIRECTION ( 'NONE',  ( -1.000000000000000000, 0.000000000000000000, 0.000000000000000000 ) ) ;
#103 = VERTEX_POINT ( 'NONE', #140 ) ;
#104 = FACE_OUTER_BOUND ( 'NONE', #276, .T. ) ;
#105 = AXIS2_PLACEMENT_3D ( 'NONE', #64, #300, #166 ) ;
#106 = CARTESIAN_POINT ( 'NONE',  ( -6.123233995736766036E-17, 4.000000000000000000, 0.000000000000000000 ) ) ;
#107 = ORIENTED_EDGE ( 'NONE', *, *, #293, .T. ) ;
#108 = CARTESIAN_POINT ( 'NONE',  ( 1.666399758513175262E-34, 2.125000000000000000, 0.000000000000000000 ) ) ;
#109 = SURFACE_STYLE_USAGE ( .BOTH. , #118 ) ;
#110 = CARTESIAN_POINT ( 'NONE',  ( 0.000000000000000000, 0.000000000000000000, 0.000000000000000000 ) ) ;
#111 =( CONVERSION_BASED_UNIT ( 'INCH', #89 ) LENGTH_UNIT ( ) NAMED_UNIT ( #220 ) );
#112 = AXIS2_PLACEMENT_3D ( 'NONE', #131, #145, #199 ) ;
#113 = AXIS2_PLACEMENT_3D ( 'NONE', #174, #278, #298 ) ;
#114 = DIRECTION ( 'NONE',  ( -3.265724797726275178E-17, 1.000000000000000000, -0.000000000000000000 ) ) ;
#115 = ADVANCED_FACE ( 'NONE', ( #104 ), #75, .T. ) ;
#116 = CYLINDRICAL_SURFACE ( 'NONE', #130, 0.3125000000000000000 ) ;
#117 = CARTESIAN_POINT ( 'NONE',  ( 0.3125000000000000000, 2.125000000000000000, 3.827021247335478926E-17 ) ) ;
#118 = SURFACE_SIDE_STYLE ('',( #196 ) ) ;
#119 = EDGE_LOOP ( 'NONE', ( #34, #189, #291, #269 ) ) ;
#120 = EDGE_CURVE ( 'NONE', #126, #103, #164, .T. ) ;
#121 =( GEOMETRIC_REPRESENTATION_CONTEXT ( 3 ) GLOBAL_UNCERTAINTY_ASSIGNED_CONTEXT ( ( #178 ) ) GLOBAL_UNIT_ASSIGNED_CONTEXT ( ( #48, #234, #284 ) ) REPRESENTATION_CONTEXT ( 'NONE', 'WORKASPACE' ) );
#122 = DIRECTION ( 'NONE',  ( -3.265724797726275178E-17, 1.000000000000000000, -0.000000000000000000 ) ) ;
#123 = CLOSED_SHELL ( 'NONE', ( #115, #18, #257, #156 ) ) ;
#124 = AXIS2_PLACEMENT_3D ( 'NONE', #108, #83, #149 ) ;
#125 =( NAMED_UNIT ( * ) SI_UNIT ( $, .STERADIAN. ) SOLID_ANGLE_UNIT ( ) );
#126 = VERTEX_POINT ( 'NONE', #76 ) ;
#127 = VERTEX_POINT ( 'NONE', #266 ) ;
#128 =( CONVERSION_BASED_UNIT ( 'INCH', #162 ) LENGTH_UNIT ( ) NAMED_UNIT ( #242 ) );
#129 = MECHANICAL_DESIGN_GEOMETRIC_PRESENTATION_REPRESENTATION (  '', ( #187 ), #289 ) ;
#130 = AXIS2_PLACEMENT_3D ( 'NONE', #180, #23, #21 ) ;
#131 = CARTESIAN_POINT ( 'NONE',  ( -6.123233995736766036E-17, 4.000000000000000000, 0.000000000000000000 ) ) ;
#132 = PLANE ( 'NONE',  #232 ) ;
#133 = COLOUR_RGB ( '',1.000000000000000000, 0.000000000000000000, 0.000000000000000000 ) ;
#134 = SURFACE_SIDE_STYLE ('',( #154 ) ) ;
#135 = EDGE_CURVE ( 'NONE', #33, #79, #6, .T. ) ;
#136 = AXIS2_PLACEMENT_3D ( 'NONE', #77, #139, #296 ) ;
#137 = EDGE_CURVE ( 'NONE', #219, #167, #9, .T. ) ;
#138 = ORIENTED_EDGE ( 'NONE', *, *, #185, .F. ) ;
#139 = DIRECTION ( 'NONE',  ( -0.000000000000000000, -1.000000000000000000, -0.000000000000000000 ) ) ;
#140 = CARTESIAN_POINT ( 'NONE',  ( 0.000000000000000000, 2.125000000000000000, -0.3125000000000000000 ) ) ;
#141 = ORIENTED_EDGE ( 'NONE', *, *, #135, .T. ) ;
#142 = DIRECTION ( 'NONE',  ( -1.000000000000000000, 0.000000000000000000, 0.000000000000000000 ) ) ;
#143 = DIRECTION ( 'NONE',  ( 0.000000000000000000, -0.000000000000000000, 1.000000000000000000 ) ) ;
#144 = CIRCLE ( 'NONE', #176, 0.3125000000000000000 ) ;
#145 = DIRECTION ( 'NONE',  ( -3.265724797726275178E-17, 1.000000000000000000, -0.000000000000000000 ) ) ;
#146 = CARTESIAN_POINT ( 'NONE',  ( -0.3125000000000001665, 4.000000000000000000, 0.000000000000000000 ) ) ;
#147 = PLANE ( 'NONE',  #157 ) ;
#148 = VECTOR ( 'NONE', #203, 39.37007874015748143 ) ;
#149 = DIRECTION ( 'NONE',  ( -1.000000000000000000, -3.265724797726275178E-17, 0.000000000000000000 ) ) ;
#150 = ADVANCED_FACE ( 'NONE', ( #16 ), #247, .F. ) ;
#151 = EDGE_LOOP ( 'NONE', ( #262, #223 ) ) ;
#152 = DIRECTION ( 'NONE',  ( -0.000000000000000000, -1.000000000000000000, -0.000000000000000000 ) ) ;
#153 = STYLED_ITEM ( 'NONE', ( #15 ), #55 ) ;
#154 = SURFACE_STYLE_FILL_AREA ( #256 ) ;
#155 = SURFACE_SIDE_STYLE ('',( #96 ) ) ;
#156 = ADVANCED_FACE ( 'NONE', ( #171 ), #147, .T. ) ;
#157 = AXIS2_PLACEMENT_3D ( 'NONE', #110, #44, #306 ) ;
#158 = CARTESIAN_POINT ( 'NONE',  ( 0.000000000000000000, 2.125000000000000000, 0.000000000000000000 ) ) ;
#159 = EDGE_LOOP ( 'NONE', ( #100, #194 ) ) ;
#160 = DIRECTION ( 'NONE',  ( 0.000000000000000000, 0.000000000000000000, 1.000000000000000000 ) ) ;
#161 = SHAPE_DEFINITION_REPRESENTATION ( #32, #255 ) ;
#162 = LENGTH_MEASURE_WITH_UNIT ( LENGTH_MEASURE( 0.02539999999999999897 ), #97 );
#163 = ORIENTED_EDGE ( 'NONE', *, *, #182, .F. ) ;
#164 = CIRCLE ( 'NONE', #184, 0.3125000000000000000 ) ;
#165 = UNCERTAINTY_MEASURE_WITH_UNIT (LENGTH_MEASURE( 1.000000000000000082E-05 ), #292, 'distance_accuracy_value', 'NONE');
#166 = DIRECTION ( 'NONE',  ( 0.000000000000000000, 0.000000000000000000, -1.000000000000000000 ) ) ;
#167 = VERTEX_POINT ( 'NONE', #173 ) ;
#168 = DIRECTION ( 'NONE',  ( 0.000000000000000000, 1.000000000000000000, 0.000000000000000000 ) ) ;
#169 = COLOUR_RGB ( '',1.000000000000000000, 0.000000000000000000, 0.000000000000000000 ) ;
#170 =( GEOMETRIC_REPRESENTATION_CONTEXT ( 3 ) GLOBAL_UNCERTAINTY_ASSIGNED_CONTEXT ( ( #304 ) ) GLOBAL_UNIT_ASSIGNED_CONTEXT ( ( #39, #274, #198 ) ) REPRESENTATION_CONTEXT ( 'NONE', 'WORKASPACE' ) );
#171 = FACE_OUTER_BOUND ( 'NONE', #295, .T. ) ;
#172 =( NAMED_UNIT ( * ) PLANE_ANGLE_UNIT ( ) SI_UNIT ( $, .RADIAN. ) );
#173 = CARTESIAN_POINT ( 'NONE',  ( -0.3125000000000000000, 2.125000000000000000, 0.000000000000000000 ) ) ;
#174 = CARTESIAN_POINT ( 'NONE',  ( -6.123233995736766036E-17, 4.000000000000000000, 0.000000000000000000 ) ) ;
#175 = FACE_OUTER_BOUND ( 'NONE', #267, .T. ) ;
#176 = AXIS2_PLACEMENT_3D ( 'NONE', #179, #216, #102 ) ;
#177 = AXIS2_PLACEMENT_3D ( 'NONE', #280, #37, #226 ) ;
#178 = UNCERTAINTY_MEASURE_WITH_UNIT (LENGTH_MEASURE( 1.000000000000000082E-05 ), #48, 'distance_accuracy_value', 'NONE');
#179 = CARTESIAN_POINT ( 'NONE',  ( 0.000000000000000000, 2.125000000000000000, 0.000000000000000000 ) ) ;
#180 = CARTESIAN_POINT ( 'NONE',  ( 0.000000000000000000, 0.000000000000000000, 0.000000000000000000 ) ) ;
#181 = FACE_OUTER_BOUND ( 'NONE', #119, .T. ) ;
#182 = EDGE_CURVE ( 'NONE', #79, #33, #268, .T. ) ;
#183 = SURFACE_STYLE_USAGE ( .BOTH. , #134 ) ;
#184 = AXIS2_PLACEMENT_3D ( 'NONE', #158, #53, #239 ) ;
#185 = EDGE_CURVE ( 'NONE', #215, #127, #72, .T. ) ;
#186 = LENGTH_MEASURE_WITH_UNIT ( LENGTH_MEASURE( 0.02539999999999999897 ), #218 );
#187 = STYLED_ITEM ( 'NONE', ( #302 ), #18 ) ;
#188 = DIRECTION ( 'NONE',  ( 0.000000000000000000, 0.000000000000000000, -1.000000000000000000 ) ) ;
#189 = ORIENTED_EDGE ( 'NONE', *, *, #120, .T. ) ;
#190 = FILL_AREA_STYLE_COLOUR ( '', #261 ) ;
#191 = ORIENTED_EDGE ( 'NONE', *, *, #293, .F. ) ;
#192 = MECHANICAL_DESIGN_GEOMETRIC_PRESENTATION_REPRESENTATION (  '', ( #14 ), #22 ) ;
#193 = DIRECTION ( 'NONE',  ( -3.265724797726275178E-17, 1.000000000000000000, -0.000000000000000000 ) ) ;
#194 = ORIENTED_EDGE ( 'NONE', *, *, #210, .T. ) ;
#195 =( LENGTH_UNIT ( ) NAMED_UNIT ( * ) SI_UNIT ( $, .METRE. ) );
#196 = SURFACE_STYLE_FILL_AREA ( #65 ) ;
#197 =( NAMED_UNIT ( * ) SI_UNIT ( $, .STERADIAN. ) SOLID_ANGLE_UNIT ( ) );
#198 =( NAMED_UNIT ( * ) SI_UNIT ( $, .STERADIAN. ) SOLID_ANGLE_UNIT ( ) );
#199 = DIRECTION ( 'NONE',  ( -1.000000000000000000, 0.000000000000000000, 0.000000000000000000 ) ) ;
#200 = STYLED_ITEM ( 'NONE', ( #10 ), #156 ) ;
#201 = UNCERTAINTY_MEASURE_WITH_UNIT (LENGTH_MEASURE( 1.000000000000000082E-05 ), #69, 'distance_accuracy_value', 'NONE');
#202 = LENGTH_MEASURE_WITH_UNIT ( LENGTH_MEASURE( 0.02539999999999999897 ), #195 );
#203 = DIRECTION ( 'NONE',  ( -0.000000000000000000, -1.000000000000000000, -0.000000000000000000 ) ) ;
#204 =( NAMED_UNIT ( * ) SI_UNIT ( $, .STERADIAN. ) SOLID_ANGLE_UNIT ( ) );
#205 =( CONVERSION_BASED_UNIT ( 'INCH', #60 ) LENGTH_UNIT ( ) NAMED_UNIT ( #251 ) );
#206 = AXIS2_PLACEMENT_3D ( 'NONE', #106, #193, #142 ) ;
#207 = CARTESIAN_POINT ( 'NONE',  ( 0.000000000000000000, 2.125000000000000000, 0.000000000000000000 ) ) ;
#208 = AXIS2_PLACEMENT_3D ( 'NONE', #241, #4, #188 ) ;
#209 = CIRCLE ( 'NONE', #101, 0.3125000000000000000 ) ;
#210 = EDGE_CURVE ( 'NONE', #127, #215, #46, .T. ) ;
#211 = EDGE_LOOP ( 'NONE', ( #254, #5, #138, #240 ) ) ;
#212 = COLOUR_RGB ( '',0.7921568627450980005, 0.8196078431372548767, 0.9333333333333333481 ) ;
#213 =( NAMED_UNIT ( * ) PLANE_ANGLE_UNIT ( ) SI_UNIT ( $, .RADIAN. ) );
#214 = VECTOR ( 'NONE', #152, 39.37007874015748143 ) ;
#215 = VERTEX_POINT ( 'NONE', #146 ) ;
#216 = DIRECTION ( 'NONE',  ( -3.265724797726275178E-17, 1.000000000000000000, -0.000000000000000000 ) ) ;
#217 = ADVANCED_FACE ( 'NONE', ( #41 ), #132, .F. ) ;
#218 =( LENGTH_UNIT ( ) NAMED_UNIT ( * ) SI_UNIT ( $, .METRE. ) );
#219 = VERTEX_POINT ( 'NONE', #117 ) ;
#220 = DIMENSIONAL_EXPONENTS ( 1.000000000000000000, 0.000000000000000000, 0.000000000000000000, 0.000000000000000000, 0.000000000000000000, 0.000000000000000000, 0.000000000000000000 ) ;
#221 = UNCERTAINTY_MEASURE_WITH_UNIT (LENGTH_MEASURE( 1.000000000000000082E-05 ), #111, 'distance_accuracy_value', 'NONE');
#222 = SURFACE_STYLE_FILL_AREA ( #91 ) ;
#223 = ORIENTED_EDGE ( 'NONE', *, *, #137, .F. ) ;
#224 = VECTOR ( 'NONE', #122, 39.37007874015748143 ) ;
#225 = EDGE_CURVE ( 'NONE', #167, #215, #58, .T. ) ;
#226 = DIRECTION ( 'NONE',  ( -1.000000000000000000, 0.000000000000000000, 0.000000000000000000 ) ) ;
#227 = DIRECTION ( 'NONE',  ( 3.265724797726275178E-17, -1.000000000000000000, 0.000000000000000000 ) ) ;
#228 = CARTESIAN_POINT ( 'NONE',  ( 0.3125000000000000000, 4.000000000000000000, 0.000000000000000000 ) ) ;
#229 =( LENGTH_UNIT ( ) NAMED_UNIT ( * ) SI_UNIT ( $, .METRE. ) );
#230 = LENGTH_MEASURE_WITH_UNIT ( LENGTH_MEASURE( 0.02539999999999999897 ), #67 );
#231 = ORIENTED_EDGE ( 'NONE', *, *, #210, .F. ) ;
#232 = AXIS2_PLACEMENT_3D ( 'NONE', #228, #227, #271 ) ;
#233 = LENGTH_MEASURE_WITH_UNIT ( LENGTH_MEASURE( 0.02539999999999999897 ), #308 );
#234 =( NAMED_UNIT ( * ) PLANE_ANGLE_UNIT ( ) SI_UNIT ( $, .RADIAN. ) );
#235 = APPLICATION_CONTEXT ( 'automotive_design' ) ;
#236 = DIRECTION ( 'NONE',  ( 1.000000000000000000, 0.000000000000000000, 0.000000000000000000 ) ) ;
#237 = EDGE_CURVE ( 'NONE', #126, #33, #303, .T. ) ;
#238 = PRESENTATION_LAYER_ASSIGNMENT (  '', '', ( #74 ) ) ;
#239 = DIRECTION ( 'NONE',  ( 0.000000000000000000, 0.000000000000000000, -1.000000000000000000 ) ) ;
#240 = ORIENTED_EDGE ( 'NONE', *, *, #225, .F. ) ;
#241 = CARTESIAN_POINT ( 'NONE',  ( 0.000000000000000000, 0.000000000000000000, 0.000000000000000000 ) ) ;
#242 = DIMENSIONAL_EXPONENTS ( 1.000000000000000000, 0.000000000000000000, 0.000000000000000000, 0.000000000000000000, 0.000000000000000000, 0.000000000000000000, 0.000000000000000000 ) ;
#243 = ADVANCED_FACE ( 'NONE', ( #253 ), #8, .T. ) ;
#244 = FILL_AREA_STYLE_COLOUR ( '', #133 ) ;
#245 = CYLINDRICAL_SURFACE ( 'NONE', #112, 0.3125000000000000000 ) ;
#246 = SURFACE_SIDE_STYLE ('',( #17 ) ) ;
#247 = PLANE ( 'NONE',  #124 ) ;
#248 = FILL_AREA_STYLE_COLOUR ( '', #212 ) ;
#249 = EDGE_CURVE ( 'NONE', #103, #79, #70, .T. ) ;
#250 = CARTESIAN_POINT ( 'NONE',  ( 0.000000000000000000, 2.125000000000000000, 0.000000000000000000 ) ) ;
#251 = DIMENSIONAL_EXPONENTS ( 1.000000000000000000, 0.000000000000000000, 0.000000000000000000, 0.000000000000000000, 0.000000000000000000, 0.000000000000000000, 0.000000000000000000 ) ;
#252 =( NAMED_UNIT ( * ) SI_UNIT ( $, .STERADIAN. ) SOLID_ANGLE_UNIT ( ) );
#253 = FACE_OUTER_BOUND ( 'NONE', #52, .T. ) ;
#254 = ORIENTED_EDGE ( 'NONE', *, *, #80, .T. ) ;
#255 = ADVANCED_BREP_SHAPE_REPRESENTATION ( '44347', ( #55, #63, #38 ), #307 ) ;
#256 = FILL_AREA_STYLE ('',( #24 ) ) ;
#257 = ADVANCED_FACE ( 'NONE', ( #181 ), #116, .T. ) ;
#258 = PRESENTATION_LAYER_ASSIGNMENT (  '', '', ( #187 ) ) ;
#259 = PRESENTATION_STYLE_ASSIGNMENT (( #94 ) ) ;
#260 = APPLICATION_PROTOCOL_DEFINITION ( 'draft international standard', 'automotive_design', 1998, #235 ) ;
#261 = COLOUR_RGB ( '',1.000000000000000000, 0.000000000000000000, 0.000000000000000000 ) ;
#262 = ORIENTED_EDGE ( 'NONE', *, *, #80, .F. ) ;
#263 = PRESENTATION_STYLE_ASSIGNMENT (( #99 ) ) ;
#264 = ORIENTED_EDGE ( 'NONE', *, *, #182, .T. ) ;
#265 = UNCERTAINTY_MEASURE_WITH_UNIT (LENGTH_MEASURE( 1.000000000000000082E-05 ), #128, 'distance_accuracy_value', 'NONE');
#266 = CARTESIAN_POINT ( 'NONE',  ( 0.3125000000000000000, 4.000000000000000000, 3.827021247335478926E-17 ) ) ;
#267 = EDGE_LOOP ( 'NONE', ( #191, #56 ) ) ;
#268 = CIRCLE ( 'NONE', #105, 0.3125000000000000000 ) ;
#269 = ORIENTED_EDGE ( 'NONE', *, *, #135, .F. ) ;
#270 = ORIENTED_EDGE ( 'NONE', *, *, #137, .T. ) ;
#271 = DIRECTION ( 'NONE',  ( 1.000000000000000000, 3.265724797726275178E-17, 0.000000000000000000 ) ) ;
#272 =( NAMED_UNIT ( * ) PLANE_ANGLE_UNIT ( ) SI_UNIT ( $, .RADIAN. ) );
#273 = PRODUCT_DEFINITION_CONTEXT ( 'detailed design', #235, 'design' ) ;
#274 =( NAMED_UNIT ( * ) PLANE_ANGLE_UNIT ( ) SI_UNIT ( $, .RADIAN. ) );
#275 = ORIENTED_EDGE ( 'NONE', *, *, #225, .T. ) ;
#276 = EDGE_LOOP ( 'NONE', ( #107, #299, #163, #20 ) ) ;
#277 = EDGE_CURVE ( 'NONE', #219, #127, #305, .T. ) ;
#278 = DIRECTION ( 'NONE',  ( -3.265724797726275178E-17, 1.000000000000000000, -0.000000000000000000 ) ) ;
#279 = CARTESIAN_POINT ( 'NONE',  ( 3.827021247335478926E-17, 0.000000000000000000, 0.3125000000000000000 ) ) ;
#280 = CARTESIAN_POINT ( 'NONE',  ( -6.123233995736766036E-17, 4.000000000000000000, 0.000000000000000000 ) ) ;
#281 = FILL_AREA_STYLE_COLOUR ( '', #169 ) ;
#282 = COLOUR_RGB ( '',0.7921568627450980005, 0.8196078431372548767, 0.9333333333333333481 ) ;
#283 = COLOUR_RGB ( '',1.000000000000000000, 0.000000000000000000, 0.000000000000000000 ) ;
#284 =( NAMED_UNIT ( * ) SI_UNIT ( $, .STERADIAN. ) SOLID_ANGLE_UNIT ( ) );
#285 = FILL_AREA_STYLE ('',( #25 ) ) ;
#286 = CARTESIAN_POINT ( 'NONE',  ( 0.3124999999999999445, 4.000000000000000000, 3.827021247335478926E-17 ) ) ;
#287 =( GEOMETRIC_REPRESENTATION_CONTEXT ( 3 ) GLOBAL_UNCERTAINTY_ASSIGNED_CONTEXT ( ( #265 ) ) GLOBAL_UNIT_ASSIGNED_CONTEXT ( ( #128, #213, #57 ) ) REPRESENTATION_CONTEXT ( 'NONE', 'WORKASPACE' ) );
#288 = PRESENTATION_LAYER_ASSIGNMENT (  '', '', ( #309 ) ) ;
#289 =( GEOMETRIC_REPRESENTATION_CONTEXT ( 3 ) GLOBAL_UNCERTAINTY_ASSIGNED_CONTEXT ( ( #19 ) ) GLOBAL_UNIT_ASSIGNED_CONTEXT ( ( #205, #272, #204 ) ) REPRESENTATION_CONTEXT ( 'NONE', 'WORKASPACE' ) );
#290 = MECHANICAL_DESIGN_GEOMETRIC_PRESENTATION_REPRESENTATION (  '', ( #309 ), #121 ) ;
#291 = ORIENTED_EDGE ( 'NONE', *, *, #249, .T. ) ;
#292 =( CONVERSION_BASED_UNIT ( 'INCH', #186 ) LENGTH_UNIT ( ) NAMED_UNIT ( #36 ) );
#293 = EDGE_CURVE ( 'NONE', #103, #126, #209, .T. ) ;
#294 = AXIS2_PLACEMENT_3D ( 'NONE', #84, #168, #143 ) ;
#295 = EDGE_LOOP ( 'NONE', ( #264, #141 ) ) ;
#296 = DIRECTION ( 'NONE',  ( 0.000000000000000000, 0.000000000000000000, -1.000000000000000000 ) ) ;
#297 = ORIENTED_EDGE ( 'NONE', *, *, #277, .F. ) ;
#298 = DIRECTION ( 'NONE',  ( -1.000000000000000000, 0.000000000000000000, 0.000000000000000000 ) ) ;
#299 = ORIENTED_EDGE ( 'NONE', *, *, #237, .T. ) ;
#300 = DIRECTION ( 'NONE',  ( -0.000000000000000000, -1.000000000000000000, -0.000000000000000000 ) ) ;
#301 = MECHANICAL_DESIGN_GEOMETRIC_PRESENTATION_REPRESENTATION (  '', ( #74 ), #287 ) ;
#302 = PRESENTATION_STYLE_ASSIGNMENT (( #109 ) ) ;
#303 = LINE ( 'NONE', #88, #148 ) ;
#304 = UNCERTAINTY_MEASURE_WITH_UNIT (LENGTH_MEASURE( 1.000000000000000082E-05 ), #39, 'distance_accuracy_value', 'NONE');
#305 = LINE ( 'NONE', #286, #224 ) ;
#306 = DIRECTION ( 'NONE',  ( 0.000000000000000000, 0.000000000000000000, -1.000000000000000000 ) ) ;
#307 =( GEOMETRIC_REPRESENTATION_CONTEXT ( 3 ) GLOBAL_UNCERTAINTY_ASSIGNED_CONTEXT ( ( #201 ) ) GLOBAL_UNIT_ASSIGNED_CONTEXT ( ( #69, #98, #197 ) ) REPRESENTATION_CONTEXT ( 'NONE', 'WORKASPACE' ) );
#308 =( LENGTH_UNIT ( ) NAMED_UNIT ( * ) SI_UNIT ( $, .METRE. ) );
#309 = STYLED_ITEM ( 'NONE', ( #49 ), #257 ) ;
ENDSEC;
END-ISO-10303-21;
