ISO-10303-21;
HEADER;
FILE_DESCRIPTION (( 'STEP AP214' ),
    '1' );
FILE_NAME ('82256.STEP',
    '2023-06-23T04:20:10',
    ( '' ),
    ( '' ),
    'SwSTEP 2.0',
    'SolidWorks 2023',
    '' );
FILE_SCHEMA (( 'AUTOMOTIVE_DESIGN' ));
ENDSEC;

DATA;
#1 = DIRECTION ( 'NONE',  ( -0.000000000000000000, -1.000000000000000000, -0.000000000000000000 ) ) ;
#2 = APPLICATION_CONTEXT ( 'automotive_design' ) ;
#3 = EDGE_CURVE ( 'NONE', #72, #188, #285, .T. ) ;
#4 = DIRECTION ( 'NONE',  ( 3.265724797726278260E-17, 1.000000000000000000, -0.000000000000000000 ) ) ;
#5 = MECHANICAL_DESIGN_GEOMETRIC_PRESENTATION_REPRESENTATION (  '', ( #151 ), #24 ) ;
#6 = ADVANCED_FACE ( 'NONE', ( #165 ), #21, .T. ) ;
#7 = FACE_OUTER_BOUND ( 'NONE', #356, .T. ) ;
#8 = SHAPE_DEFINITION_REPRESENTATION ( #164, #231 ) ;
#9 = DIRECTION ( 'NONE',  ( 0.000000000000000000, 1.000000000000000000, 0.000000000000000000 ) ) ;
#10 = UNCERTAINTY_MEASURE_WITH_UNIT (LENGTH_MEASURE( 1.000000000000000082E-05 ), #289, 'distance_accuracy_value', 'NONE');
#11 = ORIENTED_EDGE ( 'NONE', *, *, #290, .F. ) ;
#12 =( CONVERSION_BASED_UNIT ( 'INCH', #99 ) LENGTH_UNIT ( ) NAMED_UNIT ( #155 ) );
#13 = VECTOR ( 'NONE', #38, 39.37007874015748854 ) ;
#14 = EDGE_LOOP ( 'NONE', ( #186, #163, #282, #16 ) ) ;
#15 = MECHANICAL_DESIGN_GEOMETRIC_PRESENTATION_REPRESENTATION (  '', ( #286 ), #294 ) ;
#16 = ORIENTED_EDGE ( 'NONE', *, *, #30, .F. ) ;
#17 = AXIS2_PLACEMENT_3D ( 'NONE', #28, #312, #116 ) ;
#18 = CARTESIAN_POINT ( 'NONE',  ( 6.123233995736772199E-17, 2.500000000000000000, 0.000000000000000000 ) ) ;
#19 = ORIENTED_EDGE ( 'NONE', *, *, #297, .T. ) ;
#20 = CARTESIAN_POINT ( 'NONE',  ( 0.1250000000000000278, 2.500000000000000000, 1.530808498934191201E-17 ) ) ;
#21 = CYLINDRICAL_SURFACE ( 'NONE', #240, 0.1249999999999999584 ) ;
#22 = CARTESIAN_POINT ( 'NONE',  ( 1.404197054395280421E-18, 0.6679980216144647542, 0.000000000000000000 ) ) ;
#23 = ORIENTED_EDGE ( 'NONE', *, *, #340, .F. ) ;
#24 =( GEOMETRIC_REPRESENTATION_CONTEXT ( 3 ) GLOBAL_UNCERTAINTY_ASSIGNED_CONTEXT ( ( #234 ) ) GLOBAL_UNIT_ASSIGNED_CONTEXT ( ( #73, #248, #302 ) ) REPRESENTATION_CONTEXT ( 'NONE', 'WORKASPACE' ) );
#25 = CIRCLE ( 'NONE', #63, 0.1093500000000000028 ) ;
#26 = DIRECTION ( 'NONE',  ( 3.265724797726278260E-17, 1.000000000000000000, -0.000000000000000000 ) ) ;
#27 = DIRECTION ( 'NONE',  ( -1.000000000000000000, 0.000000000000000000, 0.000000000000000000 ) ) ;
#28 = CARTESIAN_POINT ( 'NONE',  ( 0.000000000000000000, 0.000000000000000000, 0.000000000000000000 ) ) ;
#29 = CARTESIAN_POINT ( 'NONE',  ( -0.1093500000000000028, 0.6250000000000000000, 0.000000000000000000 ) ) ;
#30 = EDGE_CURVE ( 'NONE', #132, #48, #218, .T. ) ;
#31 = CIRCLE ( 'NONE', #267, 0.1249999999999999306 ) ;
#32 =( NAMED_UNIT ( * ) SI_UNIT ( $, .STERADIAN. ) SOLID_ANGLE_UNIT ( ) );
#33 = DIRECTION ( 'NONE',  ( -0.000000000000000000, -1.000000000000000000, -0.000000000000000000 ) ) ;
#34 = SURFACE_STYLE_USAGE ( .BOTH. , #236 ) ;
#35 = SURFACE_STYLE_FILL_AREA ( #201 ) ;
#36 = ORIENTED_EDGE ( 'NONE', *, *, #297, .F. ) ;
#37 = EDGE_CURVE ( 'NONE', #330, #48, #159, .T. ) ;
#38 = DIRECTION ( 'NONE',  ( -0.3420201433256689350, 0.9396926207859082059, 0.000000000000000000 ) ) ;
#39 = DIRECTION ( 'NONE',  ( 0.000000000000000000, 0.000000000000000000, -1.000000000000000000 ) ) ;
#40 = EDGE_CURVE ( 'NONE', #104, #148, #211, .T. ) ;
#41 = SURFACE_STYLE_USAGE ( .BOTH. , #191 ) ;
#42 = ORIENTED_EDGE ( 'NONE', *, *, #279, .T. ) ;
#43 = DIRECTION ( 'NONE',  ( 3.265724797726278260E-17, 1.000000000000000000, -0.000000000000000000 ) ) ;
#44 = AXIS2_PLACEMENT_3D ( 'NONE', #237, #349, #147 ) ;
#45 = DIRECTION ( 'NONE',  ( 3.265724797726278260E-17, 1.000000000000000000, -0.000000000000000000 ) ) ;
#46 = SURFACE_STYLE_FILL_AREA ( #67 ) ;
#47 = DIMENSIONAL_EXPONENTS ( 1.000000000000000000, 0.000000000000000000, 0.000000000000000000, 0.000000000000000000, 0.000000000000000000, 0.000000000000000000, 0.000000000000000000 ) ;
#48 = VERTEX_POINT ( 'NONE', #335 ) ;
#49 = FILL_AREA_STYLE ('',( #332 ) ) ;
#50 = DIRECTION ( 'NONE',  ( 3.265724797726278260E-17, 1.000000000000000000, -0.000000000000000000 ) ) ;
#51 = PRESENTATION_LAYER_ASSIGNMENT (  '', '', ( #265 ) ) ;
#52 = PLANE ( 'NONE',  #331 ) ;
#53 = ORIENTED_EDGE ( 'NONE', *, *, #239, .F. ) ;
#54 =( NAMED_UNIT ( * ) SI_UNIT ( $, .STERADIAN. ) SOLID_ANGLE_UNIT ( ) );
#55 = AXIS2_PLACEMENT_3D ( 'NONE', #256, #4, #280 ) ;
#56 = CARTESIAN_POINT ( 'NONE',  ( -0.1249999999999998612, 2.500000000000000000, 0.000000000000000000 ) ) ;
#57 =( LENGTH_UNIT ( ) NAMED_UNIT ( * ) SI_UNIT ( $, .METRE. ) );
#58 = PRESENTATION_STYLE_ASSIGNMENT (( #199 ) ) ;
#59 = CARTESIAN_POINT ( 'NONE',  ( 0.000000000000000000, 0.6250000000000000000, 0.000000000000000000 ) ) ;
#60 =( GEOMETRIC_REPRESENTATION_CONTEXT ( 3 ) GLOBAL_UNCERTAINTY_ASSIGNED_CONTEXT ( ( #65 ) ) GLOBAL_UNIT_ASSIGNED_CONTEXT ( ( #173, #287, #32 ) ) REPRESENTATION_CONTEXT ( 'NONE', 'WORKASPACE' ) );
#61 = DIRECTION ( 'NONE',  ( 1.000000000000000000, 0.000000000000000000, 0.000000000000000000 ) ) ;
#62 = VECTOR ( 'NONE', #133, 39.37007874015748143 ) ;
#63 = AXIS2_PLACEMENT_3D ( 'NONE', #167, #359, #270 ) ;
#64 = SURFACE_STYLE_FILL_AREA ( #203 ) ;
#65 = UNCERTAINTY_MEASURE_WITH_UNIT (LENGTH_MEASURE( 1.000000000000000082E-05 ), #173, 'distance_accuracy_value', 'NONE');
#66 = DIRECTION ( 'NONE',  ( 0.000000000000000000, -1.000000000000000000, -0.000000000000000000 ) ) ;
#67 = FILL_AREA_STYLE ('',( #264 ) ) ;
#68 = ORIENTED_EDGE ( 'NONE', *, *, #37, .T. ) ;
#69 = LENGTH_MEASURE_WITH_UNIT ( LENGTH_MEASURE( 0.02539999999999999897 ), #268 );
#70 = AXIS2_PLACEMENT_3D ( 'NONE', #105, #135, #354 ) ;
#71 = LINE ( 'NONE', #357, #62 ) ;
#72 = VERTEX_POINT ( 'NONE', #115 ) ;
#73 =( CONVERSION_BASED_UNIT ( 'INCH', #219 ) LENGTH_UNIT ( ) NAMED_UNIT ( #80 ) );
#74 = ORIENTED_EDGE ( 'NONE', *, *, #30, .T. ) ;
#75 = PLANE ( 'NONE',  #70 ) ;
#76 = VECTOR ( 'NONE', #89, 39.37007874015748854 ) ;
#77 = CIRCLE ( 'NONE', #153, 0.1093500000000000028 ) ;
#78 = CARTESIAN_POINT ( 'NONE',  ( 6.123233995736772199E-17, 2.500000000000000000, 0.000000000000000000 ) ) ;
#79 = DIRECTION ( 'NONE',  ( -0.000000000000000000, -1.000000000000000000, -0.000000000000000000 ) ) ;
#80 = DIMENSIONAL_EXPONENTS ( 1.000000000000000000, 0.000000000000000000, 0.000000000000000000, 0.000000000000000000, 0.000000000000000000, 0.000000000000000000, 0.000000000000000000 ) ;
#81 = PRESENTATION_STYLE_ASSIGNMENT (( #41 ) ) ;
#82 = CARTESIAN_POINT ( 'NONE',  ( 1.404197054395280421E-18, 0.6679980216144647542, 0.000000000000000000 ) ) ;
#83 = EDGE_LOOP ( 'NONE', ( #245, #42, #36, #53 ) ) ;
#84 = PRESENTATION_LAYER_ASSIGNMENT (  '', '', ( #241 ) ) ;
#85 = PRODUCT_RELATED_PRODUCT_CATEGORY ( 'part', '', ( #314 ) ) ;
#86 = SURFACE_SIDE_STYLE ('',( #253 ) ) ;
#87 = LENGTH_MEASURE_WITH_UNIT ( LENGTH_MEASURE( 0.02539999999999999897 ), #228 );
#88 =( LENGTH_UNIT ( ) NAMED_UNIT ( * ) SI_UNIT ( $, .METRE. ) );
#89 = DIRECTION ( 'NONE',  ( 0.3420201433256690460, 0.9396926207859082059, 4.188538737676994230E-17 ) ) ;
#90 = SURFACE_SIDE_STYLE ('',( #342 ) ) ;
#91 = CARTESIAN_POINT ( 'NONE',  ( 0.000000000000000000, 0.000000000000000000, 0.000000000000000000 ) ) ;
#92 =( NAMED_UNIT ( * ) PLANE_ANGLE_UNIT ( ) SI_UNIT ( $, .RADIAN. ) );
#93 = ORIENTED_EDGE ( 'NONE', *, *, #118, .F. ) ;
#94 =( GEOMETRIC_REPRESENTATION_CONTEXT ( 3 ) GLOBAL_UNCERTAINTY_ASSIGNED_CONTEXT ( ( #251 ) ) GLOBAL_UNIT_ASSIGNED_CONTEXT ( ( #347, #296, #301 ) ) REPRESENTATION_CONTEXT ( 'NONE', 'WORKASPACE' ) );
#95 = EDGE_CURVE ( 'NONE', #193, #183, #204, .T. ) ;
#96 = UNCERTAINTY_MEASURE_WITH_UNIT (LENGTH_MEASURE( 1.000000000000000082E-05 ), #12, 'distance_accuracy_value', 'NONE');
#97 = DIRECTION ( 'NONE',  ( 0.000000000000000000, -0.000000000000000000, 1.000000000000000000 ) ) ;
#98 = EDGE_LOOP ( 'NONE', ( #323, #139, #263, #134 ) ) ;
#99 = LENGTH_MEASURE_WITH_UNIT ( LENGTH_MEASURE( 0.02539999999999999897 ), #182 );
#100 = EDGE_LOOP ( 'NONE', ( #249, #150, #128, #156 ) ) ;
#101 = DIRECTION ( 'NONE',  ( -1.000000000000000000, 0.000000000000000000, 0.000000000000000000 ) ) ;
#102 =( GEOMETRIC_REPRESENTATION_CONTEXT ( 3 ) GLOBAL_UNCERTAINTY_ASSIGNED_CONTEXT ( ( #10 ) ) GLOBAL_UNIT_ASSIGNED_CONTEXT ( ( #289, #292, #259 ) ) REPRESENTATION_CONTEXT ( 'NONE', 'WORKASPACE' ) );
#103 = STYLED_ITEM ( 'NONE', ( #81 ), #350 ) ;
#104 = VERTEX_POINT ( 'NONE', #278 ) ;
#105 = CARTESIAN_POINT ( 'NONE',  ( 0.1250000000000000000, 2.500000000000000000, 0.000000000000000000 ) ) ;
#106 = ORIENTED_EDGE ( 'NONE', *, *, #95, .F. ) ;
#107 =( LENGTH_UNIT ( ) NAMED_UNIT ( * ) SI_UNIT ( $, .METRE. ) );
#108 = FACE_OUTER_BOUND ( 'NONE', #14, .T. ) ;
#109 = COLOUR_RGB ( '',1.000000000000000000, 0.000000000000000000, 0.000000000000000000 ) ;
#110 = AXIS2_PLACEMENT_3D ( 'NONE', #78, #137, #276 ) ;
#111 = DIMENSIONAL_EXPONENTS ( 1.000000000000000000, 0.000000000000000000, 0.000000000000000000, 0.000000000000000000, 0.000000000000000000, 0.000000000000000000, 0.000000000000000000 ) ;
#112 = SURFACE_SIDE_STYLE ('',( #46 ) ) ;
#113 = EDGE_LOOP ( 'NONE', ( #210, #93 ) ) ;
#114 = PRODUCT_DEFINITION_CONTEXT ( 'detailed design', #2, 'design' ) ;
#115 = CARTESIAN_POINT ( 'NONE',  ( 0.1093500000000000028, 0.6250000000000000000, 1.434979886900910994E-17 ) ) ;
#116 = DIRECTION ( 'NONE',  ( 0.000000000000000000, 0.000000000000000000, -1.000000000000000000 ) ) ;
#117 =( NAMED_UNIT ( * ) PLANE_ANGLE_UNIT ( ) SI_UNIT ( $, .RADIAN. ) );
#118 = EDGE_CURVE ( 'NONE', #326, #132, #131, .T. ) ;
#119 = LINE ( 'NONE', #124, #76 ) ;
#120 = MANIFOLD_SOLID_BREP ( 'Revolve - Tool Body (Reduced Cut Diameter)', #229 ) ;
#121 = AXIS2_PLACEMENT_3D ( 'NONE', #242, #329, #271 ) ;
#122 = AXIS2_PLACEMENT_3D ( 'NONE', #91, #206, #61 ) ;
#123 = MANIFOLD_SOLID_BREP ( 'Revolve - Cutting Edge', #257 ) ;
#124 = CARTESIAN_POINT ( 'NONE',  ( 0.1093500000000000028, 0.6250000000000000000, 1.339151274867630787E-17 ) ) ;
#125 = CARTESIAN_POINT ( 'NONE',  ( -0.1249999999999999029, 2.500000000000000000, 0.000000000000000000 ) ) ;
#126 =( GEOMETRIC_REPRESENTATION_CONTEXT ( 3 ) GLOBAL_UNCERTAINTY_ASSIGNED_CONTEXT ( ( #298 ) ) GLOBAL_UNIT_ASSIGNED_CONTEXT ( ( #224, #316, #291 ) ) REPRESENTATION_CONTEXT ( 'NONE', 'WORKASPACE' ) );
#127 =( NAMED_UNIT ( * ) SI_UNIT ( $, .STERADIAN. ) SOLID_ANGLE_UNIT ( ) );
#128 = ORIENTED_EDGE ( 'NONE', *, *, #239, .T. ) ;
#129 = DIMENSIONAL_EXPONENTS ( 1.000000000000000000, 0.000000000000000000, 0.000000000000000000, 0.000000000000000000, 0.000000000000000000, 0.000000000000000000, 0.000000000000000000 ) ;
#130 = EDGE_LOOP ( 'NONE', ( #23, #208, #74, #266 ) ) ;
#131 = CIRCLE ( 'NONE', #304, 0.1093500000000000028 ) ;
#132 = VERTEX_POINT ( 'NONE', #338 ) ;
#133 = DIRECTION ( 'NONE',  ( -0.000000000000000000, -1.000000000000000000, -0.000000000000000000 ) ) ;
#134 = ORIENTED_EDGE ( 'NONE', *, *, #247, .F. ) ;
#135 = DIRECTION ( 'NONE',  ( -3.265724797726278260E-17, -1.000000000000000000, 0.000000000000000000 ) ) ;
#136 = CARTESIAN_POINT ( 'NONE',  ( 6.123233995736772199E-17, 2.500000000000000000, 0.000000000000000000 ) ) ;
#137 = DIRECTION ( 'NONE',  ( 3.265724797726278260E-17, 1.000000000000000000, -0.000000000000000000 ) ) ;
#138 = STYLED_ITEM ( 'NONE', ( #142 ), #120 ) ;
#139 = ORIENTED_EDGE ( 'NONE', *, *, #187, .T. ) ;
#140 = CARTESIAN_POINT ( 'NONE',  ( 0.1250000000000000000, 0.6679980216144647542, 1.530808498934191509E-17 ) ) ;
#141 = AXIS2_PLACEMENT_3D ( 'NONE', #192, #1, #307 ) ;
#142 = PRESENTATION_STYLE_ASSIGNMENT (( #171 ) ) ;
#143 = LENGTH_MEASURE_WITH_UNIT ( LENGTH_MEASURE( 0.02539999999999999897 ), #308 );
#144 = EDGE_CURVE ( 'NONE', #48, #330, #180, .T. ) ;
#145 = VECTOR ( 'NONE', #43, 39.37007874015748143 ) ;
#146 = PRODUCT_DEFINITION ( 'UNKNOWN', '', #162, #114 ) ;
#147 = DIRECTION ( 'NONE',  ( -1.000000000000000000, 0.000000000000000000, 0.000000000000000000 ) ) ;
#148 = VERTEX_POINT ( 'NONE', #56 ) ;
#149 = LINE ( 'NONE', #125, #317 ) ;
#150 = ORIENTED_EDGE ( 'NONE', *, *, #95, .T. ) ;
#151 = STYLED_ITEM ( 'NONE', ( #244 ), #262 ) ;
#152 = APPLICATION_PROTOCOL_DEFINITION ( 'draft international standard', 'automotive_design', 1998, #2 ) ;
#153 = AXIS2_PLACEMENT_3D ( 'NONE', #269, #250, #157 ) ;
#154 = DIRECTION ( 'NONE',  ( -1.000000000000000000, 3.265724797726278260E-17, 0.000000000000000000 ) ) ;
#155 = DIMENSIONAL_EXPONENTS ( 1.000000000000000000, 0.000000000000000000, 0.000000000000000000, 0.000000000000000000, 0.000000000000000000, 0.000000000000000000, 0.000000000000000000 ) ;
#156 = ORIENTED_EDGE ( 'NONE', *, *, #40, .F. ) ;
#157 = DIRECTION ( 'NONE',  ( -1.000000000000000000, 0.000000000000000000, 0.000000000000000000 ) ) ;
#158 = EDGE_LOOP ( 'NONE', ( #19, #213 ) ) ;
#159 = CIRCLE ( 'NONE', #141, 0.1093500000000000028 ) ;
#160 = PRESENTATION_LAYER_ASSIGNMENT (  '', '', ( #138 ) ) ;
#161 = DIRECTION ( 'NONE',  ( 3.265724797726278260E-17, 1.000000000000000000, -0.000000000000000000 ) ) ;
#162 = PRODUCT_DEFINITION_FORMATION_WITH_SPECIFIED_SOURCE ( 'ANY', '', #314, .NOT_KNOWN. ) ;
#163 = ORIENTED_EDGE ( 'NONE', *, *, #340, .T. ) ;
#164 = PRODUCT_DEFINITION_SHAPE ( 'NONE', 'NONE',  #146 ) ;
#165 = FACE_OUTER_BOUND ( 'NONE', #83, .T. ) ;
#166 = CARTESIAN_POINT ( 'NONE',  ( 6.123233995736772199E-17, 2.500000000000000000, 0.000000000000000000 ) ) ;
#167 = CARTESIAN_POINT ( 'NONE',  ( 0.000000000000000000, 0.6250000000000000000, 0.000000000000000000 ) ) ;
#168 = AXIS2_PLACEMENT_3D ( 'NONE', #177, #33, #283 ) ;
#169 = DIRECTION ( 'NONE',  ( -1.000000000000000000, 0.000000000000000000, 0.000000000000000000 ) ) ;
#170 = ADVANCED_FACE ( 'NONE', ( #175 ), #194, .T. ) ;
#171 = SURFACE_STYLE_USAGE ( .BOTH. , #90 ) ;
#172 = MECHANICAL_DESIGN_GEOMETRIC_PRESENTATION_REPRESENTATION (  '', ( #241 ), #94 ) ;
#173 =( CONVERSION_BASED_UNIT ( 'INCH', #295 ) LENGTH_UNIT ( ) NAMED_UNIT ( #47 ) );
#174 = COLOUR_RGB ( '',1.000000000000000000, 0.000000000000000000, 0.000000000000000000 ) ;
#175 = FACE_OUTER_BOUND ( 'NONE', #205, .T. ) ;
#176 = LENGTH_MEASURE_WITH_UNIT ( LENGTH_MEASURE( 0.02539999999999999897 ), #57 );
#177 = CARTESIAN_POINT ( 'NONE',  ( 0.000000000000000000, 0.000000000000000000, 0.000000000000000000 ) ) ;
#178 = FILL_AREA_STYLE_COLOUR ( '', #109 ) ;
#179 = SURFACE_SIDE_STYLE ('',( #35 ) ) ;
#180 = CIRCLE ( 'NONE', #168, 0.1093500000000000028 ) ;
#181 = DIRECTION ( 'NONE',  ( 3.265724797726278260E-17, 1.000000000000000000, -0.000000000000000000 ) ) ;
#182 =( LENGTH_UNIT ( ) NAMED_UNIT ( * ) SI_UNIT ( $, .METRE. ) );
#183 = VERTEX_POINT ( 'NONE', #341 ) ;
#184 = AXIS2_PLACEMENT_3D ( 'NONE', #306, #45, #27 ) ;
#185 = SURFACE_STYLE_FILL_AREA ( #49 ) ;
#186 = ORIENTED_EDGE ( 'NONE', *, *, #319, .T. ) ;
#187 = EDGE_CURVE ( 'NONE', #72, #193, #119, .T. ) ;
#188 = VERTEX_POINT ( 'NONE', #29 ) ;
#189 = MECHANICAL_DESIGN_GEOMETRIC_PRESENTATION_REPRESENTATION (  '', ( #138 ), #60 ) ;
#190 = LINE ( 'NONE', #20, #145 ) ;
#191 = SURFACE_SIDE_STYLE ('',( #185 ) ) ;
#192 = CARTESIAN_POINT ( 'NONE',  ( 0.000000000000000000, 0.000000000000000000, 0.000000000000000000 ) ) ;
#193 = VERTEX_POINT ( 'NONE', #140 ) ;
#194 = CONICAL_SURFACE ( 'NONE', #55, 0.1093500000000000028, 0.3490658503988662287 ) ;
#195 = DIRECTION ( 'NONE',  ( 0.000000000000000000, 0.000000000000000000, -1.000000000000000000 ) ) ;
#196 = SURFACE_STYLE_USAGE ( .BOTH. , #86 ) ;
#197 = FILL_AREA_STYLE ('',( #227 ) ) ;
#198 = PRESENTATION_LAYER_ASSIGNMENT (  '', '', ( #151 ) ) ;
#199 = SURFACE_STYLE_USAGE ( .BOTH. , #179 ) ;
#200 = MECHANICAL_DESIGN_GEOMETRIC_PRESENTATION_REPRESENTATION (  '', ( #103 ), #126 ) ;
#201 = FILL_AREA_STYLE ('',( #284 ) ) ;
#202 = PRODUCT_CONTEXT ( 'NONE', #288, 'mechanical' ) ;
#203 = FILL_AREA_STYLE ('',( #178 ) ) ;
#204 = CIRCLE ( 'NONE', #346, 0.1250000000000000000 ) ;
#205 = EDGE_LOOP ( 'NONE', ( #274, #328, #215, #106 ) ) ;
#206 = DIRECTION ( 'NONE',  ( 0.000000000000000000, 0.000000000000000000, 1.000000000000000000 ) ) ;
#207 = ADVANCED_FACE ( 'NONE', ( #313 ), #52, .T. ) ;
#208 = ORIENTED_EDGE ( 'NONE', *, *, #118, .T. ) ;
#209 = LINE ( 'NONE', #293, #13 ) ;
#210 = ORIENTED_EDGE ( 'NONE', *, *, #319, .F. ) ;
#211 = CIRCLE ( 'NONE', #311, 0.1249999999999999306 ) ;
#212 = DIRECTION ( 'NONE',  ( -1.000000000000000000, 0.000000000000000000, 0.000000000000000000 ) ) ;
#213 = ORIENTED_EDGE ( 'NONE', *, *, #40, .T. ) ;
#214 = ADVANCED_FACE ( 'NONE', ( #7 ), #299, .F. ) ;
#215 = ORIENTED_EDGE ( 'NONE', *, *, #247, .T. ) ;
#216 = COLOUR_RGB ( '',1.000000000000000000, 0.000000000000000000, 0.000000000000000000 ) ;
#217 = CYLINDRICAL_SURFACE ( 'NONE', #17, 0.1093500000000000028 ) ;
#218 = LINE ( 'NONE', #333, #337 ) ;
#219 = LENGTH_MEASURE_WITH_UNIT ( LENGTH_MEASURE( 0.02539999999999999897 ), #107 );
#220 = ADVANCED_FACE ( 'NONE', ( #260 ), #225, .T. ) ;
#221 = DIRECTION ( 'NONE',  ( -1.000000000000000000, 0.000000000000000000, 0.000000000000000000 ) ) ;
#222 =( CONVERSION_BASED_UNIT ( 'INCH', #87 ) LENGTH_UNIT ( ) NAMED_UNIT ( #129 ) );
#223 = ORIENTED_EDGE ( 'NONE', *, *, #144, .T. ) ;
#224 =( CONVERSION_BASED_UNIT ( 'INCH', #143 ) LENGTH_UNIT ( ) NAMED_UNIT ( #111 ) );
#225 = CONICAL_SURFACE ( 'NONE', #44, 0.1093500000000000028, 0.3490658503988662287 ) ;
#226 = FILL_AREA_STYLE_COLOUR ( '', #275 ) ;
#227 = FILL_AREA_STYLE_COLOUR ( '', #300 ) ;
#228 =( LENGTH_UNIT ( ) NAMED_UNIT ( * ) SI_UNIT ( $, .METRE. ) );
#229 = CLOSED_SHELL ( 'NONE', ( #6, #220, #214, #170, #343, #272 ) ) ;
#230 = ADVANCED_FACE ( 'NONE', ( #238 ), #261, .T. ) ;
#231 = ADVANCED_BREP_SHAPE_REPRESENTATION ( '82256', ( #123, #120, #122 ), #255 ) ;
#232 = APPLICATION_PROTOCOL_DEFINITION ( 'draft international standard', 'automotive_design', 1998, #288 ) ;
#233 = FACE_OUTER_BOUND ( 'NONE', #130, .T. ) ;
#234 = UNCERTAINTY_MEASURE_WITH_UNIT (LENGTH_MEASURE( 1.000000000000000082E-05 ), #73, 'distance_accuracy_value', 'NONE');
#235 = AXIS2_PLACEMENT_3D ( 'NONE', #59, #9, #97 ) ;
#236 = SURFACE_SIDE_STYLE ('',( #64 ) ) ;
#237 = CARTESIAN_POINT ( 'NONE',  ( 0.000000000000000000, 0.6250000000000000000, 0.000000000000000000 ) ) ;
#238 = FACE_OUTER_BOUND ( 'NONE', #113, .T. ) ;
#239 = EDGE_CURVE ( 'NONE', #183, #148, #149, .T. ) ;
#240 = AXIS2_PLACEMENT_3D ( 'NONE', #136, #246, #358 ) ;
#241 = STYLED_ITEM ( 'NONE', ( #320 ), #230 ) ;
#242 = CARTESIAN_POINT ( 'NONE',  ( 0.000000000000000000, 0.000000000000000000, 0.000000000000000000 ) ) ;
#243 = EDGE_LOOP ( 'NONE', ( #223, #68 ) ) ;
#244 = PRESENTATION_STYLE_ASSIGNMENT (( #327 ) ) ;
#245 = ORIENTED_EDGE ( 'NONE', *, *, #310, .T. ) ;
#246 = DIRECTION ( 'NONE',  ( 3.265724797726278260E-17, 1.000000000000000000, -0.000000000000000000 ) ) ;
#247 = EDGE_CURVE ( 'NONE', #188, #183, #209, .T. ) ;
#248 =( NAMED_UNIT ( * ) PLANE_ANGLE_UNIT ( ) SI_UNIT ( $, .RADIAN. ) );
#249 = ORIENTED_EDGE ( 'NONE', *, *, #279, .F. ) ;
#250 = DIRECTION ( 'NONE',  ( 3.265724797726278260E-17, 1.000000000000000000, -0.000000000000000000 ) ) ;
#251 = UNCERTAINTY_MEASURE_WITH_UNIT (LENGTH_MEASURE( 1.000000000000000082E-05 ), #347, 'distance_accuracy_value', 'NONE');
#252 = CARTESIAN_POINT ( 'NONE',  ( 0.000000000000000000, 0.6250000000000000000, 0.000000000000000000 ) ) ;
#253 = SURFACE_STYLE_FILL_AREA ( #339 ) ;
#254 = PRESENTATION_LAYER_ASSIGNMENT (  '', '', ( #286 ) ) ;
#255 =( GEOMETRIC_REPRESENTATION_CONTEXT ( 3 ) GLOBAL_UNCERTAINTY_ASSIGNED_CONTEXT ( ( #281 ) ) GLOBAL_UNIT_ASSIGNED_CONTEXT ( ( #222, #117, #54 ) ) REPRESENTATION_CONTEXT ( 'NONE', 'WORKASPACE' ) );
#256 = CARTESIAN_POINT ( 'NONE',  ( 0.000000000000000000, 0.6250000000000000000, 0.000000000000000000 ) ) ;
#257 = CLOSED_SHELL ( 'NONE', ( #350, #230, #262, #207 ) ) ;
#258 = COLOUR_RGB ( '',0.7921568627450980005, 0.8196078431372548767, 0.9333333333333333481 ) ;
#259 =( NAMED_UNIT ( * ) SI_UNIT ( $, .STERADIAN. ) SOLID_ANGLE_UNIT ( ) );
#260 = FACE_OUTER_BOUND ( 'NONE', #98, .T. ) ;
#261 = PLANE ( 'NONE',  #235 ) ;
#262 = ADVANCED_FACE ( 'NONE', ( #233 ), #345, .T. ) ;
#263 = ORIENTED_EDGE ( 'NONE', *, *, #310, .F. ) ;
#264 = FILL_AREA_STYLE_COLOUR ( '', #216 ) ;
#265 = STYLED_ITEM ( 'NONE', ( #58 ), #123 ) ;
#266 = ORIENTED_EDGE ( 'NONE', *, *, #37, .F. ) ;
#267 = AXIS2_PLACEMENT_3D ( 'NONE', #18, #161, #101 ) ;
#268 =( LENGTH_UNIT ( ) NAMED_UNIT ( * ) SI_UNIT ( $, .METRE. ) );
#269 = CARTESIAN_POINT ( 'NONE',  ( 0.000000000000000000, 0.6250000000000000000, 0.000000000000000000 ) ) ;
#270 = DIRECTION ( 'NONE',  ( 0.000000000000000000, 0.000000000000000000, -1.000000000000000000 ) ) ;
#271 = DIRECTION ( 'NONE',  ( 0.000000000000000000, 0.000000000000000000, -1.000000000000000000 ) ) ;
#272 = ADVANCED_FACE ( 'NONE', ( #273 ), #75, .F. ) ;
#273 = FACE_OUTER_BOUND ( 'NONE', #158, .T. ) ;
#274 = ORIENTED_EDGE ( 'NONE', *, *, #187, .F. ) ;
#275 = COLOUR_RGB ( '',1.000000000000000000, 0.000000000000000000, 0.000000000000000000 ) ;
#276 = DIRECTION ( 'NONE',  ( -1.000000000000000000, 0.000000000000000000, 0.000000000000000000 ) ) ;
#277 = AXIS2_PLACEMENT_3D ( 'NONE', #22, #26, #212 ) ;
#278 = CARTESIAN_POINT ( 'NONE',  ( 0.1250000000000000278, 2.500000000000000000, 1.530808498934191509E-17 ) ) ;
#279 = EDGE_CURVE ( 'NONE', #193, #104, #190, .T. ) ;
#280 = DIRECTION ( 'NONE',  ( -1.000000000000000000, 0.000000000000000000, 0.000000000000000000 ) ) ;
#281 = UNCERTAINTY_MEASURE_WITH_UNIT (LENGTH_MEASURE( 1.000000000000000082E-05 ), #222, 'distance_accuracy_value', 'NONE');
#282 = ORIENTED_EDGE ( 'NONE', *, *, #144, .F. ) ;
#283 = DIRECTION ( 'NONE',  ( 0.000000000000000000, 0.000000000000000000, -1.000000000000000000 ) ) ;
#284 = FILL_AREA_STYLE_COLOUR ( '', #258 ) ;
#285 = CIRCLE ( 'NONE', #184, 0.1093500000000000028 ) ;
#286 = STYLED_ITEM ( 'NONE', ( #315 ), #207 ) ;
#287 =( NAMED_UNIT ( * ) PLANE_ANGLE_UNIT ( ) SI_UNIT ( $, .RADIAN. ) );
#288 = APPLICATION_CONTEXT ( 'automotive_design' ) ;
#289 =( CONVERSION_BASED_UNIT ( 'INCH', #176 ) LENGTH_UNIT ( ) NAMED_UNIT ( #321 ) );
#290 = EDGE_CURVE ( 'NONE', #188, #72, #77, .T. ) ;
#291 =( NAMED_UNIT ( * ) SI_UNIT ( $, .STERADIAN. ) SOLID_ANGLE_UNIT ( ) );
#292 =( NAMED_UNIT ( * ) PLANE_ANGLE_UNIT ( ) SI_UNIT ( $, .RADIAN. ) );
#293 = CARTESIAN_POINT ( 'NONE',  ( -0.1093500000000000028, 0.6250000000000000000, 0.000000000000000000 ) ) ;
#294 =( GEOMETRIC_REPRESENTATION_CONTEXT ( 3 ) GLOBAL_UNCERTAINTY_ASSIGNED_CONTEXT ( ( #96 ) ) GLOBAL_UNIT_ASSIGNED_CONTEXT ( ( #12, #92, #127 ) ) REPRESENTATION_CONTEXT ( 'NONE', 'WORKASPACE' ) );
#295 = LENGTH_MEASURE_WITH_UNIT ( LENGTH_MEASURE( 0.02539999999999999897 ), #88 );
#296 =( NAMED_UNIT ( * ) PLANE_ANGLE_UNIT ( ) SI_UNIT ( $, .RADIAN. ) );
#297 = EDGE_CURVE ( 'NONE', #148, #104, #31, .T. ) ;
#298 = UNCERTAINTY_MEASURE_WITH_UNIT (LENGTH_MEASURE( 1.000000000000000082E-05 ), #224, 'distance_accuracy_value', 'NONE');
#299 = PLANE ( 'NONE',  #352 ) ;
#300 = COLOUR_RGB ( '',0.7921568627450980005, 0.8196078431372548767, 0.9333333333333333481 ) ;
#301 =( NAMED_UNIT ( * ) SI_UNIT ( $, .STERADIAN. ) SOLID_ANGLE_UNIT ( ) );
#302 =( NAMED_UNIT ( * ) SI_UNIT ( $, .STERADIAN. ) SOLID_ANGLE_UNIT ( ) );
#303 = ORIENTED_EDGE ( 'NONE', *, *, #3, .F. ) ;
#304 = AXIS2_PLACEMENT_3D ( 'NONE', #252, #336, #195 ) ;
#305 = CYLINDRICAL_SURFACE ( 'NONE', #110, 0.1249999999999999584 ) ;
#306 = CARTESIAN_POINT ( 'NONE',  ( 0.000000000000000000, 0.6250000000000000000, 0.000000000000000000 ) ) ;
#307 = DIRECTION ( 'NONE',  ( 0.000000000000000000, 0.000000000000000000, -1.000000000000000000 ) ) ;
#308 =( LENGTH_UNIT ( ) NAMED_UNIT ( * ) SI_UNIT ( $, .METRE. ) );
#309 = DIRECTION ( 'NONE',  ( 3.265724797726278260E-17, 1.000000000000000000, -0.000000000000000000 ) ) ;
#310 = EDGE_CURVE ( 'NONE', #183, #193, #353, .T. ) ;
#311 = AXIS2_PLACEMENT_3D ( 'NONE', #166, #309, #221 ) ;
#312 = DIRECTION ( 'NONE',  ( -0.000000000000000000, -1.000000000000000000, -0.000000000000000000 ) ) ;
#313 = FACE_OUTER_BOUND ( 'NONE', #243, .T. ) ;
#314 = PRODUCT ( '82256', '82256', '', ( #202 ) ) ;
#315 = PRESENTATION_STYLE_ASSIGNMENT (( #196 ) ) ;
#316 =( NAMED_UNIT ( * ) PLANE_ANGLE_UNIT ( ) SI_UNIT ( $, .RADIAN. ) );
#317 = VECTOR ( 'NONE', #322, 39.37007874015748143 ) ;
#318 = PRESENTATION_LAYER_ASSIGNMENT (  '', '', ( #103 ) ) ;
#319 = EDGE_CURVE ( 'NONE', #132, #326, #25, .T. ) ;
#320 = PRESENTATION_STYLE_ASSIGNMENT (( #34 ) ) ;
#321 = DIMENSIONAL_EXPONENTS ( 1.000000000000000000, 0.000000000000000000, 0.000000000000000000, 0.000000000000000000, 0.000000000000000000, 0.000000000000000000, 0.000000000000000000 ) ;
#322 = DIRECTION ( 'NONE',  ( 3.265724797726278260E-17, 1.000000000000000000, -0.000000000000000000 ) ) ;
#323 = ORIENTED_EDGE ( 'NONE', *, *, #290, .T. ) ;
#324 = MECHANICAL_DESIGN_GEOMETRIC_PRESENTATION_REPRESENTATION (  '', ( #265 ), #102 ) ;
#325 = CARTESIAN_POINT ( 'NONE',  ( 1.339151274867630787E-17, 0.6250000000000000000, 0.1093500000000000028 ) ) ;
#326 = VERTEX_POINT ( 'NONE', #325 ) ;
#327 = SURFACE_STYLE_USAGE ( .BOTH. , #112 ) ;
#328 = ORIENTED_EDGE ( 'NONE', *, *, #3, .T. ) ;
#329 = DIRECTION ( 'NONE',  ( -0.000000000000000000, -1.000000000000000000, -0.000000000000000000 ) ) ;
#330 = VERTEX_POINT ( 'NONE', #334 ) ;
#331 = AXIS2_PLACEMENT_3D ( 'NONE', #344, #66, #39 ) ;
#332 = FILL_AREA_STYLE_COLOUR ( '', #174 ) ;
#333 = CARTESIAN_POINT ( 'NONE',  ( 0.000000000000000000, 0.000000000000000000, -0.1093500000000000028 ) ) ;
#334 = CARTESIAN_POINT ( 'NONE',  ( 1.339151274867630787E-17, 0.000000000000000000, 0.1093500000000000028 ) ) ;
#335 = CARTESIAN_POINT ( 'NONE',  ( 0.000000000000000000, 0.000000000000000000, -0.1093500000000000028 ) ) ;
#336 = DIRECTION ( 'NONE',  ( -0.000000000000000000, -1.000000000000000000, -0.000000000000000000 ) ) ;
#337 = VECTOR ( 'NONE', #79, 39.37007874015748143 ) ;
#338 = CARTESIAN_POINT ( 'NONE',  ( 0.000000000000000000, 0.6250000000000000000, -0.1093500000000000028 ) ) ;
#339 = FILL_AREA_STYLE ('',( #226 ) ) ;
#340 = EDGE_CURVE ( 'NONE', #326, #330, #71, .T. ) ;
#341 = CARTESIAN_POINT ( 'NONE',  ( -0.1250000000000000000, 0.6679980216144647542, 0.000000000000000000 ) ) ;
#342 = SURFACE_STYLE_FILL_AREA ( #197 ) ;
#343 = ADVANCED_FACE ( 'NONE', ( #355 ), #305, .T. ) ;
#344 = CARTESIAN_POINT ( 'NONE',  ( 0.000000000000000000, 0.000000000000000000, 0.000000000000000000 ) ) ;
#345 = CYLINDRICAL_SURFACE ( 'NONE', #121, 0.1093500000000000028 ) ;
#346 = AXIS2_PLACEMENT_3D ( 'NONE', #82, #50, #169 ) ;
#347 =( CONVERSION_BASED_UNIT ( 'INCH', #69 ) LENGTH_UNIT ( ) NAMED_UNIT ( #348 ) );
#348 = DIMENSIONAL_EXPONENTS ( 1.000000000000000000, 0.000000000000000000, 0.000000000000000000, 0.000000000000000000, 0.000000000000000000, 0.000000000000000000, 0.000000000000000000 ) ;
#349 = DIRECTION ( 'NONE',  ( 3.265724797726278260E-17, 1.000000000000000000, -0.000000000000000000 ) ) ;
#350 = ADVANCED_FACE ( 'NONE', ( #108 ), #217, .T. ) ;
#351 = CARTESIAN_POINT ( 'NONE',  ( 5.831066034989313988E-35, 0.6250000000000000000, 0.000000000000000000 ) ) ;
#352 = AXIS2_PLACEMENT_3D ( 'NONE', #351, #181, #154 ) ;
#353 = CIRCLE ( 'NONE', #277, 0.1250000000000000000 ) ;
#354 = DIRECTION ( 'NONE',  ( 1.000000000000000000, -3.265724797726278260E-17, 0.000000000000000000 ) ) ;
#355 = FACE_OUTER_BOUND ( 'NONE', #100, .T. ) ;
#356 = EDGE_LOOP ( 'NONE', ( #11, #303 ) ) ;
#357 = CARTESIAN_POINT ( 'NONE',  ( 1.339151274867630787E-17, 0.000000000000000000, 0.1093500000000000028 ) ) ;
#358 = DIRECTION ( 'NONE',  ( -1.000000000000000000, 0.000000000000000000, 0.000000000000000000 ) ) ;
#359 = DIRECTION ( 'NONE',  ( -0.000000000000000000, -1.000000000000000000, -0.000000000000000000 ) ) ;
ENDSEC;
END-ISO-10303-21;
