ISO-10303-21;
HEADER;
FILE_DESCRIPTION (( 'STEP AP214' ),
    '1' );
FILE_NAME ('17752.STEP',
    '2023-06-30T21:55:12',
    ( '' ),
    ( '' ),
    'SwSTEP 2.0',
    'SolidWorks 2023',
    '' );
FILE_SCHEMA (( 'AUTOMOTIVE_DESIGN' ));
ENDSEC;

DATA;
#1 =( NAMED_UNIT ( * ) PLANE_ANGLE_UNIT ( ) SI_UNIT ( $, .RADIAN. ) );
#2 = CARTESIAN_POINT ( 'NONE',  ( -6.123233995736766036E-17, 0.5000000000000000000, 0.000000000000000000 ) ) ;
#3 = MANIFOLD_SOLID_BREP ( 'Revolve - Tool Body (Straight Shanked)', #117 ) ;
#4 = STYLED_ITEM ( 'NONE', ( #159 ), #3 ) ;
#5 = PRODUCT_DEFINITION_FORMATION_WITH_SPECIFIED_SOURCE ( 'ANY', '', #269, .NOT_KNOWN. ) ;
#6 = CYLINDRICAL_SURFACE ( 'NONE', #361, 0.4999999999999998335 ) ;
#7 = ORIENTED_EDGE ( 'NONE', *, *, #284, .F. ) ;
#8 = DIRECTION ( 'NONE',  ( -1.000000000000000000, 0.000000000000000000, 0.000000000000000000 ) ) ;
#9 = SPHERICAL_SURFACE ( 'NONE', #369, 0.5000000000000000000 ) ;
#10 = AXIS2_PLACEMENT_3D ( 'NONE', #16, #131, #359 ) ;
#11 = SURFACE_STYLE_FILL_AREA ( #20 ) ;
#12 = ADVANCED_FACE ( 'NONE', ( #174 ), #25, .T. ) ;
#13 = AXIS2_PLACEMENT_3D ( 'NONE', #341, #226, #197 ) ;
#14 =( NAMED_UNIT ( * ) SI_UNIT ( $, .STERADIAN. ) SOLID_ANGLE_UNIT ( ) );
#15 = DIRECTION ( 'NONE',  ( -0.000000000000000000, -1.000000000000000000, -0.000000000000000000 ) ) ;
#16 = CARTESIAN_POINT ( 'NONE',  ( 0.000000000000000000, 0.000000000000000000, 0.000000000000000000 ) ) ;
#17 = SURFACE_SIDE_STYLE ('',( #68 ) ) ;
#18 = DIMENSIONAL_EXPONENTS ( 1.000000000000000000, 0.000000000000000000, 0.000000000000000000, 0.000000000000000000, 0.000000000000000000, 0.000000000000000000, 0.000000000000000000 ) ;
#19 = PRESENTATION_LAYER_ASSIGNMENT (  '', '', ( #180 ) ) ;
#20 = FILL_AREA_STYLE ('',( #65 ) ) ;
#21 = PRODUCT_DEFINITION ( 'UNKNOWN', '', #5, #245 ) ;
#22 = DIRECTION ( 'NONE',  ( 0.000000000000000000, 0.000000000000000000, -1.000000000000000000 ) ) ;
#23 =( CONVERSION_BASED_UNIT ( 'INCH', #195 ) LENGTH_UNIT ( ) NAMED_UNIT ( #189 ) );
#24 = DIRECTION ( 'NONE',  ( -0.000000000000000000, -1.000000000000000000, -0.000000000000000000 ) ) ;
#25 = CYLINDRICAL_SURFACE ( 'NONE', #201, 0.4999999999999996669 ) ;
#26 = MECHANICAL_DESIGN_GEOMETRIC_PRESENTATION_REPRESENTATION (  '', ( #43 ), #125 ) ;
#27 = ORIENTED_EDGE ( 'NONE', *, *, #202, .T. ) ;
#28 = DIRECTION ( 'NONE',  ( -1.206987149436755814E-16, 1.000000000000000000, -0.000000000000000000 ) ) ;
#29 = ADVANCED_FACE ( 'NONE', ( #349 ), #9, .T. ) ;
#30 = ORIENTED_EDGE ( 'NONE', *, *, #132, .F. ) ;
#31 = ORIENTED_EDGE ( 'NONE', *, *, #167, .T. ) ;
#32 = AXIS2_PLACEMENT_3D ( 'NONE', #221, #51, #76 ) ;
#33 =( CONVERSION_BASED_UNIT ( 'INCH', #53 ) LENGTH_UNIT ( ) NAMED_UNIT ( #219 ) );
#34 = ORIENTED_EDGE ( 'NONE', *, *, #83, .T. ) ;
#35 = FILL_AREA_STYLE_COLOUR ( '', #150 ) ;
#36 = ORIENTED_EDGE ( 'NONE', *, *, #202, .F. ) ;
#37 = PRESENTATION_STYLE_ASSIGNMENT (( #182 ) ) ;
#38 = FILL_AREA_STYLE ('',( #329 ) ) ;
#39 =( GEOMETRIC_REPRESENTATION_CONTEXT ( 3 ) GLOBAL_UNCERTAINTY_ASSIGNED_CONTEXT ( ( #186 ) ) GLOBAL_UNIT_ASSIGNED_CONTEXT ( ( #33, #74, #181 ) ) REPRESENTATION_CONTEXT ( 'NONE', 'WORKASPACE' ) );
#40 = CARTESIAN_POINT ( 'NONE',  ( 0.000000000000000000, 0.000000000000000000, -0.4999999999999998335 ) ) ;
#41 = UNCERTAINTY_MEASURE_WITH_UNIT (LENGTH_MEASURE( 1.000000000000000082E-05 ), #23, 'distance_accuracy_value', 'NONE');
#42 =( LENGTH_UNIT ( ) NAMED_UNIT ( * ) SI_UNIT ( $, .METRE. ) );
#43 = STYLED_ITEM ( 'NONE', ( #235 ), #252 ) ;
#44 = COLOUR_RGB ( '',1.000000000000000000, 0.000000000000000000, 0.000000000000000000 ) ;
#45 = DIRECTION ( 'NONE',  ( 1.224646799147353207E-16, -0.000000000000000000, 1.000000000000000000 ) ) ;
#46 = CARTESIAN_POINT ( 'NONE',  ( 6.123233995736763571E-17, 2.000000000000000000, 0.4999999999999997224 ) ) ;
#47 = EDGE_CURVE ( 'NONE', #347, #206, #142, .T. ) ;
#48 = CIRCLE ( 'NONE', #342, 0.4999999999999997224 ) ;
#49 =( NAMED_UNIT ( * ) SI_UNIT ( $, .STERADIAN. ) SOLID_ANGLE_UNIT ( ) );
#50 = ADVANCED_FACE ( 'NONE', ( #122 ), #6, .T. ) ;
#51 = DIRECTION ( 'NONE',  ( 1.206987149436755814E-16, -1.000000000000000000, 0.000000000000000000 ) ) ;
#52 = DIRECTION ( 'NONE',  ( -0.000000000000000000, -1.000000000000000000, -0.000000000000000000 ) ) ;
#53 = LENGTH_MEASURE_WITH_UNIT ( LENGTH_MEASURE( 0.02539999999999999897 ), #198 );
#54 = CARTESIAN_POINT ( 'NONE',  ( 6.123233995736766036E-17, 0.5000000000000000000, 0.5000000000000000000 ) ) ;
#55 = AXIS2_PLACEMENT_3D ( 'NONE', #134, #288, #253 ) ;
#56 =( CONVERSION_BASED_UNIT ( 'INCH', #145 ) LENGTH_UNIT ( ) NAMED_UNIT ( #193 ) );
#57 = ORIENTED_EDGE ( 'NONE', *, *, #100, .F. ) ;
#58 = CARTESIAN_POINT ( 'NONE',  ( -0.4999999999999997780, 5.000000000000000000, 0.000000000000000000 ) ) ;
#59 =( CONVERSION_BASED_UNIT ( 'INCH', #84 ) LENGTH_UNIT ( ) NAMED_UNIT ( #130 ) );
#60 = APPLICATION_CONTEXT ( 'automotive_design' ) ;
#61 = SURFACE_SIDE_STYLE ('',( #230 ) ) ;
#62 = APPLICATION_CONTEXT ( 'automotive_design' ) ;
#63 = DIRECTION ( 'NONE',  ( 1.000000000000000000, 0.000000000000000000, 0.000000000000000000 ) ) ;
#64 = EDGE_CURVE ( 'NONE', #90, #327, #298, .T. ) ;
#65 = FILL_AREA_STYLE_COLOUR ( '', #333 ) ;
#66 = ORIENTED_EDGE ( 'NONE', *, *, #47, .T. ) ;
#67 = CARTESIAN_POINT ( 'NONE',  ( -6.123233995736766036E-17, 0.5000000000000000000, 0.000000000000000000 ) ) ;
#68 = SURFACE_STYLE_FILL_AREA ( #38 ) ;
#69 = ORIENTED_EDGE ( 'NONE', *, *, #64, .F. ) ;
#70 = PRESENTATION_LAYER_ASSIGNMENT (  '', '', ( #289 ) ) ;
#71 = DIRECTION ( 'NONE',  ( -1.000000000000000000, 0.000000000000000000, 0.000000000000000000 ) ) ;
#72 = CIRCLE ( 'NONE', #208, 0.4999999999999998335 ) ;
#73 = ADVANCED_FACE ( 'NONE', ( #236 ), #354, .T. ) ;
#74 =( NAMED_UNIT ( * ) PLANE_ANGLE_UNIT ( ) SI_UNIT ( $, .RADIAN. ) );
#75 = STYLED_ITEM ( 'NONE', ( #166 ), #133 ) ;
#76 = DIRECTION ( 'NONE',  ( 1.000000000000000000, 1.206987149436755814E-16, 0.000000000000000000 ) ) ;
#77 = ORIENTED_EDGE ( 'NONE', *, *, #93, .F. ) ;
#78 = FILL_AREA_STYLE ('',( #285 ) ) ;
#79 = DIRECTION ( 'NONE',  ( 1.000000000000000000, 0.000000000000000000, 0.000000000000000000 ) ) ;
#80 = PLANE ( 'NONE',  #32 ) ;
#81 = DIRECTION ( 'NONE',  ( -1.206987149436755814E-16, 1.000000000000000000, -0.000000000000000000 ) ) ;
#82 = EDGE_LOOP ( 'NONE', ( #231, #343 ) ) ;
#83 = EDGE_CURVE ( 'NONE', #214, #90, #48, .T. ) ;
#84 = LENGTH_MEASURE_WITH_UNIT ( LENGTH_MEASURE( 0.02539999999999999897 ), #149 );
#85 =( NAMED_UNIT ( * ) SI_UNIT ( $, .STERADIAN. ) SOLID_ANGLE_UNIT ( ) );
#86 = PRESENTATION_LAYER_ASSIGNMENT (  '', '', ( #43 ) ) ;
#87 = STYLED_ITEM ( 'NONE', ( #105 ), #183 ) ;
#88 = SURFACE_STYLE_USAGE ( .BOTH. , #266 ) ;
#89 =( GEOMETRIC_REPRESENTATION_CONTEXT ( 3 ) GLOBAL_UNCERTAINTY_ASSIGNED_CONTEXT ( ( #274 ) ) GLOBAL_UNIT_ASSIGNED_CONTEXT ( ( #278, #91, #14 ) ) REPRESENTATION_CONTEXT ( 'NONE', 'WORKASPACE' ) );
#90 = VERTEX_POINT ( 'NONE', #46 ) ;
#91 =( NAMED_UNIT ( * ) PLANE_ANGLE_UNIT ( ) SI_UNIT ( $, .RADIAN. ) );
#92 = ORIENTED_EDGE ( 'NONE', *, *, #160, .T. ) ;
#93 = EDGE_CURVE ( 'NONE', #360, #373, #171, .T. ) ;
#94 = DIRECTION ( 'NONE',  ( -0.000000000000000000, -1.000000000000000000, -0.000000000000000000 ) ) ;
#95 = VECTOR ( 'NONE', #103, 39.37007874015748143 ) ;
#96 = ORIENTED_EDGE ( 'NONE', *, *, #291, .T. ) ;
#97 = LINE ( 'NONE', #40, #272 ) ;
#98 = CARTESIAN_POINT ( 'NONE',  ( 0.000000000000000000, 0.5000000000000000000, -0.5000000000000000000 ) ) ;
#99 = UNCERTAINTY_MEASURE_WITH_UNIT (LENGTH_MEASURE( 1.000000000000000082E-05 ), #101, 'distance_accuracy_value', 'NONE');
#100 = EDGE_CURVE ( 'NONE', #353, #318, #196, .T. ) ;
#101 =( CONVERSION_BASED_UNIT ( 'INCH', #336 ) LENGTH_UNIT ( ) NAMED_UNIT ( #309 ) );
#102 = MECHANICAL_DESIGN_GEOMETRIC_PRESENTATION_REPRESENTATION (  '', ( #301 ), #136 ) ;
#103 = DIRECTION ( 'NONE',  ( -1.206987149436755814E-16, 1.000000000000000000, -0.000000000000000000 ) ) ;
#104 =( NAMED_UNIT ( * ) PLANE_ANGLE_UNIT ( ) SI_UNIT ( $, .RADIAN. ) );
#105 = PRESENTATION_STYLE_ASSIGNMENT (( #365 ) ) ;
#106 =( NAMED_UNIT ( * ) PLANE_ANGLE_UNIT ( ) SI_UNIT ( $, .RADIAN. ) );
#107 = FILL_AREA_STYLE_COLOUR ( '', #176 ) ;
#108 = MECHANICAL_DESIGN_GEOMETRIC_PRESENTATION_REPRESENTATION (  '', ( #4 ), #350 ) ;
#109 = FACE_OUTER_BOUND ( 'NONE', #178, .T. ) ;
#110 = FILL_AREA_STYLE ('',( #204 ) ) ;
#111 = DIRECTION ( 'NONE',  ( 0.000000000000000000, 0.000000000000000000, -1.000000000000000000 ) ) ;
#112 = FACE_OUTER_BOUND ( 'NONE', #185, .T. ) ;
#113 = ORIENTED_EDGE ( 'NONE', *, *, #132, .T. ) ;
#114 = ADVANCED_FACE ( 'NONE', ( #338 ), #80, .F. ) ;
#115 = DIRECTION ( 'NONE',  ( 0.000000000000000000, 0.000000000000000000, 1.000000000000000000 ) ) ;
#116 = ORIENTED_EDGE ( 'NONE', *, *, #83, .F. ) ;
#117 = CLOSED_SHELL ( 'NONE', ( #12, #335, #279, #114 ) ) ;
#118 = CARTESIAN_POINT ( 'NONE',  ( 0.5000000000000000000, 0.5000000000000000000, 0.000000000000000000 ) ) ;
#119 = SURFACE_SIDE_STYLE ('',( #179 ) ) ;
#120 = EDGE_LOOP ( 'NONE', ( #69, #113, #273, #212, #128 ) ) ;
#121 = DIRECTION ( 'NONE',  ( 0.000000000000000000, 0.000000000000000000, -1.000000000000000000 ) ) ;
#122 = FACE_OUTER_BOUND ( 'NONE', #120, .T. ) ;
#123 = CARTESIAN_POINT ( 'NONE',  ( 6.123233995736764803E-17, 0.000000000000000000, 0.4999999999999998335 ) ) ;
#124 = ORIENTED_EDGE ( 'NONE', *, *, #100, .T. ) ;
#125 =( GEOMETRIC_REPRESENTATION_CONTEXT ( 3 ) GLOBAL_UNCERTAINTY_ASSIGNED_CONTEXT ( ( #216 ) ) GLOBAL_UNIT_ASSIGNED_CONTEXT ( ( #59, #175, #85 ) ) REPRESENTATION_CONTEXT ( 'NONE', 'WORKASPACE' ) );
#126 =( GEOMETRIC_REPRESENTATION_CONTEXT ( 3 ) GLOBAL_UNCERTAINTY_ASSIGNED_CONTEXT ( ( #99 ) ) GLOBAL_UNIT_ASSIGNED_CONTEXT ( ( #101, #218, #326 ) ) REPRESENTATION_CONTEXT ( 'NONE', 'WORKASPACE' ) );
#127 =( GEOMETRIC_REPRESENTATION_CONTEXT ( 3 ) GLOBAL_UNCERTAINTY_ASSIGNED_CONTEXT ( ( #363 ) ) GLOBAL_UNIT_ASSIGNED_CONTEXT ( ( #312, #104, #49 ) ) REPRESENTATION_CONTEXT ( 'NONE', 'WORKASPACE' ) );
#128 = ORIENTED_EDGE ( 'NONE', *, *, #291, .F. ) ;
#129 =( LENGTH_UNIT ( ) NAMED_UNIT ( * ) SI_UNIT ( $, .METRE. ) );
#130 = DIMENSIONAL_EXPONENTS ( 1.000000000000000000, 0.000000000000000000, 0.000000000000000000, 0.000000000000000000, 0.000000000000000000, 0.000000000000000000, 0.000000000000000000 ) ;
#131 = DIRECTION ( 'NONE',  ( 0.000000000000000000, 0.000000000000000000, 1.000000000000000000 ) ) ;
#132 = EDGE_CURVE ( 'NONE', #90, #214, #265, .T. ) ;
#133 = MANIFOLD_SOLID_BREP ( 'Revolve - Cutting Edge', #331 ) ;
#134 = CARTESIAN_POINT ( 'NONE',  ( -6.123233995736766036E-17, 0.5000000000000000000, 0.000000000000000000 ) ) ;
#135 = SURFACE_STYLE_FILL_AREA ( #248 ) ;
#136 =( GEOMETRIC_REPRESENTATION_CONTEXT ( 3 ) GLOBAL_UNCERTAINTY_ASSIGNED_CONTEXT ( ( #161 ) ) GLOBAL_UNIT_ASSIGNED_CONTEXT ( ( #358, #106, #137 ) ) REPRESENTATION_CONTEXT ( 'NONE', 'WORKASPACE' ) );
#137 =( NAMED_UNIT ( * ) SI_UNIT ( $, .STERADIAN. ) SOLID_ANGLE_UNIT ( ) );
#138 = CARTESIAN_POINT ( 'NONE',  ( 0.000000000000000000, 2.000000000000000000, 0.000000000000000000 ) ) ;
#139 = DIRECTION ( 'NONE',  ( -0.000000000000000000, -1.000000000000000000, -0.000000000000000000 ) ) ;
#140 = AXIS2_PLACEMENT_3D ( 'NONE', #334, #275, #71 ) ;
#141 = ORIENTED_EDGE ( 'NONE', *, *, #211, .T. ) ;
#142 = CIRCLE ( 'NONE', #254, 0.5000000000000000000 ) ;
#143 = SURFACE_STYLE_USAGE ( .BOTH. , #366 ) ;
#144 = AXIS2_PLACEMENT_3D ( 'NONE', #352, #321, #305 ) ;
#145 = LENGTH_MEASURE_WITH_UNIT ( LENGTH_MEASURE( 0.02539999999999999897 ), #42 );
#146 = ORIENTED_EDGE ( 'NONE', *, *, #211, .F. ) ;
#147 = PLANE ( 'NONE',  #258 ) ;
#148 = CARTESIAN_POINT ( 'NONE',  ( -1.224646799147353207E-16, 5.000000000000000000, 0.000000000000000000 ) ) ;
#149 =( LENGTH_UNIT ( ) NAMED_UNIT ( * ) SI_UNIT ( $, .METRE. ) );
#150 = COLOUR_RGB ( '',1.000000000000000000, 0.000000000000000000, 0.000000000000000000 ) ;
#151 = AXIS2_PLACEMENT_3D ( 'NONE', #177, #262, #8 ) ;
#152 = DIRECTION ( 'NONE',  ( 0.000000000000000000, 0.000000000000000000, 1.000000000000000000 ) ) ;
#153 = FILL_AREA_STYLE ('',( #35 ) ) ;
#154 = DIMENSIONAL_EXPONENTS ( 1.000000000000000000, 0.000000000000000000, 0.000000000000000000, 0.000000000000000000, 0.000000000000000000, 0.000000000000000000, 0.000000000000000000 ) ;
#155 = ORIENTED_EDGE ( 'NONE', *, *, #93, .T. ) ;
#156 = EDGE_CURVE ( 'NONE', #318, #206, #276, .T. ) ;
#157 = ORIENTED_EDGE ( 'NONE', *, *, #339, .F. ) ;
#158 = PRODUCT_CONTEXT ( 'NONE', #60, 'mechanical' ) ;
#159 = PRESENTATION_STYLE_ASSIGNMENT (( #303 ) ) ;
#160 = EDGE_CURVE ( 'NONE', #268, #360, #260, .T. ) ;
#161 = UNCERTAINTY_MEASURE_WITH_UNIT (LENGTH_MEASURE( 1.000000000000000082E-05 ), #358, 'distance_accuracy_value', 'NONE');
#162 = COLOUR_RGB ( '',0.7921568627450980005, 0.8196078431372548767, 0.9333333333333333481 ) ;
#163 = DIMENSIONAL_EXPONENTS ( 1.000000000000000000, 0.000000000000000000, 0.000000000000000000, 0.000000000000000000, 0.000000000000000000, 0.000000000000000000, 0.000000000000000000 ) ;
#164 = AXIS2_PLACEMENT_3D ( 'NONE', #194, #310, #168 ) ;
#165 = AXIS2_PLACEMENT_3D ( 'NONE', #314, #52, #232 ) ;
#166 = PRESENTATION_STYLE_ASSIGNMENT (( #143 ) ) ;
#167 = EDGE_CURVE ( 'NONE', #347, #353, #271, .T. ) ;
#168 = DIRECTION ( 'NONE',  ( -1.000000000000000000, 0.000000000000000000, 0.000000000000000000 ) ) ;
#169 = VECTOR ( 'NONE', #270, 39.37007874015748143 ) ;
#170 = PRESENTATION_LAYER_ASSIGNMENT (  '', '', ( #301 ) ) ;
#171 = LINE ( 'NONE', #228, #95 ) ;
#172 = CARTESIAN_POINT ( 'NONE',  ( -0.5000000000000000000, 5.000000000000000000, 0.000000000000000000 ) ) ;
#173 = FILL_AREA_STYLE_COLOUR ( '', #44 ) ;
#174 = FACE_OUTER_BOUND ( 'NONE', #351, .T. ) ;
#175 =( NAMED_UNIT ( * ) PLANE_ANGLE_UNIT ( ) SI_UNIT ( $, .RADIAN. ) );
#176 = COLOUR_RGB ( '',1.000000000000000000, 0.000000000000000000, 0.000000000000000000 ) ;
#177 = CARTESIAN_POINT ( 'NONE',  ( -1.224646799147353207E-16, 5.000000000000000000, 0.000000000000000000 ) ) ;
#178 = EDGE_LOOP ( 'NONE', ( #77, #290, #267, #7 ) ) ;
#179 = SURFACE_STYLE_FILL_AREA ( #320 ) ;
#180 = STYLED_ITEM ( 'NONE', ( #372 ), #29 ) ;
#181 =( NAMED_UNIT ( * ) SI_UNIT ( $, .STERADIAN. ) SOLID_ANGLE_UNIT ( ) );
#182 = SURFACE_STYLE_USAGE ( .BOTH. , #356 ) ;
#183 = ADVANCED_FACE ( 'NONE', ( #367 ), #286, .T. ) ;
#184 = CARTESIAN_POINT ( 'NONE',  ( 0.4999999999999997224, 5.000000000000000000, 6.123233995736763571E-17 ) ) ;
#185 = EDGE_LOOP ( 'NONE', ( #116, #30 ) ) ;
#186 = UNCERTAINTY_MEASURE_WITH_UNIT (LENGTH_MEASURE( 1.000000000000000082E-05 ), #33, 'distance_accuracy_value', 'NONE');
#187 = DIRECTION ( 'NONE',  ( 0.000000000000000000, 0.000000000000000000, -1.000000000000000000 ) ) ;
#188 =( LENGTH_UNIT ( ) NAMED_UNIT ( * ) SI_UNIT ( $, .METRE. ) );
#189 = DIMENSIONAL_EXPONENTS ( 1.000000000000000000, 0.000000000000000000, 0.000000000000000000, 0.000000000000000000, 0.000000000000000000, 0.000000000000000000, 0.000000000000000000 ) ;
#190 = CIRCLE ( 'NONE', #165, 0.5000000000000000000 ) ;
#191 = PRESENTATION_LAYER_ASSIGNMENT (  '', '', ( #75 ) ) ;
#192 = AXIS2_PLACEMENT_3D ( 'NONE', #302, #94, #121 ) ;
#193 = DIMENSIONAL_EXPONENTS ( 1.000000000000000000, 0.000000000000000000, 0.000000000000000000, 0.000000000000000000, 0.000000000000000000, 0.000000000000000000, 0.000000000000000000 ) ;
#194 = CARTESIAN_POINT ( 'NONE',  ( 2.396314649162914483E-16, 2.000000000000000000, 0.000000000000000000 ) ) ;
#195 = LENGTH_MEASURE_WITH_UNIT ( LENGTH_MEASURE( 0.02539999999999999897 ), #340 );
#196 = CIRCLE ( 'NONE', #13, 0.5000000000000000000 ) ;
#197 = DIRECTION ( 'NONE',  ( 0.000000000000000000, 0.000000000000000000, -1.000000000000000000 ) ) ;
#198 =( LENGTH_UNIT ( ) NAMED_UNIT ( * ) SI_UNIT ( $, .METRE. ) );
#199 = DIRECTION ( 'NONE',  ( -1.000000000000000000, 0.000000000000000000, 0.000000000000000000 ) ) ;
#200 = VERTEX_POINT ( 'NONE', #172 ) ;
#201 = AXIS2_PLACEMENT_3D ( 'NONE', #148, #28, #323 ) ;
#202 = EDGE_CURVE ( 'NONE', #318, #327, #190, .T. ) ;
#203 = CARTESIAN_POINT ( 'NONE',  ( -1.224646799147353207E-16, 5.000000000000000000, 0.000000000000000000 ) ) ;
#204 = FILL_AREA_STYLE_COLOUR ( '', #283 ) ;
#205 = CARTESIAN_POINT ( 'NONE',  ( 0.000000000000000000, 2.000000000000000000, 0.000000000000000000 ) ) ;
#206 = VERTEX_POINT ( 'NONE', #317 ) ;
#207 = CARTESIAN_POINT ( 'NONE',  ( 0.000000000000000000, 0.000000000000000000, 0.000000000000000000 ) ) ;
#208 = AXIS2_PLACEMENT_3D ( 'NONE', #203, #348, #322 ) ;
#209 = AXIS2_PLACEMENT_3D ( 'NONE', #282, #257, #22 ) ;
#210 = SURFACE_STYLE_FILL_AREA ( #153 ) ;
#211 = EDGE_CURVE ( 'NONE', #200, #373, #72, .T. ) ;
#212 = ORIENTED_EDGE ( 'NONE', *, *, #167, .F. ) ;
#213 = AXIS2_PLACEMENT_3D ( 'NONE', #222, #139, #315 ) ;
#214 = VERTEX_POINT ( 'NONE', #368 ) ;
#215 = SHAPE_DEFINITION_REPRESENTATION ( #293, #311 ) ;
#216 = UNCERTAINTY_MEASURE_WITH_UNIT (LENGTH_MEASURE( 1.000000000000000082E-05 ), #59, 'distance_accuracy_value', 'NONE');
#217 = PRESENTATION_STYLE_ASSIGNMENT (( #88 ) ) ;
#218 =( NAMED_UNIT ( * ) PLANE_ANGLE_UNIT ( ) SI_UNIT ( $, .RADIAN. ) );
#219 = DIMENSIONAL_EXPONENTS ( 1.000000000000000000, 0.000000000000000000, 0.000000000000000000, 0.000000000000000000, 0.000000000000000000, 0.000000000000000000, 0.000000000000000000 ) ;
#220 = COLOUR_RGB ( '',0.7921568627450980005, 0.8196078431372548767, 0.9333333333333333481 ) ;
#221 = CARTESIAN_POINT ( 'NONE',  ( 0.4999999999999997224, 5.000000000000000000, 0.000000000000000000 ) ) ;
#222 = CARTESIAN_POINT ( 'NONE',  ( 0.000000000000000000, 0.000000000000000000, 0.000000000000000000 ) ) ;
#223 = DIRECTION ( 'NONE',  ( 0.000000000000000000, 1.000000000000000000, 0.000000000000000000 ) ) ;
#224 = SURFACE_STYLE_USAGE ( .BOTH. , #61 ) ;
#225 =( GEOMETRIC_REPRESENTATION_CONTEXT ( 3 ) GLOBAL_UNCERTAINTY_ASSIGNED_CONTEXT ( ( #41 ) ) GLOBAL_UNIT_ASSIGNED_CONTEXT ( ( #23, #313, #280 ) ) REPRESENTATION_CONTEXT ( 'NONE', 'WORKASPACE' ) );
#226 = DIRECTION ( 'NONE',  ( -0.000000000000000000, -1.000000000000000000, -0.000000000000000000 ) ) ;
#227 = CYLINDRICAL_SURFACE ( 'NONE', #337, 0.4999999999999996669 ) ;
#228 = CARTESIAN_POINT ( 'NONE',  ( 0.4999999999999995004, 5.000000000000000000, 6.123233995736761105E-17 ) ) ;
#229 = CARTESIAN_POINT ( 'NONE',  ( -1.224646799147353207E-16, 5.000000000000000000, 0.000000000000000000 ) ) ;
#230 = SURFACE_STYLE_FILL_AREA ( #110 ) ;
#231 = ORIENTED_EDGE ( 'NONE', *, *, #160, .F. ) ;
#232 = DIRECTION ( 'NONE',  ( 0.000000000000000000, 0.000000000000000000, -1.000000000000000000 ) ) ;
#233 = MECHANICAL_DESIGN_GEOMETRIC_PRESENTATION_REPRESENTATION (  '', ( #180 ), #39 ) ;
#234 = FACE_OUTER_BOUND ( 'NONE', #82, .T. ) ;
#235 = PRESENTATION_STYLE_ASSIGNMENT (( #287 ) ) ;
#236 = FACE_OUTER_BOUND ( 'NONE', #324, .T. ) ;
#237 = ORIENTED_EDGE ( 'NONE', *, *, #64, .T. ) ;
#238 = DIRECTION ( 'NONE',  ( 1.000000000000000000, 0.000000000000000000, -1.224646799147353207E-16 ) ) ;
#239 = ORIENTED_EDGE ( 'NONE', *, *, #156, .T. ) ;
#240 = PRESENTATION_LAYER_ASSIGNMENT (  '', '', ( #87 ) ) ;
#241 = DIRECTION ( 'NONE',  ( -1.206987149436755814E-16, 1.000000000000000000, -0.000000000000000000 ) ) ;
#242 = AXIS2_PLACEMENT_3D ( 'NONE', #2, #115, #79 ) ;
#243 =( LENGTH_UNIT ( ) NAMED_UNIT ( * ) SI_UNIT ( $, .METRE. ) );
#244 = CARTESIAN_POINT ( 'NONE',  ( 0.4999999999999997780, 2.000000000000000000, 6.123233995736763571E-17 ) ) ;
#245 = PRODUCT_DEFINITION_CONTEXT ( 'detailed design', #62, 'design' ) ;
#246 = APPLICATION_PROTOCOL_DEFINITION ( 'draft international standard', 'automotive_design', 1998, #62 ) ;
#247 = AXIS2_PLACEMENT_3D ( 'NONE', #344, #24, #345 ) ;
#248 = FILL_AREA_STYLE ('',( #173 ) ) ;
#249 = CARTESIAN_POINT ( 'NONE',  ( -0.5000000000000000000, 0.5000000000000000000, 6.123233995736764803E-17 ) ) ;
#250 = LENGTH_MEASURE_WITH_UNIT ( LENGTH_MEASURE( 0.02539999999999999897 ), #243 );
#251 =( LENGTH_UNIT ( ) NAMED_UNIT ( * ) SI_UNIT ( $, .METRE. ) );
#252 = ADVANCED_FACE ( 'NONE', ( #112 ), #147, .T. ) ;
#253 = DIRECTION ( 'NONE',  ( -1.000000000000000000, 0.000000000000000000, 0.000000000000000000 ) ) ;
#254 = AXIS2_PLACEMENT_3D ( 'NONE', #67, #45, #238 ) ;
#255 = SURFACE_SIDE_STYLE ('',( #135 ) ) ;
#256 = SURFACE_STYLE_FILL_AREA ( #78 ) ;
#257 = DIRECTION ( 'NONE',  ( -0.000000000000000000, -1.000000000000000000, -0.000000000000000000 ) ) ;
#258 = AXIS2_PLACEMENT_3D ( 'NONE', #205, #223, #259 ) ;
#259 = DIRECTION ( 'NONE',  ( 0.000000000000000000, -0.000000000000000000, 1.000000000000000000 ) ) ;
#260 = CIRCLE ( 'NONE', #164, 0.4999999999999995004 ) ;
#261 = ORIENTED_EDGE ( 'NONE', *, *, #47, .F. ) ;
#262 = DIRECTION ( 'NONE',  ( -1.206987149436755814E-16, 1.000000000000000000, -0.000000000000000000 ) ) ;
#263 = PRODUCT_RELATED_PRODUCT_CATEGORY ( 'part', '', ( #269 ) ) ;
#264 = ORIENTED_EDGE ( 'NONE', *, *, #156, .F. ) ;
#265 = CIRCLE ( 'NONE', #247, 0.4999999999999997224 ) ;
#266 = SURFACE_SIDE_STYLE ('',( #210 ) ) ;
#267 = ORIENTED_EDGE ( 'NONE', *, *, #316, .T. ) ;
#268 = VERTEX_POINT ( 'NONE', #371 ) ;
#269 = PRODUCT ( '17752', '17752', '', ( #158 ) ) ;
#270 = DIRECTION ( 'NONE',  ( -0.000000000000000000, -1.000000000000000000, -0.000000000000000000 ) ) ;
#271 = CIRCLE ( 'NONE', #209, 0.5000000000000000000 ) ;
#272 = VECTOR ( 'NONE', #15, 39.37007874015748143 ) ;
#273 = ORIENTED_EDGE ( 'NONE', *, *, #339, .T. ) ;
#274 = UNCERTAINTY_MEASURE_WITH_UNIT (LENGTH_MEASURE( 1.000000000000000082E-05 ), #278, 'distance_accuracy_value', 'NONE');
#275 = DIRECTION ( 'NONE',  ( -1.206987149436755814E-16, 1.000000000000000000, -0.000000000000000000 ) ) ;
#276 = CIRCLE ( 'NONE', #55, 0.5000000000000000000 ) ;
#277 = VECTOR ( 'NONE', #241, 39.37007874015748143 ) ;
#278 =( CONVERSION_BASED_UNIT ( 'INCH', #357 ) LENGTH_UNIT ( ) NAMED_UNIT ( #18 ) );
#279 = ADVANCED_FACE ( 'NONE', ( #109 ), #227, .T. ) ;
#280 =( NAMED_UNIT ( * ) SI_UNIT ( $, .STERADIAN. ) SOLID_ANGLE_UNIT ( ) );
#281 = UNCERTAINTY_MEASURE_WITH_UNIT (LENGTH_MEASURE( 1.000000000000000082E-05 ), #56, 'distance_accuracy_value', 'NONE');
#282 = CARTESIAN_POINT ( 'NONE',  ( 0.000000000000000000, 0.5000000000000000000, 0.000000000000000000 ) ) ;
#283 = COLOUR_RGB ( '',1.000000000000000000, 0.000000000000000000, 0.000000000000000000 ) ;
#284 = EDGE_CURVE ( 'NONE', #373, #200, #306, .T. ) ;
#285 = FILL_AREA_STYLE_COLOUR ( '', #220 ) ;
#286 = SPHERICAL_SURFACE ( 'NONE', #242, 0.5000000000000000000 ) ;
#287 = SURFACE_STYLE_USAGE ( .BOTH. , #119 ) ;
#288 = DIRECTION ( 'NONE',  ( 0.000000000000000000, 0.000000000000000000, -1.000000000000000000 ) ) ;
#289 = STYLED_ITEM ( 'NONE', ( #217 ), #50 ) ;
#290 = ORIENTED_EDGE ( 'NONE', *, *, #362, .T. ) ;
#291 = EDGE_CURVE ( 'NONE', #327, #347, #296, .T. ) ;
#292 = EDGE_LOOP ( 'NONE', ( #141, #355 ) ) ;
#293 = PRODUCT_DEFINITION_SHAPE ( 'NONE', 'NONE',  #21 ) ;
#294 = PLANE ( 'NONE',  #144 ) ;
#295 = MECHANICAL_DESIGN_GEOMETRIC_PRESENTATION_REPRESENTATION (  '', ( #75 ), #225 ) ;
#296 = CIRCLE ( 'NONE', #192, 0.5000000000000000000 ) ;
#297 = CARTESIAN_POINT ( 'NONE',  ( -6.123233995736766036E-17, 0.5000000000000000000, 0.000000000000000000 ) ) ;
#298 = LINE ( 'NONE', #123, #169 ) ;
#299 = EDGE_LOOP ( 'NONE', ( #261, #31, #124, #239 ) ) ;
#300 = EDGE_LOOP ( 'NONE', ( #96, #66, #264, #27 ) ) ;
#301 = STYLED_ITEM ( 'NONE', ( #37 ), #73 ) ;
#302 = CARTESIAN_POINT ( 'NONE',  ( 0.000000000000000000, 0.5000000000000000000, 0.000000000000000000 ) ) ;
#303 = SURFACE_STYLE_USAGE ( .BOTH. , #17 ) ;
#304 = DIRECTION ( 'NONE',  ( -0.000000000000000000, -1.000000000000000000, -0.000000000000000000 ) ) ;
#305 = DIRECTION ( 'NONE',  ( -1.000000000000000000, -1.206987149436755814E-16, 0.000000000000000000 ) ) ;
#306 = CIRCLE ( 'NONE', #151, 0.4999999999999998335 ) ;
#307 = MECHANICAL_DESIGN_GEOMETRIC_PRESENTATION_REPRESENTATION (  '', ( #289 ), #126 ) ;
#308 = DIRECTION ( 'NONE',  ( -0.000000000000000000, -1.000000000000000000, -0.000000000000000000 ) ) ;
#309 = DIMENSIONAL_EXPONENTS ( 1.000000000000000000, 0.000000000000000000, 0.000000000000000000, 0.000000000000000000, 0.000000000000000000, 0.000000000000000000, 0.000000000000000000 ) ;
#310 = DIRECTION ( 'NONE',  ( -1.206987149436755814E-16, 1.000000000000000000, -0.000000000000000000 ) ) ;
#311 = ADVANCED_BREP_SHAPE_REPRESENTATION ( '17752', ( #133, #3, #10 ), #89 ) ;
#312 =( CONVERSION_BASED_UNIT ( 'INCH', #364 ) LENGTH_UNIT ( ) NAMED_UNIT ( #154 ) );
#313 =( NAMED_UNIT ( * ) PLANE_ANGLE_UNIT ( ) SI_UNIT ( $, .RADIAN. ) );
#314 = CARTESIAN_POINT ( 'NONE',  ( 0.000000000000000000, 0.5000000000000000000, 0.000000000000000000 ) ) ;
#315 = DIRECTION ( 'NONE',  ( 0.000000000000000000, 0.000000000000000000, -1.000000000000000000 ) ) ;
#316 = EDGE_CURVE ( 'NONE', #268, #200, #319, .T. ) ;
#317 = CARTESIAN_POINT ( 'NONE',  ( -3.061616997868383018E-17, 0.000000000000000000, 0.000000000000000000 ) ) ;
#318 = VERTEX_POINT ( 'NONE', #118 ) ;
#319 = LINE ( 'NONE', #58, #277 ) ;
#320 = FILL_AREA_STYLE ('',( #107 ) ) ;
#321 = DIRECTION ( 'NONE',  ( -1.206987149436755814E-16, 1.000000000000000000, 0.000000000000000000 ) ) ;
#322 = DIRECTION ( 'NONE',  ( -1.000000000000000000, 0.000000000000000000, 0.000000000000000000 ) ) ;
#323 = DIRECTION ( 'NONE',  ( -1.000000000000000000, 0.000000000000000000, 0.000000000000000000 ) ) ;
#324 = EDGE_LOOP ( 'NONE', ( #34, #237, #36, #57, #157 ) ) ;
#325 = CIRCLE ( 'NONE', #140, 0.4999999999999995004 ) ;
#326 =( NAMED_UNIT ( * ) SI_UNIT ( $, .STERADIAN. ) SOLID_ANGLE_UNIT ( ) );
#327 = VERTEX_POINT ( 'NONE', #54 ) ;
#328 = APPLICATION_PROTOCOL_DEFINITION ( 'draft international standard', 'automotive_design', 1998, #60 ) ;
#329 = FILL_AREA_STYLE_COLOUR ( '', #162 ) ;
#330 = ORIENTED_EDGE ( 'NONE', *, *, #316, .F. ) ;
#331 = CLOSED_SHELL ( 'NONE', ( #29, #73, #252, #50, #183 ) ) ;
#332 = PRESENTATION_LAYER_ASSIGNMENT (  '', '', ( #4 ) ) ;
#333 = COLOUR_RGB ( '',1.000000000000000000, 0.000000000000000000, 0.000000000000000000 ) ;
#334 = CARTESIAN_POINT ( 'NONE',  ( 2.396314649162914483E-16, 2.000000000000000000, 0.000000000000000000 ) ) ;
#335 = ADVANCED_FACE ( 'NONE', ( #234 ), #294, .F. ) ;
#336 = LENGTH_MEASURE_WITH_UNIT ( LENGTH_MEASURE( 0.02539999999999999897 ), #251 );
#337 = AXIS2_PLACEMENT_3D ( 'NONE', #229, #81, #199 ) ;
#338 = FACE_OUTER_BOUND ( 'NONE', #292, .T. ) ;
#339 = EDGE_CURVE ( 'NONE', #214, #353, #97, .T. ) ;
#340 =( LENGTH_UNIT ( ) NAMED_UNIT ( * ) SI_UNIT ( $, .METRE. ) );
#341 = CARTESIAN_POINT ( 'NONE',  ( 0.000000000000000000, 0.5000000000000000000, 0.000000000000000000 ) ) ;
#342 = AXIS2_PLACEMENT_3D ( 'NONE', #138, #308, #111 ) ;
#343 = ORIENTED_EDGE ( 'NONE', *, *, #362, .F. ) ;
#344 = CARTESIAN_POINT ( 'NONE',  ( 0.000000000000000000, 2.000000000000000000, 0.000000000000000000 ) ) ;
#345 = DIRECTION ( 'NONE',  ( 0.000000000000000000, 0.000000000000000000, -1.000000000000000000 ) ) ;
#346 =( NAMED_UNIT ( * ) SI_UNIT ( $, .STERADIAN. ) SOLID_ANGLE_UNIT ( ) );
#347 = VERTEX_POINT ( 'NONE', #249 ) ;
#348 = DIRECTION ( 'NONE',  ( -1.206987149436755814E-16, 1.000000000000000000, -0.000000000000000000 ) ) ;
#349 = FACE_OUTER_BOUND ( 'NONE', #300, .T. ) ;
#350 =( GEOMETRIC_REPRESENTATION_CONTEXT ( 3 ) GLOBAL_UNCERTAINTY_ASSIGNED_CONTEXT ( ( #281 ) ) GLOBAL_UNIT_ASSIGNED_CONTEXT ( ( #56, #1, #346 ) ) REPRESENTATION_CONTEXT ( 'NONE', 'WORKASPACE' ) );
#351 = EDGE_LOOP ( 'NONE', ( #92, #155, #146, #330 ) ) ;
#352 = CARTESIAN_POINT ( 'NONE',  ( 2.396314649162914483E-16, 2.000000000000000000, 0.000000000000000000 ) ) ;
#353 = VERTEX_POINT ( 'NONE', #98 ) ;
#354 = CYLINDRICAL_SURFACE ( 'NONE', #213, 0.4999999999999998335 ) ;
#355 = ORIENTED_EDGE ( 'NONE', *, *, #284, .T. ) ;
#356 = SURFACE_SIDE_STYLE ('',( #11 ) ) ;
#357 = LENGTH_MEASURE_WITH_UNIT ( LENGTH_MEASURE( 0.02539999999999999897 ), #129 );
#358 =( CONVERSION_BASED_UNIT ( 'INCH', #250 ) LENGTH_UNIT ( ) NAMED_UNIT ( #163 ) );
#359 = DIRECTION ( 'NONE',  ( 1.000000000000000000, 0.000000000000000000, 0.000000000000000000 ) ) ;
#360 = VERTEX_POINT ( 'NONE', #244 ) ;
#361 = AXIS2_PLACEMENT_3D ( 'NONE', #207, #304, #187 ) ;
#362 = EDGE_CURVE ( 'NONE', #360, #268, #325, .T. ) ;
#363 = UNCERTAINTY_MEASURE_WITH_UNIT (LENGTH_MEASURE( 1.000000000000000082E-05 ), #312, 'distance_accuracy_value', 'NONE');
#364 = LENGTH_MEASURE_WITH_UNIT ( LENGTH_MEASURE( 0.02539999999999999897 ), #188 );
#365 = SURFACE_STYLE_USAGE ( .BOTH. , #255 ) ;
#366 = SURFACE_SIDE_STYLE ('',( #256 ) ) ;
#367 = FACE_OUTER_BOUND ( 'NONE', #299, .T. ) ;
#368 = CARTESIAN_POINT ( 'NONE',  ( 0.000000000000000000, 2.000000000000000000, -0.4999999999999997224 ) ) ;
#369 = AXIS2_PLACEMENT_3D ( 'NONE', #297, #152, #63 ) ;
#370 = MECHANICAL_DESIGN_GEOMETRIC_PRESENTATION_REPRESENTATION (  '', ( #87 ), #127 ) ;
#371 = CARTESIAN_POINT ( 'NONE',  ( -0.4999999999999992228, 2.000000000000000000, 0.000000000000000000 ) ) ;
#372 = PRESENTATION_STYLE_ASSIGNMENT (( #224 ) ) ;
#373 = VERTEX_POINT ( 'NONE', #184 ) ;
ENDSEC;
END-ISO-10303-21;
