ISO-10303-21;
HEADER;
FILE_DESCRIPTION (( 'STEP AP214' ),
    '1' );
FILE_NAME ('81370.STEP',
    '2023-06-23T00:51:03',
    ( '' ),
    ( '' ),
    'SwSTEP 2.0',
    'SolidWorks 2023',
    '' );
FILE_SCHEMA (( 'AUTOMOTIVE_DESIGN' ));
ENDSEC;

DATA;
#1 = LINE ( 'NONE', #169, #111 ) ;
#2 = SURFACE_STYLE_FILL_AREA ( #288 ) ;
#3 = VERTEX_POINT ( 'NONE', #157 ) ;
#4 = DIRECTION ( 'NONE',  ( -5.442874662877122626E-17, 1.000000000000000000, -0.000000000000000000 ) ) ;
#5 = EDGE_CURVE ( 'NONE', #75, #61, #206, .T. ) ;
#6 =( NAMED_UNIT ( * ) PLANE_ANGLE_UNIT ( ) SI_UNIT ( $, .RADIAN. ) );
#7 = ORIENTED_EDGE ( 'NONE', *, *, #56, .T. ) ;
#8 = CARTESIAN_POINT ( 'NONE',  ( 1.530808498934191509E-17, 0.000000000000000000, 0.1250000000000000000 ) ) ;
#9 = DIRECTION ( 'NONE',  ( 0.000000000000000000, 0.000000000000000000, -1.000000000000000000 ) ) ;
#10 = CARTESIAN_POINT ( 'NONE',  ( 0.000000000000000000, 1.750000000000000000, 0.000000000000000000 ) ) ;
#11 = COLOUR_RGB ( '',0.7921568627450980005, 0.8196078431372548767, 0.9333333333333333481 ) ;
#12 = STYLED_ITEM ( 'NONE', ( #13 ), #60 ) ;
#13 = PRESENTATION_STYLE_ASSIGNMENT (( #300 ) ) ;
#14 = DIRECTION ( 'NONE',  ( 0.000000000000000000, -0.000000000000000000, 1.000000000000000000 ) ) ;
#15 = FACE_OUTER_BOUND ( 'NONE', #270, .T. ) ;
#16 =( NAMED_UNIT ( * ) SI_UNIT ( $, .STERADIAN. ) SOLID_ANGLE_UNIT ( ) );
#17 = SURFACE_SIDE_STYLE ('',( #160 ) ) ;
#18 = DIRECTION ( 'NONE',  ( -0.000000000000000000, -1.000000000000000000, -0.000000000000000000 ) ) ;
#19 = FILL_AREA_STYLE_COLOUR ( '', #88 ) ;
#20 = DIRECTION ( 'NONE',  ( -1.000000000000000000, 0.000000000000000000, 0.000000000000000000 ) ) ;
#21 = AXIS2_PLACEMENT_3D ( 'NONE', #98, #295, #14 ) ;
#22 = SURFACE_STYLE_USAGE ( .BOTH. , #17 ) ;
#23 = ADVANCED_FACE ( 'NONE', ( #15 ), #35, .T. ) ;
#24 = DIRECTION ( 'NONE',  ( -1.000000000000000000, 0.000000000000000000, 0.000000000000000000 ) ) ;
#25 = PRESENTATION_LAYER_ASSIGNMENT (  '', '', ( #159 ) ) ;
#26 = ORIENTED_EDGE ( 'NONE', *, *, #5, .F. ) ;
#27 = EDGE_LOOP ( 'NONE', ( #137, #277 ) ) ;
#28 = CARTESIAN_POINT ( 'NONE',  ( -1.224646799147352714E-16, 4.000000000000000000, 0.000000000000000000 ) ) ;
#29 = APPLICATION_PROTOCOL_DEFINITION ( 'draft international standard', 'automotive_design', 1998, #275 ) ;
#30 = DIRECTION ( 'NONE',  ( -1.000000000000000000, 0.000000000000000000, 0.000000000000000000 ) ) ;
#31 = FILL_AREA_STYLE_COLOUR ( '', #104 ) ;
#32 =( NAMED_UNIT ( * ) SI_UNIT ( $, .STERADIAN. ) SOLID_ANGLE_UNIT ( ) );
#33 = CLOSED_SHELL ( 'NONE', ( #23, #204, #134, #139 ) ) ;
#34 = SURFACE_SIDE_STYLE ('',( #179 ) ) ;
#35 = CYLINDRICAL_SURFACE ( 'NONE', #136, 0.1250000000000000000 ) ;
#36 = DIRECTION ( 'NONE',  ( 0.000000000000000000, 0.000000000000000000, -1.000000000000000000 ) ) ;
#37 = MECHANICAL_DESIGN_GEOMETRIC_PRESENTATION_REPRESENTATION (  '', ( #12 ), #101 ) ;
#38 = CARTESIAN_POINT ( 'NONE',  ( -1.224646799147352714E-16, 4.000000000000000000, 0.000000000000000000 ) ) ;
#39 = CARTESIAN_POINT ( 'NONE',  ( 1.851555287236859217E-34, 1.750000000000000000, 0.000000000000000000 ) ) ;
#40 = DIRECTION ( 'NONE',  ( -5.442874662877122626E-17, 1.000000000000000000, -0.000000000000000000 ) ) ;
#41 =( NAMED_UNIT ( * ) PLANE_ANGLE_UNIT ( ) SI_UNIT ( $, .RADIAN. ) );
#42 = PLANE ( 'NONE',  #144 ) ;
#43 = CLOSED_SHELL ( 'NONE', ( #155, #213, #130, #170 ) ) ;
#44 = FACE_OUTER_BOUND ( 'NONE', #93, .T. ) ;
#45 = CARTESIAN_POINT ( 'NONE',  ( 0.000000000000000000, 0.000000000000000000, 0.000000000000000000 ) ) ;
#46 = COLOUR_RGB ( '',1.000000000000000000, 0.000000000000000000, 0.000000000000000000 ) ;
#47 =( NAMED_UNIT ( * ) PLANE_ANGLE_UNIT ( ) SI_UNIT ( $, .RADIAN. ) );
#48 = ORIENTED_EDGE ( 'NONE', *, *, #56, .F. ) ;
#49 = PRODUCT_CONTEXT ( 'NONE', #78, 'mechanical' ) ;
#50 = DIRECTION ( 'NONE',  ( -5.442874662877122010E-17, 1.000000000000000000, -0.000000000000000000 ) ) ;
#51 = EDGE_LOOP ( 'NONE', ( #199, #175 ) ) ;
#52 = AXIS2_PLACEMENT_3D ( 'NONE', #251, #259, #24 ) ;
#53 = EDGE_CURVE ( 'NONE', #79, #116, #176, .T. ) ;
#54 = FILL_AREA_STYLE_COLOUR ( '', #197 ) ;
#55 =( CONVERSION_BASED_UNIT ( 'INCH', #209 ) LENGTH_UNIT ( ) NAMED_UNIT ( #203 ) );
#56 = EDGE_CURVE ( 'NONE', #79, #294, #128, .T. ) ;
#57 =( GEOMETRIC_REPRESENTATION_CONTEXT ( 3 ) GLOBAL_UNCERTAINTY_ASSIGNED_CONTEXT ( ( #229 ) ) GLOBAL_UNIT_ASSIGNED_CONTEXT ( ( #290, #6, #215 ) ) REPRESENTATION_CONTEXT ( 'NONE', 'WORKASPACE' ) );
#58 = CIRCLE ( 'NONE', #273, 0.1250000000000000000 ) ;
#59 = FACE_OUTER_BOUND ( 'NONE', #216, .T. ) ;
#60 = MANIFOLD_SOLID_BREP ( 'Revolve - Cutting Edge', #33 ) ;
#61 = VERTEX_POINT ( 'NONE', #158 ) ;
#62 = SURFACE_STYLE_FILL_AREA ( #299 ) ;
#63 = CARTESIAN_POINT ( 'NONE',  ( -1.224646799147352714E-16, 4.000000000000000000, 0.000000000000000000 ) ) ;
#64 = CARTESIAN_POINT ( 'NONE',  ( 0.1249999999999999861, 1.750000000000000000, 1.530808498934192125E-17 ) ) ;
#65 = FACE_OUTER_BOUND ( 'NONE', #264, .T. ) ;
#66 = VECTOR ( 'NONE', #114, 39.37007874015748143 ) ;
#67 =( GEOMETRIC_REPRESENTATION_CONTEXT ( 3 ) GLOBAL_UNCERTAINTY_ASSIGNED_CONTEXT ( ( #91 ) ) GLOBAL_UNIT_ASSIGNED_CONTEXT ( ( #152, #41, #208 ) ) REPRESENTATION_CONTEXT ( 'NONE', 'WORKASPACE' ) );
#68 = SURFACE_SIDE_STYLE ('',( #2 ) ) ;
#69 = DIRECTION ( 'NONE',  ( -0.000000000000000000, -1.000000000000000000, -0.000000000000000000 ) ) ;
#70 = PRESENTATION_LAYER_ASSIGNMENT (  '', '', ( #278 ) ) ;
#71 = DIRECTION ( 'NONE',  ( 0.000000000000000000, 0.000000000000000000, -1.000000000000000000 ) ) ;
#72 = DIRECTION ( 'NONE',  ( 0.000000000000000000, 0.000000000000000000, -1.000000000000000000 ) ) ;
#73 = ORIENTED_EDGE ( 'NONE', *, *, #247, .F. ) ;
#74 = EDGE_CURVE ( 'NONE', #61, #75, #135, .T. ) ;
#75 = VERTEX_POINT ( 'NONE', #64 ) ;
#76 = PRODUCT_DEFINITION_FORMATION_WITH_SPECIFIED_SOURCE ( 'ANY', '', #263, .NOT_KNOWN. ) ;
#77 = UNCERTAINTY_MEASURE_WITH_UNIT (LENGTH_MEASURE( 1.000000000000000082E-05 ), #173, 'distance_accuracy_value', 'NONE');
#78 = APPLICATION_CONTEXT ( 'automotive_design' ) ;
#79 = VERTEX_POINT ( 'NONE', #307 ) ;
#80 = SURFACE_STYLE_FILL_AREA ( #228 ) ;
#81 = FILL_AREA_STYLE ('',( #226 ) ) ;
#82 = CARTESIAN_POINT ( 'NONE',  ( 0.000000000000000000, 0.000000000000000000, 0.000000000000000000 ) ) ;
#83 = ORIENTED_EDGE ( 'NONE', *, *, #201, .F. ) ;
#84 = DIRECTION ( 'NONE',  ( -5.442874662877122626E-17, 1.000000000000000000, -0.000000000000000000 ) ) ;
#85 = DIRECTION ( 'NONE',  ( -1.000000000000000000, 0.000000000000000000, 0.000000000000000000 ) ) ;
#86 =( GEOMETRIC_REPRESENTATION_CONTEXT ( 3 ) GLOBAL_UNCERTAINTY_ASSIGNED_CONTEXT ( ( #100 ) ) GLOBAL_UNIT_ASSIGNED_CONTEXT ( ( #55, #123, #16 ) ) REPRESENTATION_CONTEXT ( 'NONE', 'WORKASPACE' ) );
#87 = LENGTH_MEASURE_WITH_UNIT ( LENGTH_MEASURE( 0.02539999999999999897 ), #280 );
#88 = COLOUR_RGB ( '',0.7921568627450980005, 0.8196078431372548767, 0.9333333333333333481 ) ;
#89 =( NAMED_UNIT ( * ) PLANE_ANGLE_UNIT ( ) SI_UNIT ( $, .RADIAN. ) );
#90 = ORIENTED_EDGE ( 'NONE', *, *, #118, .F. ) ;
#91 = UNCERTAINTY_MEASURE_WITH_UNIT (LENGTH_MEASURE( 1.000000000000000082E-05 ), #152, 'distance_accuracy_value', 'NONE');
#92 = COLOUR_RGB ( '',1.000000000000000000, 0.000000000000000000, 0.000000000000000000 ) ;
#93 = EDGE_LOOP ( 'NONE', ( #48, #289, #113, #240 ) ) ;
#94 = DIMENSIONAL_EXPONENTS ( 1.000000000000000000, 0.000000000000000000, 0.000000000000000000, 0.000000000000000000, 0.000000000000000000, 0.000000000000000000, 0.000000000000000000 ) ;
#95 = FILL_AREA_STYLE_COLOUR ( '', #92 ) ;
#96 = DIRECTION ( 'NONE',  ( -0.000000000000000000, -1.000000000000000000, -0.000000000000000000 ) ) ;
#97 = MECHANICAL_DESIGN_GEOMETRIC_PRESENTATION_REPRESENTATION (  '', ( #272 ), #308 ) ;
#98 = CARTESIAN_POINT ( 'NONE',  ( 0.000000000000000000, 1.750000000000000000, 0.000000000000000000 ) ) ;
#99 = LENGTH_MEASURE_WITH_UNIT ( LENGTH_MEASURE( 0.02539999999999999897 ), #147 );
#100 = UNCERTAINTY_MEASURE_WITH_UNIT (LENGTH_MEASURE( 1.000000000000000082E-05 ), #55, 'distance_accuracy_value', 'NONE');
#101 =( GEOMETRIC_REPRESENTATION_CONTEXT ( 3 ) GLOBAL_UNCERTAINTY_ASSIGNED_CONTEXT ( ( #223 ) ) GLOBAL_UNIT_ASSIGNED_CONTEXT ( ( #164, #185, #187 ) ) REPRESENTATION_CONTEXT ( 'NONE', 'WORKASPACE' ) );
#102 = DIRECTION ( 'NONE',  ( -0.000000000000000000, -1.000000000000000000, -0.000000000000000000 ) ) ;
#103 = PLANE ( 'NONE',  #180 ) ;
#104 = COLOUR_RGB ( '',1.000000000000000000, 0.000000000000000000, 0.000000000000000000 ) ;
#105 = DIRECTION ( 'NONE',  ( -5.442874662877122010E-17, 1.000000000000000000, 0.000000000000000000 ) ) ;
#106 = CYLINDRICAL_SURFACE ( 'NONE', #231, 0.1250000000000000278 ) ;
#107 = CYLINDRICAL_SURFACE ( 'NONE', #249, 0.1250000000000000000 ) ;
#108 = CYLINDRICAL_SURFACE ( 'NONE', #256, 0.1250000000000000278 ) ;
#109 = DIRECTION ( 'NONE',  ( 1.000000000000000000, 0.000000000000000000, 0.000000000000000000 ) ) ;
#110 = MECHANICAL_DESIGN_GEOMETRIC_PRESENTATION_REPRESENTATION (  '', ( #166 ), #67 ) ;
#111 = VECTOR ( 'NONE', #50, 39.37007874015748143 ) ;
#112 = PLANE ( 'NONE',  #143 ) ;
#113 = ORIENTED_EDGE ( 'NONE', *, *, #201, .T. ) ;
#114 = DIRECTION ( 'NONE',  ( -5.442874662877122010E-17, 1.000000000000000000, -0.000000000000000000 ) ) ;
#115 = FACE_OUTER_BOUND ( 'NONE', #27, .T. ) ;
#116 = VERTEX_POINT ( 'NONE', #161 ) ;
#117 = FACE_OUTER_BOUND ( 'NONE', #218, .T. ) ;
#118 = EDGE_CURVE ( 'NONE', #246, #3, #260, .T. ) ;
#119 = VECTOR ( 'NONE', #297, 39.37007874015748143 ) ;
#120 = AXIS2_PLACEMENT_3D ( 'NONE', #28, #4, #30 ) ;
#121 = DIMENSIONAL_EXPONENTS ( 1.000000000000000000, 0.000000000000000000, 0.000000000000000000, 0.000000000000000000, 0.000000000000000000, 0.000000000000000000, 0.000000000000000000 ) ;
#122 = CARTESIAN_POINT ( 'NONE',  ( 0.000000000000000000, 0.000000000000000000, 0.000000000000000000 ) ) ;
#123 =( NAMED_UNIT ( * ) PLANE_ANGLE_UNIT ( ) SI_UNIT ( $, .RADIAN. ) );
#124 = CARTESIAN_POINT ( 'NONE',  ( 0.000000000000000000, 0.000000000000000000, -0.1250000000000000000 ) ) ;
#125 = UNCERTAINTY_MEASURE_WITH_UNIT (LENGTH_MEASURE( 1.000000000000000082E-05 ), #210, 'distance_accuracy_value', 'NONE');
#126 = PRESENTATION_STYLE_ASSIGNMENT (( #225 ) ) ;
#127 = SURFACE_SIDE_STYLE ('',( #80 ) ) ;
#128 = LINE ( 'NONE', #230, #119 ) ;
#129 = PRESENTATION_STYLE_ASSIGNMENT (( #22 ) ) ;
#130 = ADVANCED_FACE ( 'NONE', ( #65 ), #108, .T. ) ;
#131 = FILL_AREA_STYLE ('',( #19 ) ) ;
#132 = CARTESIAN_POINT ( 'NONE',  ( 0.1249999999999999861, 4.000000000000000000, 0.000000000000000000 ) ) ;
#133 = CARTESIAN_POINT ( 'NONE',  ( -0.1250000000000002220, 4.000000000000000000, 0.000000000000000000 ) ) ;
#134 = ADVANCED_FACE ( 'NONE', ( #44 ), #107, .T. ) ;
#135 = CIRCLE ( 'NONE', #52, 0.1249999999999999861 ) ;
#136 = AXIS2_PLACEMENT_3D ( 'NONE', #254, #96, #154 ) ;
#137 = ORIENTED_EDGE ( 'NONE', *, *, #237, .T. ) ;
#138 = ORIENTED_EDGE ( 'NONE', *, *, #181, .F. ) ;
#139 = ADVANCED_FACE ( 'NONE', ( #115 ), #112, .T. ) ;
#140 = LENGTH_MEASURE_WITH_UNIT ( LENGTH_MEASURE( 0.02539999999999999897 ), #266 );
#141 = PRESENTATION_LAYER_ASSIGNMENT (  '', '', ( #287 ) ) ;
#142 = DIMENSIONAL_EXPONENTS ( 1.000000000000000000, 0.000000000000000000, 0.000000000000000000, 0.000000000000000000, 0.000000000000000000, 0.000000000000000000, 0.000000000000000000 ) ;
#143 = AXIS2_PLACEMENT_3D ( 'NONE', #188, #285, #36 ) ;
#144 = AXIS2_PLACEMENT_3D ( 'NONE', #132, #309, #248 ) ;
#145 = DIMENSIONAL_EXPONENTS ( 1.000000000000000000, 0.000000000000000000, 0.000000000000000000, 0.000000000000000000, 0.000000000000000000, 0.000000000000000000, 0.000000000000000000 ) ;
#146 = PRESENTATION_STYLE_ASSIGNMENT (( #232 ) ) ;
#147 =( LENGTH_UNIT ( ) NAMED_UNIT ( * ) SI_UNIT ( $, .METRE. ) );
#148 = PRODUCT_RELATED_PRODUCT_CATEGORY ( 'part', '', ( #263 ) ) ;
#149 =( NAMED_UNIT ( * ) SI_UNIT ( $, .STERADIAN. ) SOLID_ANGLE_UNIT ( ) );
#150 = SURFACE_SIDE_STYLE ('',( #62 ) ) ;
#151 = LENGTH_MEASURE_WITH_UNIT ( LENGTH_MEASURE( 0.02539999999999999897 ), #183 );
#152 =( CONVERSION_BASED_UNIT ( 'INCH', #99 ) LENGTH_UNIT ( ) NAMED_UNIT ( #271 ) );
#153 = APPLICATION_PROTOCOL_DEFINITION ( 'draft international standard', 'automotive_design', 1998, #78 ) ;
#154 = DIRECTION ( 'NONE',  ( 0.000000000000000000, 0.000000000000000000, -1.000000000000000000 ) ) ;
#155 = ADVANCED_FACE ( 'NONE', ( #305 ), #106, .T. ) ;
#156 = LENGTH_MEASURE_WITH_UNIT ( LENGTH_MEASURE( 0.02539999999999999897 ), #286 );
#157 = CARTESIAN_POINT ( 'NONE',  ( 0.1249999999999999861, 4.000000000000000000, 1.530808498934192125E-17 ) ) ;
#158 = CARTESIAN_POINT ( 'NONE',  ( -0.1249999999999999861, 1.750000000000000000, 0.000000000000000000 ) ) ;
#159 = STYLED_ITEM ( 'NONE', ( #129 ), #165 ) ;
#160 = SURFACE_STYLE_FILL_AREA ( #131 ) ;
#161 = CARTESIAN_POINT ( 'NONE',  ( 0.000000000000000000, 1.750000000000000000, -0.1249999999999999861 ) ) ;
#162 = CARTESIAN_POINT ( 'NONE',  ( -1.224646799147352714E-16, 4.000000000000000000, 0.000000000000000000 ) ) ;
#163 = PRODUCT_DEFINITION_SHAPE ( 'NONE', 'NONE',  #284 ) ;
#164 =( CONVERSION_BASED_UNIT ( 'INCH', #87 ) LENGTH_UNIT ( ) NAMED_UNIT ( #121 ) );
#165 = MANIFOLD_SOLID_BREP ( 'Revolve - Tool Body (Straight Shanked)', #43 ) ;
#166 = STYLED_ITEM ( 'NONE', ( #239 ), #139 ) ;
#167 = AXIS2_PLACEMENT_3D ( 'NONE', #221, #217, #72 ) ;
#168 = MECHANICAL_DESIGN_GEOMETRIC_PRESENTATION_REPRESENTATION (  '', ( #278 ), #57 ) ;
#169 = CARTESIAN_POINT ( 'NONE',  ( 0.1249999999999999167, 4.000000000000000000, 1.530808498934191817E-17 ) ) ;
#170 = ADVANCED_FACE ( 'NONE', ( #117 ), #42, .F. ) ;
#171 = ORIENTED_EDGE ( 'NONE', *, *, #237, .F. ) ;
#172 = ORIENTED_EDGE ( 'NONE', *, *, #291, .T. ) ;
#173 =( CONVERSION_BASED_UNIT ( 'INCH', #293 ) LENGTH_UNIT ( ) NAMED_UNIT ( #227 ) );
#174 = SURFACE_STYLE_FILL_AREA ( #306 ) ;
#175 = ORIENTED_EDGE ( 'NONE', *, *, #53, .F. ) ;
#176 = CIRCLE ( 'NONE', #235, 0.1249999999999999861 ) ;
#177 = ORIENTED_EDGE ( 'NONE', *, *, #74, .T. ) ;
#178 = CARTESIAN_POINT ( 'NONE',  ( 0.000000000000000000, 1.750000000000000000, 0.000000000000000000 ) ) ;
#179 = SURFACE_STYLE_FILL_AREA ( #81 ) ;
#180 = AXIS2_PLACEMENT_3D ( 'NONE', #39, #105, #190 ) ;
#181 = EDGE_CURVE ( 'NONE', #3, #246, #304, .T. ) ;
#182 =( LENGTH_UNIT ( ) NAMED_UNIT ( * ) SI_UNIT ( $, .METRE. ) );
#183 =( LENGTH_UNIT ( ) NAMED_UNIT ( * ) SI_UNIT ( $, .METRE. ) );
#184 = ORIENTED_EDGE ( 'NONE', *, *, #74, .F. ) ;
#185 =( NAMED_UNIT ( * ) PLANE_ANGLE_UNIT ( ) SI_UNIT ( $, .RADIAN. ) );
#186 = AXIS2_PLACEMENT_3D ( 'NONE', #38, #189, #85 ) ;
#187 =( NAMED_UNIT ( * ) SI_UNIT ( $, .STERADIAN. ) SOLID_ANGLE_UNIT ( ) );
#188 = CARTESIAN_POINT ( 'NONE',  ( 0.000000000000000000, 0.000000000000000000, 0.000000000000000000 ) ) ;
#189 = DIRECTION ( 'NONE',  ( -5.442874662877122626E-17, 1.000000000000000000, -0.000000000000000000 ) ) ;
#190 = DIRECTION ( 'NONE',  ( -1.000000000000000000, -5.442874662877122010E-17, 0.000000000000000000 ) ) ;
#191 = DIRECTION ( 'NONE',  ( 0.000000000000000000, 0.000000000000000000, -1.000000000000000000 ) ) ;
#192 =( CONVERSION_BASED_UNIT ( 'INCH', #156 ) LENGTH_UNIT ( ) NAMED_UNIT ( #145 ) );
#193 =( GEOMETRIC_REPRESENTATION_CONTEXT ( 3 ) GLOBAL_UNCERTAINTY_ASSIGNED_CONTEXT ( ( #194 ) ) GLOBAL_UNIT_ASSIGNED_CONTEXT ( ( #192, #47, #242 ) ) REPRESENTATION_CONTEXT ( 'NONE', 'WORKASPACE' ) );
#194 = UNCERTAINTY_MEASURE_WITH_UNIT (LENGTH_MEASURE( 1.000000000000000082E-05 ), #192, 'distance_accuracy_value', 'NONE');
#195 = EDGE_CURVE ( 'NONE', #294, #196, #279, .T. ) ;
#196 = VERTEX_POINT ( 'NONE', #257 ) ;
#197 = COLOUR_RGB ( '',1.000000000000000000, 0.000000000000000000, 0.000000000000000000 ) ;
#198 = SURFACE_STYLE_USAGE ( .BOTH. , #269 ) ;
#199 = ORIENTED_EDGE ( 'NONE', *, *, #268, .F. ) ;
#200 = ORIENTED_EDGE ( 'NONE', *, *, #181, .T. ) ;
#201 = EDGE_CURVE ( 'NONE', #116, #196, #282, .T. ) ;
#202 = PLANE ( 'NONE',  #21 ) ;
#203 = DIMENSIONAL_EXPONENTS ( 1.000000000000000000, 0.000000000000000000, 0.000000000000000000, 0.000000000000000000, 0.000000000000000000, 0.000000000000000000, 0.000000000000000000 ) ;
#204 = ADVANCED_FACE ( 'NONE', ( #276 ), #202, .T. ) ;
#205 = MECHANICAL_DESIGN_GEOMETRIC_PRESENTATION_REPRESENTATION (  '', ( #287 ), #86 ) ;
#206 = CIRCLE ( 'NONE', #241, 0.1249999999999999861 ) ;
#207 = DIRECTION ( 'NONE',  ( -1.000000000000000000, 0.000000000000000000, 0.000000000000000000 ) ) ;
#208 =( NAMED_UNIT ( * ) SI_UNIT ( $, .STERADIAN. ) SOLID_ANGLE_UNIT ( ) );
#209 = LENGTH_MEASURE_WITH_UNIT ( LENGTH_MEASURE( 0.02539999999999999897 ), #182 );
#210 =( CONVERSION_BASED_UNIT ( 'INCH', #151 ) LENGTH_UNIT ( ) NAMED_UNIT ( #94 ) );
#211 = DIRECTION ( 'NONE',  ( 0.000000000000000000, 0.000000000000000000, 1.000000000000000000 ) ) ;
#212 = AXIS2_PLACEMENT_3D ( 'NONE', #302, #211, #109 ) ;
#213 = ADVANCED_FACE ( 'NONE', ( #59 ), #103, .F. ) ;
#214 = FILL_AREA_STYLE_COLOUR ( '', #46 ) ;
#215 =( NAMED_UNIT ( * ) SI_UNIT ( $, .STERADIAN. ) SOLID_ANGLE_UNIT ( ) );
#216 = EDGE_LOOP ( 'NONE', ( #184, #26 ) ) ;
#217 = DIRECTION ( 'NONE',  ( -0.000000000000000000, -1.000000000000000000, -0.000000000000000000 ) ) ;
#218 = EDGE_LOOP ( 'NONE', ( #219, #200 ) ) ;
#219 = ORIENTED_EDGE ( 'NONE', *, *, #118, .T. ) ;
#220 = EDGE_LOOP ( 'NONE', ( #177, #172, #90, #73 ) ) ;
#221 = CARTESIAN_POINT ( 'NONE',  ( 0.000000000000000000, 1.750000000000000000, 0.000000000000000000 ) ) ;
#222 = DIRECTION ( 'NONE',  ( -0.000000000000000000, -1.000000000000000000, -0.000000000000000000 ) ) ;
#223 = UNCERTAINTY_MEASURE_WITH_UNIT (LENGTH_MEASURE( 1.000000000000000082E-05 ), #164, 'distance_accuracy_value', 'NONE');
#224 = AXIS2_PLACEMENT_3D ( 'NONE', #82, #18, #191 ) ;
#225 = SURFACE_STYLE_USAGE ( .BOTH. , #150 ) ;
#226 = FILL_AREA_STYLE_COLOUR ( '', #11 ) ;
#227 = DIMENSIONAL_EXPONENTS ( 1.000000000000000000, 0.000000000000000000, 0.000000000000000000, 0.000000000000000000, 0.000000000000000000, 0.000000000000000000, 0.000000000000000000 ) ;
#228 = FILL_AREA_STYLE ('',( #54 ) ) ;
#229 = UNCERTAINTY_MEASURE_WITH_UNIT (LENGTH_MEASURE( 1.000000000000000082E-05 ), #290, 'distance_accuracy_value', 'NONE');
#230 = CARTESIAN_POINT ( 'NONE',  ( 1.530808498934191509E-17, 0.000000000000000000, 0.1250000000000000000 ) ) ;
#231 = AXIS2_PLACEMENT_3D ( 'NONE', #162, #84, #258 ) ;
#232 = SURFACE_STYLE_USAGE ( .BOTH. , #127 ) ;
#233 =( GEOMETRIC_REPRESENTATION_CONTEXT ( 3 ) GLOBAL_UNCERTAINTY_ASSIGNED_CONTEXT ( ( #77 ) ) GLOBAL_UNIT_ASSIGNED_CONTEXT ( ( #173, #89, #149 ) ) REPRESENTATION_CONTEXT ( 'NONE', 'WORKASPACE' ) );
#234 = PRODUCT_DEFINITION_CONTEXT ( 'detailed design', #275, 'design' ) ;
#235 = AXIS2_PLACEMENT_3D ( 'NONE', #178, #296, #274 ) ;
#236 = VECTOR ( 'NONE', #102, 39.37007874015748143 ) ;
#237 = EDGE_CURVE ( 'NONE', #196, #294, #58, .T. ) ;
#238 =( LENGTH_UNIT ( ) NAMED_UNIT ( * ) SI_UNIT ( $, .METRE. ) );
#239 = PRESENTATION_STYLE_ASSIGNMENT (( #261 ) ) ;
#240 = ORIENTED_EDGE ( 'NONE', *, *, #195, .F. ) ;
#241 = AXIS2_PLACEMENT_3D ( 'NONE', #10, #298, #207 ) ;
#242 =( NAMED_UNIT ( * ) SI_UNIT ( $, .STERADIAN. ) SOLID_ANGLE_UNIT ( ) );
#243 = SHAPE_DEFINITION_REPRESENTATION ( #163, #262 ) ;
#244 = CARTESIAN_POINT ( 'NONE',  ( -0.1250000000000001388, 4.000000000000000000, 0.000000000000000000 ) ) ;
#245 = PRESENTATION_STYLE_ASSIGNMENT (( #198 ) ) ;
#246 = VERTEX_POINT ( 'NONE', #133 ) ;
#247 = EDGE_CURVE ( 'NONE', #61, #246, #250, .T. ) ;
#248 = DIRECTION ( 'NONE',  ( 1.000000000000000000, 5.442874662877122010E-17, 0.000000000000000000 ) ) ;
#249 = AXIS2_PLACEMENT_3D ( 'NONE', #122, #222, #9 ) ;
#250 = LINE ( 'NONE', #244, #66 ) ;
#251 = CARTESIAN_POINT ( 'NONE',  ( 0.000000000000000000, 1.750000000000000000, 0.000000000000000000 ) ) ;
#252 = PRESENTATION_LAYER_ASSIGNMENT (  '', '', ( #12 ) ) ;
#253 = CIRCLE ( 'NONE', #167, 0.1249999999999999861 ) ;
#254 = CARTESIAN_POINT ( 'NONE',  ( 0.000000000000000000, 0.000000000000000000, 0.000000000000000000 ) ) ;
#255 = ORIENTED_EDGE ( 'NONE', *, *, #5, .T. ) ;
#256 = AXIS2_PLACEMENT_3D ( 'NONE', #63, #40, #20 ) ;
#257 = CARTESIAN_POINT ( 'NONE',  ( 0.000000000000000000, 0.000000000000000000, -0.1250000000000000000 ) ) ;
#258 = DIRECTION ( 'NONE',  ( -1.000000000000000000, 0.000000000000000000, 0.000000000000000000 ) ) ;
#259 = DIRECTION ( 'NONE',  ( -5.442874662877122626E-17, 1.000000000000000000, -0.000000000000000000 ) ) ;
#260 = CIRCLE ( 'NONE', #186, 0.1250000000000001110 ) ;
#261 = SURFACE_STYLE_USAGE ( .BOTH. , #68 ) ;
#262 = ADVANCED_BREP_SHAPE_REPRESENTATION ( '81370', ( #60, #165, #212 ), #233 ) ;
#263 = PRODUCT ( '81370', '81370', '', ( #49 ) ) ;
#264 = EDGE_LOOP ( 'NONE', ( #292, #255, #281, #138 ) ) ;
#265 = PRESENTATION_LAYER_ASSIGNMENT (  '', '', ( #166 ) ) ;
#266 =( LENGTH_UNIT ( ) NAMED_UNIT ( * ) SI_UNIT ( $, .METRE. ) );
#267 = ORIENTED_EDGE ( 'NONE', *, *, #268, .T. ) ;
#268 = EDGE_CURVE ( 'NONE', #116, #79, #253, .T. ) ;
#269 = SURFACE_SIDE_STYLE ('',( #174 ) ) ;
#270 = EDGE_LOOP ( 'NONE', ( #267, #7, #171, #83 ) ) ;
#271 = DIMENSIONAL_EXPONENTS ( 1.000000000000000000, 0.000000000000000000, 0.000000000000000000, 0.000000000000000000, 0.000000000000000000, 0.000000000000000000, 0.000000000000000000 ) ;
#272 = STYLED_ITEM ( 'NONE', ( #146 ), #23 ) ;
#273 = AXIS2_PLACEMENT_3D ( 'NONE', #45, #69, #71 ) ;
#274 = DIRECTION ( 'NONE',  ( 0.000000000000000000, 0.000000000000000000, -1.000000000000000000 ) ) ;
#275 = APPLICATION_CONTEXT ( 'automotive_design' ) ;
#276 = FACE_OUTER_BOUND ( 'NONE', #51, .T. ) ;
#277 = ORIENTED_EDGE ( 'NONE', *, *, #195, .T. ) ;
#278 = STYLED_ITEM ( 'NONE', ( #245 ), #134 ) ;
#279 = CIRCLE ( 'NONE', #224, 0.1250000000000000000 ) ;
#280 =( LENGTH_UNIT ( ) NAMED_UNIT ( * ) SI_UNIT ( $, .METRE. ) );
#281 = ORIENTED_EDGE ( 'NONE', *, *, #247, .T. ) ;
#282 = LINE ( 'NONE', #124, #236 ) ;
#283 = PRESENTATION_LAYER_ASSIGNMENT (  '', '', ( #272 ) ) ;
#284 = PRODUCT_DEFINITION ( 'UNKNOWN', '', #76, #234 ) ;
#285 = DIRECTION ( 'NONE',  ( 0.000000000000000000, -1.000000000000000000, -0.000000000000000000 ) ) ;
#286 =( LENGTH_UNIT ( ) NAMED_UNIT ( * ) SI_UNIT ( $, .METRE. ) );
#287 = STYLED_ITEM ( 'NONE', ( #126 ), #204 ) ;
#288 = FILL_AREA_STYLE ('',( #95 ) ) ;
#289 = ORIENTED_EDGE ( 'NONE', *, *, #53, .T. ) ;
#290 =( CONVERSION_BASED_UNIT ( 'INCH', #140 ) LENGTH_UNIT ( ) NAMED_UNIT ( #142 ) );
#291 = EDGE_CURVE ( 'NONE', #75, #3, #1, .T. ) ;
#292 = ORIENTED_EDGE ( 'NONE', *, *, #291, .F. ) ;
#293 = LENGTH_MEASURE_WITH_UNIT ( LENGTH_MEASURE( 0.02539999999999999897 ), #238 );
#294 = VERTEX_POINT ( 'NONE', #8 ) ;
#295 = DIRECTION ( 'NONE',  ( 0.000000000000000000, 1.000000000000000000, 0.000000000000000000 ) ) ;
#296 = DIRECTION ( 'NONE',  ( -0.000000000000000000, -1.000000000000000000, -0.000000000000000000 ) ) ;
#297 = DIRECTION ( 'NONE',  ( -0.000000000000000000, -1.000000000000000000, -0.000000000000000000 ) ) ;
#298 = DIRECTION ( 'NONE',  ( -5.442874662877122626E-17, 1.000000000000000000, -0.000000000000000000 ) ) ;
#299 = FILL_AREA_STYLE ('',( #31 ) ) ;
#300 = SURFACE_STYLE_USAGE ( .BOTH. , #34 ) ;
#301 =( NAMED_UNIT ( * ) PLANE_ANGLE_UNIT ( ) SI_UNIT ( $, .RADIAN. ) );
#302 = CARTESIAN_POINT ( 'NONE',  ( 0.000000000000000000, 0.000000000000000000, 0.000000000000000000 ) ) ;
#303 = MECHANICAL_DESIGN_GEOMETRIC_PRESENTATION_REPRESENTATION (  '', ( #159 ), #193 ) ;
#304 = CIRCLE ( 'NONE', #120, 0.1250000000000001110 ) ;
#305 = FACE_OUTER_BOUND ( 'NONE', #220, .T. ) ;
#306 = FILL_AREA_STYLE ('',( #214 ) ) ;
#307 = CARTESIAN_POINT ( 'NONE',  ( 1.530808498934191201E-17, 1.750000000000000000, 0.1249999999999999861 ) ) ;
#308 =( GEOMETRIC_REPRESENTATION_CONTEXT ( 3 ) GLOBAL_UNCERTAINTY_ASSIGNED_CONTEXT ( ( #125 ) ) GLOBAL_UNIT_ASSIGNED_CONTEXT ( ( #210, #301, #32 ) ) REPRESENTATION_CONTEXT ( 'NONE', 'WORKASPACE' ) );
#309 = DIRECTION ( 'NONE',  ( 5.442874662877122010E-17, -1.000000000000000000, 0.000000000000000000 ) ) ;
ENDSEC;
END-ISO-10303-21;
