ISO-10303-21;
HEADER;
FILE_DESCRIPTION (( 'STEP AP214' ),
    '1' );
FILE_NAME ('03287.STEP',
    '2023-06-22T15:08:17',
    ( '' ),
    ( '' ),
    'SwSTEP 2.0',
    'SolidWorks 2023',
    '' );
FILE_SCHEMA (( 'AUTOMOTIVE_DESIGN' ));
ENDSEC;

DATA;
#1 = ORIENTED_EDGE ( 'NONE', *, *, #244, .F. ) ;
#2 = EDGE_CURVE ( 'NONE', #210, #206, #280, .T. ) ;
#3 = VERTEX_POINT ( 'NONE', #49 ) ;
#4 = AXIS2_PLACEMENT_3D ( 'NONE', #110, #62, #41 ) ;
#5 = PRESENTATION_LAYER_ASSIGNMENT (  '', '', ( #181 ) ) ;
#6 = DIRECTION ( 'NONE',  ( -0.000000000000000000, -1.000000000000000000, -0.000000000000000000 ) ) ;
#7 = LINE ( 'NONE', #112, #97 ) ;
#8 = ADVANCED_FACE ( 'NONE', ( #144 ), #87, .T. ) ;
#9 = CARTESIAN_POINT ( 'NONE',  ( -6.123233995736772199E-17, 3.000000000000000444, 0.000000000000000000 ) ) ;
#10 = SURFACE_STYLE_FILL_AREA ( #272 ) ;
#11 = DIRECTION ( 'NONE',  ( -0.000000000000000000, -1.000000000000000000, -0.000000000000000000 ) ) ;
#12 = PRESENTATION_STYLE_ASSIGNMENT (( #179 ) ) ;
#13 = CIRCLE ( 'NONE', #228, 0.1562500000000000000 ) ;
#14 = CIRCLE ( 'NONE', #79, 0.1562500000000000833 ) ;
#15 = SURFACE_STYLE_USAGE ( .BOTH. , #223 ) ;
#16 = CARTESIAN_POINT ( 'NONE',  ( 0.000000000000000000, 1.250000000000000000, 0.000000000000000000 ) ) ;
#17 = ADVANCED_FACE ( 'NONE', ( #152 ), #199, .T. ) ;
#18 = FILL_AREA_STYLE_COLOUR ( '', #175 ) ;
#19 = COLOUR_RGB ( '',1.000000000000000000, 0.000000000000000000, 0.000000000000000000 ) ;
#20 = CARTESIAN_POINT ( 'NONE',  ( 0.000000000000000000, 0.000000000000000000, 0.000000000000000000 ) ) ;
#21 = ADVANCED_FACE ( 'NONE', ( #133 ), #44, .F. ) ;
#22 = DIRECTION ( 'NONE',  ( 0.000000000000000000, 0.000000000000000000, 1.000000000000000000 ) ) ;
#23 = MECHANICAL_DESIGN_GEOMETRIC_PRESENTATION_REPRESENTATION (  '', ( #33 ), #143 ) ;
#24 = DIRECTION ( 'NONE',  ( -0.000000000000000000, -1.000000000000000000, -0.000000000000000000 ) ) ;
#25 = PRODUCT_DEFINITION_CONTEXT ( 'detailed design', #190, 'design' ) ;
#26 = DIRECTION ( 'NONE',  ( -3.498990854706726443E-17, 1.000000000000000000, -0.000000000000000000 ) ) ;
#27 = CARTESIAN_POINT ( 'NONE',  ( -0.1562500000000000000, 1.250000000000000000, 0.000000000000000000 ) ) ;
#28 =( LENGTH_UNIT ( ) NAMED_UNIT ( * ) SI_UNIT ( $, .METRE. ) );
#29 = FILL_AREA_STYLE_COLOUR ( '', #32 ) ;
#30 = EDGE_LOOP ( 'NONE', ( #149, #82, #187, #168 ) ) ;
#31 = EDGE_CURVE ( 'NONE', #210, #81, #13, .T. ) ;
#32 = COLOUR_RGB ( '',0.7921568627450980005, 0.8196078431372548767, 0.9333333333333333481 ) ;
#33 = STYLED_ITEM ( 'NONE', ( #12 ), #192 ) ;
#34 = ORIENTED_EDGE ( 'NONE', *, *, #99, .T. ) ;
#35 = EDGE_CURVE ( 'NONE', #212, #206, #303, .T. ) ;
#36 = EDGE_LOOP ( 'NONE', ( #145, #164 ) ) ;
#37 =( LENGTH_UNIT ( ) NAMED_UNIT ( * ) SI_UNIT ( $, .METRE. ) );
#38 = CIRCLE ( 'NONE', #103, 0.1562500000000000000 ) ;
#39 = AXIS2_PLACEMENT_3D ( 'NONE', #202, #157, #300 ) ;
#40 = FILL_AREA_STYLE ('',( #295 ) ) ;
#41 = DIRECTION ( 'NONE',  ( -1.000000000000000000, -3.498990854706726443E-17, 0.000000000000000000 ) ) ;
#42 = EDGE_CURVE ( 'NONE', #261, #167, #241, .T. ) ;
#43 = PRODUCT_DEFINITION_FORMATION_WITH_SPECIFIED_SOURCE ( 'ANY', '', #284, .NOT_KNOWN. ) ;
#44 = PLANE ( 'NONE',  #4 ) ;
#45 = EDGE_CURVE ( 'NONE', #167, #3, #38, .T. ) ;
#46 = FILL_AREA_STYLE ('',( #251 ) ) ;
#47 = COLOUR_RGB ( '',1.000000000000000000, 0.000000000000000000, 0.000000000000000000 ) ;
#48 = EDGE_CURVE ( 'NONE', #54, #3, #221, .T. ) ;
#49 = CARTESIAN_POINT ( 'NONE',  ( 1.913510623667739463E-17, 0.000000000000000000, 0.1562500000000000000 ) ) ;
#50 =( GEOMETRIC_REPRESENTATION_CONTEXT ( 3 ) GLOBAL_UNCERTAINTY_ASSIGNED_CONTEXT ( ( #302 ) ) GLOBAL_UNIT_ASSIGNED_CONTEXT ( ( #74, #229, #204 ) ) REPRESENTATION_CONTEXT ( 'NONE', 'WORKASPACE' ) );
#51 = CARTESIAN_POINT ( 'NONE',  ( 0.000000000000000000, 1.250000000000000000, -0.1562500000000000000 ) ) ;
#52 = ORIENTED_EDGE ( 'NONE', *, *, #2, .F. ) ;
#53 = CARTESIAN_POINT ( 'NONE',  ( 0.000000000000000000, 0.000000000000000000, 0.000000000000000000 ) ) ;
#54 = VERTEX_POINT ( 'NONE', #114 ) ;
#55 = ADVANCED_FACE ( 'NONE', ( #195 ), #292, .T. ) ;
#56 = SURFACE_SIDE_STYLE ('',( #88 ) ) ;
#57 = PRESENTATION_LAYER_ASSIGNMENT (  '', '', ( #287 ) ) ;
#58 = AXIS2_PLACEMENT_3D ( 'NONE', #297, #220, #225 ) ;
#59 =( LENGTH_UNIT ( ) NAMED_UNIT ( * ) SI_UNIT ( $, .METRE. ) );
#60 = ORIENTED_EDGE ( 'NONE', *, *, #219, .T. ) ;
#61 = MANIFOLD_SOLID_BREP ( 'Revolve - Cutting Edge', #148 ) ;
#62 = DIRECTION ( 'NONE',  ( -3.498990854706726443E-17, 1.000000000000000000, 0.000000000000000000 ) ) ;
#63 =( LENGTH_UNIT ( ) NAMED_UNIT ( * ) SI_UNIT ( $, .METRE. ) );
#64 = DIRECTION ( 'NONE',  ( -1.000000000000000000, 0.000000000000000000, 0.000000000000000000 ) ) ;
#65 = AXIS2_PLACEMENT_3D ( 'NONE', #9, #151, #193 ) ;
#66 = PRODUCT_DEFINITION_SHAPE ( 'NONE', 'NONE',  #150 ) ;
#67 = CARTESIAN_POINT ( 'NONE',  ( 0.1562500000000000000, 3.000000000000000444, 1.913510623667739771E-17 ) ) ;
#68 = CARTESIAN_POINT ( 'NONE',  ( -0.1562500000000001388, 3.000000000000000444, 0.000000000000000000 ) ) ;
#69 = DIRECTION ( 'NONE',  ( 0.000000000000000000, 0.000000000000000000, -1.000000000000000000 ) ) ;
#70 = PRESENTATION_STYLE_ASSIGNMENT (( #274 ) ) ;
#71 = APPLICATION_PROTOCOL_DEFINITION ( 'draft international standard', 'automotive_design', 1998, #190 ) ;
#72 = STYLED_ITEM ( 'NONE', ( #116 ), #55 ) ;
#73 = AXIS2_PLACEMENT_3D ( 'NONE', #16, #178, #69 ) ;
#74 =( CONVERSION_BASED_UNIT ( 'INCH', #283 ) LENGTH_UNIT ( ) NAMED_UNIT ( #86 ) );
#75 = ADVANCED_BREP_SHAPE_REPRESENTATION ( '03287', ( #61, #250, #247 ), #224 ) ;
#76 = DIRECTION ( 'NONE',  ( -3.498990854706726443E-17, 1.000000000000000000, -0.000000000000000000 ) ) ;
#77 = ADVANCED_FACE ( 'NONE', ( #142 ), #235, .T. ) ;
#78 = DIRECTION ( 'NONE',  ( -3.498990854706726443E-17, 1.000000000000000000, -0.000000000000000000 ) ) ;
#79 = AXIS2_PLACEMENT_3D ( 'NONE', #194, #78, #277 ) ;
#80 = AXIS2_PLACEMENT_3D ( 'NONE', #95, #24, #102 ) ;
#81 = VERTEX_POINT ( 'NONE', #27 ) ;
#82 = ORIENTED_EDGE ( 'NONE', *, *, #48, .T. ) ;
#83 = PRESENTATION_LAYER_ASSIGNMENT (  '', '', ( #33 ) ) ;
#84 = SURFACE_STYLE_USAGE ( .BOTH. , #56 ) ;
#85 = LENGTH_MEASURE_WITH_UNIT ( LENGTH_MEASURE( 0.02539999999999999897 ), #37 );
#86 = DIMENSIONAL_EXPONENTS ( 1.000000000000000000, 0.000000000000000000, 0.000000000000000000, 0.000000000000000000, 0.000000000000000000, 0.000000000000000000, 0.000000000000000000 ) ;
#87 = CYLINDRICAL_SURFACE ( 'NONE', #275, 0.1562500000000000278 ) ;
#88 = SURFACE_STYLE_FILL_AREA ( #263 ) ;
#89 = DIRECTION ( 'NONE',  ( 0.000000000000000000, 1.000000000000000000, 0.000000000000000000 ) ) ;
#90 = MECHANICAL_DESIGN_GEOMETRIC_PRESENTATION_REPRESENTATION (  '', ( #287 ), #266 ) ;
#91 = SURFACE_SIDE_STYLE ('',( #135 ) ) ;
#92 = CARTESIAN_POINT ( 'NONE',  ( 0.1562500000000000000, 1.250000000000000000, 1.913510623667739771E-17 ) ) ;
#93 = PRESENTATION_LAYER_ASSIGNMENT (  '', '', ( #72 ) ) ;
#94 = SURFACE_SIDE_STYLE ('',( #10 ) ) ;
#95 = CARTESIAN_POINT ( 'NONE',  ( 0.000000000000000000, 0.000000000000000000, 0.000000000000000000 ) ) ;
#96 =( NAMED_UNIT ( * ) SI_UNIT ( $, .STERADIAN. ) SOLID_ANGLE_UNIT ( ) );
#97 = VECTOR ( 'NONE', #191, 39.37007874015748143 ) ;
#98 = AXIS2_PLACEMENT_3D ( 'NONE', #165, #207, #255 ) ;
#99 = EDGE_CURVE ( 'NONE', #81, #212, #7, .T. ) ;
#100 = DIRECTION ( 'NONE',  ( 1.000000000000000000, 0.000000000000000000, 0.000000000000000000 ) ) ;
#101 =( NAMED_UNIT ( * ) SI_UNIT ( $, .STERADIAN. ) SOLID_ANGLE_UNIT ( ) );
#102 = DIRECTION ( 'NONE',  ( 0.000000000000000000, 0.000000000000000000, -1.000000000000000000 ) ) ;
#103 = AXIS2_PLACEMENT_3D ( 'NONE', #153, #111, #289 ) ;
#104 = EDGE_LOOP ( 'NONE', ( #124, #239, #106, #208 ) ) ;
#105 = FILL_AREA_STYLE ('',( #29 ) ) ;
#106 = ORIENTED_EDGE ( 'NONE', *, *, #35, .F. ) ;
#107 = LENGTH_MEASURE_WITH_UNIT ( LENGTH_MEASURE( 0.02539999999999999897 ), #63 );
#108 = SURFACE_SIDE_STYLE ('',( #128 ) ) ;
#109 = ORIENTED_EDGE ( 'NONE', *, *, #48, .F. ) ;
#110 = CARTESIAN_POINT ( 'NONE',  ( 9.564794532282272738E-35, 1.250000000000000000, 0.000000000000000000 ) ) ;
#111 = DIRECTION ( 'NONE',  ( -0.000000000000000000, -1.000000000000000000, -0.000000000000000000 ) ) ;
#112 = CARTESIAN_POINT ( 'NONE',  ( -0.1562500000000001110, 3.000000000000000444, 0.000000000000000000 ) ) ;
#113 = DIRECTION ( 'NONE',  ( -3.498990854706726443E-17, 1.000000000000000000, -0.000000000000000000 ) ) ;
#114 = CARTESIAN_POINT ( 'NONE',  ( 1.913510623667739463E-17, 1.250000000000000000, 0.1562500000000000000 ) ) ;
#115 = STYLED_ITEM ( 'NONE', ( #186 ), #61 ) ;
#116 = PRESENTATION_STYLE_ASSIGNMENT (( #15 ) ) ;
#117 =( NAMED_UNIT ( * ) PLANE_ANGLE_UNIT ( ) SI_UNIT ( $, .RADIAN. ) );
#118 =( CONVERSION_BASED_UNIT ( 'INCH', #158 ) LENGTH_UNIT ( ) NAMED_UNIT ( #269 ) );
#119 = APPLICATION_PROTOCOL_DEFINITION ( 'draft international standard', 'automotive_design', 1998, #230 ) ;
#120 = ORIENTED_EDGE ( 'NONE', *, *, #31, .T. ) ;
#121 = LENGTH_MEASURE_WITH_UNIT ( LENGTH_MEASURE( 0.02539999999999999897 ), #28 );
#122 = UNCERTAINTY_MEASURE_WITH_UNIT (LENGTH_MEASURE( 1.000000000000000082E-05 ), #242, 'distance_accuracy_value', 'NONE');
#123 = SURFACE_STYLE_USAGE ( .BOTH. , #108 ) ;
#124 = ORIENTED_EDGE ( 'NONE', *, *, #198, .T. ) ;
#125 =( LENGTH_UNIT ( ) NAMED_UNIT ( * ) SI_UNIT ( $, .METRE. ) );
#126 = AXIS2_PLACEMENT_3D ( 'NONE', #188, #89, #243 ) ;
#127 = ORIENTED_EDGE ( 'NONE', *, *, #219, .F. ) ;
#128 = SURFACE_STYLE_FILL_AREA ( #105 ) ;
#129 = ORIENTED_EDGE ( 'NONE', *, *, #286, .T. ) ;
#130 = EDGE_LOOP ( 'NONE', ( #109, #60, #234, #182 ) ) ;
#131 = CARTESIAN_POINT ( 'NONE',  ( 0.000000000000000000, 0.000000000000000000, -0.1562500000000000000 ) ) ;
#132 = CYLINDRICAL_SURFACE ( 'NONE', #39, 0.1562500000000000000 ) ;
#133 = FACE_OUTER_BOUND ( 'NONE', #36, .T. ) ;
#134 = DIRECTION ( 'NONE',  ( -1.000000000000000000, 0.000000000000000000, 0.000000000000000000 ) ) ;
#135 = SURFACE_STYLE_FILL_AREA ( #40 ) ;
#136 =( GEOMETRIC_REPRESENTATION_CONTEXT ( 3 ) GLOBAL_UNCERTAINTY_ASSIGNED_CONTEXT ( ( #146 ) ) GLOBAL_UNIT_ASSIGNED_CONTEXT ( ( #211, #205, #101 ) ) REPRESENTATION_CONTEXT ( 'NONE', 'WORKASPACE' ) );
#137 = PLANE ( 'NONE',  #58 ) ;
#138 = SURFACE_STYLE_FILL_AREA ( #46 ) ;
#139 =( CONVERSION_BASED_UNIT ( 'INCH', #121 ) LENGTH_UNIT ( ) NAMED_UNIT ( #291 ) );
#140 = PRODUCT_CONTEXT ( 'NONE', #230, 'mechanical' ) ;
#141 = PRESENTATION_LAYER_ASSIGNMENT (  '', '', ( #115 ) ) ;
#142 = FACE_OUTER_BOUND ( 'NONE', #171, .T. ) ;
#143 =( GEOMETRIC_REPRESENTATION_CONTEXT ( 3 ) GLOBAL_UNCERTAINTY_ASSIGNED_CONTEXT ( ( #294 ) ) GLOBAL_UNIT_ASSIGNED_CONTEXT ( ( #118, #117, #248 ) ) REPRESENTATION_CONTEXT ( 'NONE', 'WORKASPACE' ) );
#144 = FACE_OUTER_BOUND ( 'NONE', #104, .T. ) ;
#145 = ORIENTED_EDGE ( 'NONE', *, *, #198, .F. ) ;
#146 = UNCERTAINTY_MEASURE_WITH_UNIT (LENGTH_MEASURE( 1.000000000000000082E-05 ), #211, 'distance_accuracy_value', 'NONE');
#147 = DIRECTION ( 'NONE',  ( -1.000000000000000000, 0.000000000000000000, 0.000000000000000000 ) ) ;
#148 = CLOSED_SHELL ( 'NONE', ( #154, #17, #55, #192 ) ) ;
#149 = ORIENTED_EDGE ( 'NONE', *, *, #244, .T. ) ;
#150 = PRODUCT_DEFINITION ( 'UNKNOWN', '', #43, #25 ) ;
#151 = DIRECTION ( 'NONE',  ( -3.498990854706726443E-17, 1.000000000000000000, -0.000000000000000000 ) ) ;
#152 = FACE_OUTER_BOUND ( 'NONE', #169, .T. ) ;
#153 = CARTESIAN_POINT ( 'NONE',  ( 0.000000000000000000, 0.000000000000000000, 0.000000000000000000 ) ) ;
#154 = ADVANCED_FACE ( 'NONE', ( #290 ), #132, .T. ) ;
#155 = CARTESIAN_POINT ( 'NONE',  ( 0.000000000000000000, 1.250000000000000000, 0.000000000000000000 ) ) ;
#156 = FILL_AREA_STYLE ('',( #176 ) ) ;
#157 = DIRECTION ( 'NONE',  ( -0.000000000000000000, -1.000000000000000000, -0.000000000000000000 ) ) ;
#158 = LENGTH_MEASURE_WITH_UNIT ( LENGTH_MEASURE( 0.02539999999999999897 ), #246 );
#159 = DIRECTION ( 'NONE',  ( -3.498990854706726443E-17, 1.000000000000000000, -0.000000000000000000 ) ) ;
#160 = DIRECTION ( 'NONE',  ( 0.000000000000000000, 0.000000000000000000, -1.000000000000000000 ) ) ;
#161 = CLOSED_SHELL ( 'NONE', ( #8, #21, #77, #301 ) ) ;
#162 = SHAPE_DEFINITION_REPRESENTATION ( #66, #75 ) ;
#163 = CIRCLE ( 'NONE', #197, 0.1562500000000000000 ) ;
#164 = ORIENTED_EDGE ( 'NONE', *, *, #31, .F. ) ;
#165 = CARTESIAN_POINT ( 'NONE',  ( 0.1562500000000000000, 3.000000000000000444, 0.000000000000000000 ) ) ;
#166 = UNCERTAINTY_MEASURE_WITH_UNIT (LENGTH_MEASURE( 1.000000000000000082E-05 ), #185, 'distance_accuracy_value', 'NONE');
#167 = VERTEX_POINT ( 'NONE', #268 ) ;
#168 = ORIENTED_EDGE ( 'NONE', *, *, #42, .F. ) ;
#169 = EDGE_LOOP ( 'NONE', ( #1, #127 ) ) ;
#170 =( NAMED_UNIT ( * ) PLANE_ANGLE_UNIT ( ) SI_UNIT ( $, .RADIAN. ) );
#171 = EDGE_LOOP ( 'NONE', ( #52, #120, #34, #309 ) ) ;
#172 = PRESENTATION_STYLE_ASSIGNMENT (( #84 ) ) ;
#173 = CARTESIAN_POINT ( 'NONE',  ( 0.000000000000000000, 1.250000000000000000, 0.000000000000000000 ) ) ;
#174 =( NAMED_UNIT ( * ) PLANE_ANGLE_UNIT ( ) SI_UNIT ( $, .RADIAN. ) );
#175 = COLOUR_RGB ( '',1.000000000000000000, 0.000000000000000000, 0.000000000000000000 ) ;
#176 = FILL_AREA_STYLE_COLOUR ( '', #47 ) ;
#177 =( LENGTH_UNIT ( ) NAMED_UNIT ( * ) SI_UNIT ( $, .METRE. ) );
#178 = DIRECTION ( 'NONE',  ( -0.000000000000000000, -1.000000000000000000, -0.000000000000000000 ) ) ;
#179 = SURFACE_STYLE_USAGE ( .BOTH. , #94 ) ;
#180 = UNCERTAINTY_MEASURE_WITH_UNIT (LENGTH_MEASURE( 1.000000000000000082E-05 ), #285, 'distance_accuracy_value', 'NONE');
#181 = STYLED_ITEM ( 'NONE', ( #70 ), #250 ) ;
#182 = ORIENTED_EDGE ( 'NONE', *, *, #305, .F. ) ;
#183 = ORIENTED_EDGE ( 'NONE', *, *, #305, .T. ) ;
#184 = LENGTH_MEASURE_WITH_UNIT ( LENGTH_MEASURE( 0.02539999999999999897 ), #59 );
#185 =( CONVERSION_BASED_UNIT ( 'INCH', #107 ) LENGTH_UNIT ( ) NAMED_UNIT ( #273 ) );
#186 = PRESENTATION_STYLE_ASSIGNMENT (( #123 ) ) ;
#187 = ORIENTED_EDGE ( 'NONE', *, *, #45, .F. ) ;
#188 = CARTESIAN_POINT ( 'NONE',  ( 0.000000000000000000, 1.250000000000000000, 0.000000000000000000 ) ) ;
#189 =( GEOMETRIC_REPRESENTATION_CONTEXT ( 3 ) GLOBAL_UNCERTAINTY_ASSIGNED_CONTEXT ( ( #166 ) ) GLOBAL_UNIT_ASSIGNED_CONTEXT ( ( #185, #217, #265 ) ) REPRESENTATION_CONTEXT ( 'NONE', 'WORKASPACE' ) );
#190 = APPLICATION_CONTEXT ( 'automotive_design' ) ;
#191 = DIRECTION ( 'NONE',  ( -3.498990854706726443E-17, 1.000000000000000000, -0.000000000000000000 ) ) ;
#192 = ADVANCED_FACE ( 'NONE', ( #222 ), #137, .T. ) ;
#193 = DIRECTION ( 'NONE',  ( -1.000000000000000000, 0.000000000000000000, 0.000000000000000000 ) ) ;
#194 = CARTESIAN_POINT ( 'NONE',  ( -6.123233995736772199E-17, 3.000000000000000444, 0.000000000000000000 ) ) ;
#195 = FACE_OUTER_BOUND ( 'NONE', #130, .T. ) ;
#196 = VECTOR ( 'NONE', #76, 39.37007874015748143 ) ;
#197 = AXIS2_PLACEMENT_3D ( 'NONE', #155, #296, #160 ) ;
#198 = EDGE_CURVE ( 'NONE', #81, #210, #253, .T. ) ;
#199 = PLANE ( 'NONE',  #126 ) ;
#200 = DIRECTION ( 'NONE',  ( -1.000000000000000000, 0.000000000000000000, 0.000000000000000000 ) ) ;
#201 = AXIS2_PLACEMENT_3D ( 'NONE', #226, #159, #200 ) ;
#202 = CARTESIAN_POINT ( 'NONE',  ( 0.000000000000000000, 0.000000000000000000, 0.000000000000000000 ) ) ;
#203 = FACE_OUTER_BOUND ( 'NONE', #240, .T. ) ;
#204 =( NAMED_UNIT ( * ) SI_UNIT ( $, .STERADIAN. ) SOLID_ANGLE_UNIT ( ) );
#205 =( NAMED_UNIT ( * ) PLANE_ANGLE_UNIT ( ) SI_UNIT ( $, .RADIAN. ) );
#206 = VERTEX_POINT ( 'NONE', #67 ) ;
#207 = DIRECTION ( 'NONE',  ( 3.498990854706726443E-17, -1.000000000000000000, 0.000000000000000000 ) ) ;
#208 = ORIENTED_EDGE ( 'NONE', *, *, #99, .F. ) ;
#209 = MECHANICAL_DESIGN_GEOMETRIC_PRESENTATION_REPRESENTATION (  '', ( #276 ), #189 ) ;
#210 = VERTEX_POINT ( 'NONE', #92 ) ;
#211 =( CONVERSION_BASED_UNIT ( 'INCH', #257 ) LENGTH_UNIT ( ) NAMED_UNIT ( #227 ) );
#212 = VERTEX_POINT ( 'NONE', #68 ) ;
#213 = ORIENTED_EDGE ( 'NONE', *, *, #45, .T. ) ;
#214 =( NAMED_UNIT ( * ) SI_UNIT ( $, .STERADIAN. ) SOLID_ANGLE_UNIT ( ) );
#215 = AXIS2_PLACEMENT_3D ( 'NONE', #232, #26, #147 ) ;
#216 = FILL_AREA_STYLE_COLOUR ( '', #271 ) ;
#217 =( NAMED_UNIT ( * ) PLANE_ANGLE_UNIT ( ) SI_UNIT ( $, .RADIAN. ) );
#218 = PRESENTATION_STYLE_ASSIGNMENT (( #267 ) ) ;
#219 = EDGE_CURVE ( 'NONE', #54, #261, #163, .T. ) ;
#220 = DIRECTION ( 'NONE',  ( 0.000000000000000000, -1.000000000000000000, -0.000000000000000000 ) ) ;
#221 = LINE ( 'NONE', #264, #259 ) ;
#222 = FACE_OUTER_BOUND ( 'NONE', #258, .T. ) ;
#223 = SURFACE_SIDE_STYLE ('',( #245 ) ) ;
#224 =( GEOMETRIC_REPRESENTATION_CONTEXT ( 3 ) GLOBAL_UNCERTAINTY_ASSIGNED_CONTEXT ( ( #278 ) ) GLOBAL_UNIT_ASSIGNED_CONTEXT ( ( #139, #231, #96 ) ) REPRESENTATION_CONTEXT ( 'NONE', 'WORKASPACE' ) );
#225 = DIRECTION ( 'NONE',  ( 0.000000000000000000, 0.000000000000000000, -1.000000000000000000 ) ) ;
#226 = CARTESIAN_POINT ( 'NONE',  ( 0.000000000000000000, 1.250000000000000000, 0.000000000000000000 ) ) ;
#227 = DIMENSIONAL_EXPONENTS ( 1.000000000000000000, 0.000000000000000000, 0.000000000000000000, 0.000000000000000000, 0.000000000000000000, 0.000000000000000000, 0.000000000000000000 ) ;
#228 = AXIS2_PLACEMENT_3D ( 'NONE', #173, #113, #134 ) ;
#229 =( NAMED_UNIT ( * ) PLANE_ANGLE_UNIT ( ) SI_UNIT ( $, .RADIAN. ) );
#230 = APPLICATION_CONTEXT ( 'automotive_design' ) ;
#231 =( NAMED_UNIT ( * ) PLANE_ANGLE_UNIT ( ) SI_UNIT ( $, .RADIAN. ) );
#232 = CARTESIAN_POINT ( 'NONE',  ( -6.123233995736772199E-17, 3.000000000000000444, 0.000000000000000000 ) ) ;
#233 = DIRECTION ( 'NONE',  ( -0.000000000000000000, -1.000000000000000000, -0.000000000000000000 ) ) ;
#234 = ORIENTED_EDGE ( 'NONE', *, *, #42, .T. ) ;
#235 = CYLINDRICAL_SURFACE ( 'NONE', #215, 0.1562500000000000278 ) ;
#236 = PRODUCT_RELATED_PRODUCT_CATEGORY ( 'part', '', ( #284 ) ) ;
#237 = AXIS2_PLACEMENT_3D ( 'NONE', #53, #233, #281 ) ;
#238 = COLOUR_RGB ( '',0.7921568627450980005, 0.8196078431372548767, 0.9333333333333333481 ) ;
#239 = ORIENTED_EDGE ( 'NONE', *, *, #2, .T. ) ;
#240 = EDGE_LOOP ( 'NONE', ( #256, #129 ) ) ;
#241 = LINE ( 'NONE', #131, #254 ) ;
#242 =( CONVERSION_BASED_UNIT ( 'INCH', #85 ) LENGTH_UNIT ( ) NAMED_UNIT ( #249 ) );
#243 = DIRECTION ( 'NONE',  ( 0.000000000000000000, -0.000000000000000000, 1.000000000000000000 ) ) ;
#244 = EDGE_CURVE ( 'NONE', #261, #54, #282, .T. ) ;
#245 = SURFACE_STYLE_FILL_AREA ( #156 ) ;
#246 =( LENGTH_UNIT ( ) NAMED_UNIT ( * ) SI_UNIT ( $, .METRE. ) );
#247 = AXIS2_PLACEMENT_3D ( 'NONE', #20, #22, #100 ) ;
#248 =( NAMED_UNIT ( * ) SI_UNIT ( $, .STERADIAN. ) SOLID_ANGLE_UNIT ( ) );
#249 = DIMENSIONAL_EXPONENTS ( 1.000000000000000000, 0.000000000000000000, 0.000000000000000000, 0.000000000000000000, 0.000000000000000000, 0.000000000000000000, 0.000000000000000000 ) ;
#250 = MANIFOLD_SOLID_BREP ( 'Revolve - Tool Body (Straight Shanked)', #161 ) ;
#251 = FILL_AREA_STYLE_COLOUR ( '', #238 ) ;
#252 = DIMENSIONAL_EXPONENTS ( 1.000000000000000000, 0.000000000000000000, 0.000000000000000000, 0.000000000000000000, 0.000000000000000000, 0.000000000000000000, 0.000000000000000000 ) ;
#253 = CIRCLE ( 'NONE', #201, 0.1562500000000000000 ) ;
#254 = VECTOR ( 'NONE', #6, 39.37007874015748143 ) ;
#255 = DIRECTION ( 'NONE',  ( 1.000000000000000000, 3.498990854706726443E-17, 0.000000000000000000 ) ) ;
#256 = ORIENTED_EDGE ( 'NONE', *, *, #35, .T. ) ;
#257 = LENGTH_MEASURE_WITH_UNIT ( LENGTH_MEASURE( 0.02539999999999999897 ), #125 );
#258 = EDGE_LOOP ( 'NONE', ( #213, #183 ) ) ;
#259 = VECTOR ( 'NONE', #11, 39.37007874015748143 ) ;
#260 = CIRCLE ( 'NONE', #80, 0.1562500000000000000 ) ;
#261 = VERTEX_POINT ( 'NONE', #51 ) ;
#262 = CARTESIAN_POINT ( 'NONE',  ( -6.123233995736772199E-17, 3.000000000000000444, 0.000000000000000000 ) ) ;
#263 = FILL_AREA_STYLE ('',( #216 ) ) ;
#264 = CARTESIAN_POINT ( 'NONE',  ( 1.913510623667739463E-17, 0.000000000000000000, 0.1562500000000000000 ) ) ;
#265 =( NAMED_UNIT ( * ) SI_UNIT ( $, .STERADIAN. ) SOLID_ANGLE_UNIT ( ) );
#266 =( GEOMETRIC_REPRESENTATION_CONTEXT ( 3 ) GLOBAL_UNCERTAINTY_ASSIGNED_CONTEXT ( ( #122 ) ) GLOBAL_UNIT_ASSIGNED_CONTEXT ( ( #242, #174, #214 ) ) REPRESENTATION_CONTEXT ( 'NONE', 'WORKASPACE' ) );
#267 = SURFACE_STYLE_USAGE ( .BOTH. , #91 ) ;
#268 = CARTESIAN_POINT ( 'NONE',  ( 0.000000000000000000, 0.000000000000000000, -0.1562500000000000000 ) ) ;
#269 = DIMENSIONAL_EXPONENTS ( 1.000000000000000000, 0.000000000000000000, 0.000000000000000000, 0.000000000000000000, 0.000000000000000000, 0.000000000000000000, 0.000000000000000000 ) ;
#270 = MECHANICAL_DESIGN_GEOMETRIC_PRESENTATION_REPRESENTATION (  '', ( #72 ), #136 ) ;
#271 = COLOUR_RGB ( '',1.000000000000000000, 0.000000000000000000, 0.000000000000000000 ) ;
#272 = FILL_AREA_STYLE ('',( #18 ) ) ;
#273 = DIMENSIONAL_EXPONENTS ( 1.000000000000000000, 0.000000000000000000, 0.000000000000000000, 0.000000000000000000, 0.000000000000000000, 0.000000000000000000, 0.000000000000000000 ) ;
#274 = SURFACE_STYLE_USAGE ( .BOTH. , #293 ) ;
#275 = AXIS2_PLACEMENT_3D ( 'NONE', #262, #288, #64 ) ;
#276 = STYLED_ITEM ( 'NONE', ( #172 ), #154 ) ;
#277 = DIRECTION ( 'NONE',  ( -1.000000000000000000, 0.000000000000000000, 0.000000000000000000 ) ) ;
#278 = UNCERTAINTY_MEASURE_WITH_UNIT (LENGTH_MEASURE( 1.000000000000000082E-05 ), #139, 'distance_accuracy_value', 'NONE');
#279 =( NAMED_UNIT ( * ) SI_UNIT ( $, .STERADIAN. ) SOLID_ANGLE_UNIT ( ) );
#280 = LINE ( 'NONE', #306, #196 ) ;
#281 = DIRECTION ( 'NONE',  ( 0.000000000000000000, 0.000000000000000000, -1.000000000000000000 ) ) ;
#282 = CIRCLE ( 'NONE', #73, 0.1562500000000000000 ) ;
#283 = LENGTH_MEASURE_WITH_UNIT ( LENGTH_MEASURE( 0.02539999999999999897 ), #177 );
#284 = PRODUCT ( '03287', '03287', '', ( #140 ) ) ;
#285 =( CONVERSION_BASED_UNIT ( 'INCH', #184 ) LENGTH_UNIT ( ) NAMED_UNIT ( #252 ) );
#286 = EDGE_CURVE ( 'NONE', #206, #212, #14, .T. ) ;
#287 = STYLED_ITEM ( 'NONE', ( #218 ), #17 ) ;
#288 = DIRECTION ( 'NONE',  ( -3.498990854706726443E-17, 1.000000000000000000, -0.000000000000000000 ) ) ;
#289 = DIRECTION ( 'NONE',  ( 0.000000000000000000, 0.000000000000000000, -1.000000000000000000 ) ) ;
#290 = FACE_OUTER_BOUND ( 'NONE', #30, .T. ) ;
#291 = DIMENSIONAL_EXPONENTS ( 1.000000000000000000, 0.000000000000000000, 0.000000000000000000, 0.000000000000000000, 0.000000000000000000, 0.000000000000000000, 0.000000000000000000 ) ;
#292 = CYLINDRICAL_SURFACE ( 'NONE', #237, 0.1562500000000000000 ) ;
#293 = SURFACE_SIDE_STYLE ('',( #138 ) ) ;
#294 = UNCERTAINTY_MEASURE_WITH_UNIT (LENGTH_MEASURE( 1.000000000000000082E-05 ), #118, 'distance_accuracy_value', 'NONE');
#295 = FILL_AREA_STYLE_COLOUR ( '', #19 ) ;
#296 = DIRECTION ( 'NONE',  ( -0.000000000000000000, -1.000000000000000000, -0.000000000000000000 ) ) ;
#297 = CARTESIAN_POINT ( 'NONE',  ( 0.000000000000000000, 0.000000000000000000, 0.000000000000000000 ) ) ;
#298 = MECHANICAL_DESIGN_GEOMETRIC_PRESENTATION_REPRESENTATION (  '', ( #115 ), #307 ) ;
#299 = MECHANICAL_DESIGN_GEOMETRIC_PRESENTATION_REPRESENTATION (  '', ( #181 ), #50 ) ;
#300 = DIRECTION ( 'NONE',  ( 0.000000000000000000, 0.000000000000000000, -1.000000000000000000 ) ) ;
#301 = ADVANCED_FACE ( 'NONE', ( #203 ), #304, .F. ) ;
#302 = UNCERTAINTY_MEASURE_WITH_UNIT (LENGTH_MEASURE( 1.000000000000000082E-05 ), #74, 'distance_accuracy_value', 'NONE');
#303 = CIRCLE ( 'NONE', #65, 0.1562500000000000833 ) ;
#304 = PLANE ( 'NONE',  #98 ) ;
#305 = EDGE_CURVE ( 'NONE', #3, #167, #260, .T. ) ;
#306 = CARTESIAN_POINT ( 'NONE',  ( 0.1562499999999999722, 3.000000000000000444, 1.913510623667739771E-17 ) ) ;
#307 =( GEOMETRIC_REPRESENTATION_CONTEXT ( 3 ) GLOBAL_UNCERTAINTY_ASSIGNED_CONTEXT ( ( #180 ) ) GLOBAL_UNIT_ASSIGNED_CONTEXT ( ( #285, #170, #279 ) ) REPRESENTATION_CONTEXT ( 'NONE', 'WORKASPACE' ) );
#308 = PRESENTATION_LAYER_ASSIGNMENT (  '', '', ( #276 ) ) ;
#309 = ORIENTED_EDGE ( 'NONE', *, *, #286, .F. ) ;
ENDSEC;
END-ISO-10303-21;
