ISO-10303-21;
HEADER;
FILE_DESCRIPTION (( 'STEP AP214' ),
    '1' );
FILE_NAME ('01405.STEP',
    '2023-06-22T14:30:20',
    ( '' ),
    ( '' ),
    'SwSTEP 2.0',
    'SolidWorks 2023',
    '' );
FILE_SCHEMA (( 'AUTOMOTIVE_DESIGN' ));
ENDSEC;

DATA;
#1 = FACE_OUTER_BOUND ( 'NONE', #192, .T. ) ;
#2 = EDGE_CURVE ( 'NONE', #273, #288, #248, .T. ) ;
#3 = ORIENTED_EDGE ( 'NONE', *, *, #308, .T. ) ;
#4 = DIRECTION ( 'NONE',  ( -0.000000000000000000, -1.000000000000000000, -0.000000000000000000 ) ) ;
#5 = MANIFOLD_SOLID_BREP ( 'Revolve - Tool Body (Straight Shanked)', #17 ) ;
#6 = PRODUCT_DEFINITION_CONTEXT ( 'detailed design', #16, 'design' ) ;
#7 =( CONVERSION_BASED_UNIT ( 'INCH', #172 ) LENGTH_UNIT ( ) NAMED_UNIT ( #117 ) );
#8 = ORIENTED_EDGE ( 'NONE', *, *, #255, .T. ) ;
#9 = SURFACE_STYLE_FILL_AREA ( #221 ) ;
#10 =( LENGTH_UNIT ( ) NAMED_UNIT ( * ) SI_UNIT ( $, .METRE. ) );
#11 = PRESENTATION_STYLE_ASSIGNMENT (( #82 ) ) ;
#12 =( GEOMETRIC_REPRESENTATION_CONTEXT ( 3 ) GLOBAL_UNCERTAINTY_ASSIGNED_CONTEXT ( ( #193 ) ) GLOBAL_UNIT_ASSIGNED_CONTEXT ( ( #250, #235, #158 ) ) REPRESENTATION_CONTEXT ( 'NONE', 'WORKASPACE' ) );
#13 = PRODUCT ( '01405', '01405', '', ( #202 ) ) ;
#14 = STYLED_ITEM ( 'NONE', ( #30 ), #309 ) ;
#15 = DIRECTION ( 'NONE',  ( -4.898587196589413075E-17, 1.000000000000000000, -0.000000000000000000 ) ) ;
#16 = APPLICATION_CONTEXT ( 'automotive_design' ) ;
#17 = CLOSED_SHELL ( 'NONE', ( #170, #260, #147, #228 ) ) ;
#18 = FILL_AREA_STYLE_COLOUR ( '', #207 ) ;
#19 = DIRECTION ( 'NONE',  ( -1.000000000000000000, 0.000000000000000000, 0.000000000000000000 ) ) ;
#20 = CIRCLE ( 'NONE', #110, 0.1875000000000000278 ) ;
#21 = CARTESIAN_POINT ( 'NONE',  ( 0.000000000000000000, 2.500000000000000000, 0.000000000000000000 ) ) ;
#22 =( NAMED_UNIT ( * ) PLANE_ANGLE_UNIT ( ) SI_UNIT ( $, .RADIAN. ) );
#23 = FACE_OUTER_BOUND ( 'NONE', #244, .T. ) ;
#24 = ORIENTED_EDGE ( 'NONE', *, *, #160, .T. ) ;
#25 = DIRECTION ( 'NONE',  ( -1.000000000000000000, 0.000000000000000000, 0.000000000000000000 ) ) ;
#26 = ORIENTED_EDGE ( 'NONE', *, *, #95, .T. ) ;
#27 = FILL_AREA_STYLE ('',( #246 ) ) ;
#28 = AXIS2_PLACEMENT_3D ( 'NONE', #194, #164, #215 ) ;
#29 = ORIENTED_EDGE ( 'NONE', *, *, #296, .T. ) ;
#30 = PRESENTATION_STYLE_ASSIGNMENT (( #211 ) ) ;
#31 = AXIS2_PLACEMENT_3D ( 'NONE', #21, #39, #232 ) ;
#32 = ADVANCED_FACE ( 'NONE', ( #103 ), #84, .T. ) ;
#33 = FACE_OUTER_BOUND ( 'NONE', #198, .T. ) ;
#34 = EDGE_CURVE ( 'NONE', #55, #288, #237, .T. ) ;
#35 = SURFACE_STYLE_FILL_AREA ( #179 ) ;
#36 = CIRCLE ( 'NONE', #64, 0.1875000000000000278 ) ;
#37 = SURFACE_SIDE_STYLE ('',( #307 ) ) ;
#38 = FACE_OUTER_BOUND ( 'NONE', #169, .T. ) ;
#39 = DIRECTION ( 'NONE',  ( -0.000000000000000000, -1.000000000000000000, -0.000000000000000000 ) ) ;
#40 = DIRECTION ( 'NONE',  ( -4.898587196589413075E-17, 1.000000000000000000, -0.000000000000000000 ) ) ;
#41 = DIMENSIONAL_EXPONENTS ( 1.000000000000000000, 0.000000000000000000, 0.000000000000000000, 0.000000000000000000, 0.000000000000000000, 0.000000000000000000, 0.000000000000000000 ) ;
#42 = AXIS2_PLACEMENT_3D ( 'NONE', #114, #137, #304 ) ;
#43 = STYLED_ITEM ( 'NONE', ( #281 ), #32 ) ;
#44 = ADVANCED_FACE ( 'NONE', ( #33 ), #224, .T. ) ;
#45 = CYLINDRICAL_SURFACE ( 'NONE', #175, 0.1875000000000000833 ) ;
#46 = ORIENTED_EDGE ( 'NONE', *, *, #245, .T. ) ;
#47 = PLANE ( 'NONE',  #151 ) ;
#48 = ORIENTED_EDGE ( 'NONE', *, *, #128, .F. ) ;
#49 = PRESENTATION_LAYER_ASSIGNMENT (  '', '', ( #226 ) ) ;
#50 = CARTESIAN_POINT ( 'NONE',  ( 1.516480271171051896E-32, 2.500000000000000000, 0.000000000000000000 ) ) ;
#51 = ORIENTED_EDGE ( 'NONE', *, *, #245, .F. ) ;
#52 = SURFACE_STYLE_USAGE ( .BOTH. , #268 ) ;
#53 = DIRECTION ( 'NONE',  ( -4.898587196589412459E-17, 1.000000000000000000, -0.000000000000000000 ) ) ;
#54 = DIRECTION ( 'NONE',  ( 4.898587196589412459E-17, -1.000000000000000000, 0.000000000000000000 ) ) ;
#55 = VERTEX_POINT ( 'NONE', #208 ) ;
#56 =( GEOMETRIC_REPRESENTATION_CONTEXT ( 3 ) GLOBAL_UNCERTAINTY_ASSIGNED_CONTEXT ( ( #223 ) ) GLOBAL_UNIT_ASSIGNED_CONTEXT ( ( #65, #136, #233 ) ) REPRESENTATION_CONTEXT ( 'NONE', 'WORKASPACE' ) );
#57 =( NAMED_UNIT ( * ) SI_UNIT ( $, .STERADIAN. ) SOLID_ANGLE_UNIT ( ) );
#58 = LENGTH_MEASURE_WITH_UNIT ( LENGTH_MEASURE( 0.02539999999999999897 ), #10 );
#59 = DIRECTION ( 'NONE',  ( 1.000000000000000000, 0.000000000000000000, 0.000000000000000000 ) ) ;
#60 =( NAMED_UNIT ( * ) PLANE_ANGLE_UNIT ( ) SI_UNIT ( $, .RADIAN. ) );
#61 = SURFACE_STYLE_USAGE ( .BOTH. , #253 ) ;
#62 = EDGE_CURVE ( 'NONE', #101, #241, #36, .T. ) ;
#63 = CARTESIAN_POINT ( 'NONE',  ( -1.224646799147353207E-16, 5.000000000000000000, 0.000000000000000000 ) ) ;
#64 = AXIS2_PLACEMENT_3D ( 'NONE', #135, #261, #69 ) ;
#65 =( CONVERSION_BASED_UNIT ( 'INCH', #283 ) LENGTH_UNIT ( ) NAMED_UNIT ( #96 ) );
#66 = DIRECTION ( 'NONE',  ( -4.898587196589412459E-17, 1.000000000000000000, -0.000000000000000000 ) ) ;
#67 =( GEOMETRIC_REPRESENTATION_CONTEXT ( 3 ) GLOBAL_UNCERTAINTY_ASSIGNED_CONTEXT ( ( #120 ) ) GLOBAL_UNIT_ASSIGNED_CONTEXT ( ( #176, #180, #57 ) ) REPRESENTATION_CONTEXT ( 'NONE', 'WORKASPACE' ) );
#68 = PRESENTATION_LAYER_ASSIGNMENT (  '', '', ( #249 ) ) ;
#69 = DIRECTION ( 'NONE',  ( 0.000000000000000000, 0.000000000000000000, -1.000000000000000000 ) ) ;
#70 = FACE_OUTER_BOUND ( 'NONE', #150, .T. ) ;
#71 = DIMENSIONAL_EXPONENTS ( 1.000000000000000000, 0.000000000000000000, 0.000000000000000000, 0.000000000000000000, 0.000000000000000000, 0.000000000000000000, 0.000000000000000000 ) ;
#72 = ORIENTED_EDGE ( 'NONE', *, *, #86, .F. ) ;
#73 = AXIS2_PLACEMENT_3D ( 'NONE', #300, #154, #111 ) ;
#74 = ORIENTED_EDGE ( 'NONE', *, *, #62, .F. ) ;
#75 = COLOUR_RGB ( '',0.7921568627450980005, 0.8196078431372548767, 0.9333333333333333481 ) ;
#76 = CARTESIAN_POINT ( 'NONE',  ( 2.296212748401287726E-17, 2.500000000000000000, 0.1875000000000000278 ) ) ;
#77 = CLOSED_SHELL ( 'NONE', ( #222, #32, #44, #91 ) ) ;
#78 = ORIENTED_EDGE ( 'NONE', *, *, #2, .T. ) ;
#79 = PRESENTATION_STYLE_ASSIGNMENT (( #133 ) ) ;
#80 = AXIS2_PLACEMENT_3D ( 'NONE', #291, #143, #25 ) ;
#81 =( CONVERSION_BASED_UNIT ( 'INCH', #297 ) LENGTH_UNIT ( ) NAMED_UNIT ( #139 ) );
#82 = SURFACE_STYLE_USAGE ( .BOTH. , #162 ) ;
#83 = APPLICATION_PROTOCOL_DEFINITION ( 'draft international standard', 'automotive_design', 1998, #16 ) ;
#84 = PLANE ( 'NONE',  #73 ) ;
#85 = DIRECTION ( 'NONE',  ( -4.898587196589413075E-17, 1.000000000000000000, -0.000000000000000000 ) ) ;
#86 = EDGE_CURVE ( 'NONE', #126, #173, #107, .T. ) ;
#87 =( NAMED_UNIT ( * ) PLANE_ANGLE_UNIT ( ) SI_UNIT ( $, .RADIAN. ) );
#88 =( GEOMETRIC_REPRESENTATION_CONTEXT ( 3 ) GLOBAL_UNCERTAINTY_ASSIGNED_CONTEXT ( ( #238 ) ) GLOBAL_UNIT_ASSIGNED_CONTEXT ( ( #225, #87, #156 ) ) REPRESENTATION_CONTEXT ( 'NONE', 'WORKASPACE' ) );
#89 = EDGE_CURVE ( 'NONE', #288, #55, #138, .T. ) ;
#90 = DIRECTION ( 'NONE',  ( -1.000000000000000000, 0.000000000000000000, 0.000000000000000000 ) ) ;
#91 = ADVANCED_FACE ( 'NONE', ( #70 ), #116, .T. ) ;
#92 = SURFACE_STYLE_USAGE ( .BOTH. , #37 ) ;
#93 =( GEOMETRIC_REPRESENTATION_CONTEXT ( 3 ) GLOBAL_UNCERTAINTY_ASSIGNED_CONTEXT ( ( #217 ) ) GLOBAL_UNIT_ASSIGNED_CONTEXT ( ( #81, #155, #201 ) ) REPRESENTATION_CONTEXT ( 'NONE', 'WORKASPACE' ) );
#94 = DIRECTION ( 'NONE',  ( -0.000000000000000000, -1.000000000000000000, -0.000000000000000000 ) ) ;
#95 = EDGE_CURVE ( 'NONE', #126, #101, #284, .T. ) ;
#96 = DIMENSIONAL_EXPONENTS ( 1.000000000000000000, 0.000000000000000000, 0.000000000000000000, 0.000000000000000000, 0.000000000000000000, 0.000000000000000000, 0.000000000000000000 ) ;
#97 =( NAMED_UNIT ( * ) SI_UNIT ( $, .STERADIAN. ) SOLID_ANGLE_UNIT ( ) );
#98 =( GEOMETRIC_REPRESENTATION_CONTEXT ( 3 ) GLOBAL_UNCERTAINTY_ASSIGNED_CONTEXT ( ( #166 ) ) GLOBAL_UNIT_ASSIGNED_CONTEXT ( ( #7, #22, #97 ) ) REPRESENTATION_CONTEXT ( 'NONE', 'WORKASPACE' ) );
#99 = PRESENTATION_STYLE_ASSIGNMENT (( #52 ) ) ;
#100 = ORIENTED_EDGE ( 'NONE', *, *, #2, .F. ) ;
#101 = VERTEX_POINT ( 'NONE', #159 ) ;
#102 = CARTESIAN_POINT ( 'NONE',  ( -0.1875000000000000278, 2.500000000000000000, 0.000000000000000000 ) ) ;
#103 = FACE_OUTER_BOUND ( 'NONE', #122, .T. ) ;
#104 = AXIS2_PLACEMENT_3D ( 'NONE', #189, #4, #148 ) ;
#105 = DIRECTION ( 'NONE',  ( -0.000000000000000000, -1.000000000000000000, -0.000000000000000000 ) ) ;
#106 = ORIENTED_EDGE ( 'NONE', *, *, #128, .T. ) ;
#107 = CIRCLE ( 'NONE', #31, 0.1875000000000000278 ) ;
#108 = LENGTH_MEASURE_WITH_UNIT ( LENGTH_MEASURE( 0.02539999999999999897 ), #174 );
#109 = COLOUR_RGB ( '',1.000000000000000000, 0.000000000000000000, 0.000000000000000000 ) ;
#110 = AXIS2_PLACEMENT_3D ( 'NONE', #50, #190, #270 ) ;
#111 = DIRECTION ( 'NONE',  ( 0.000000000000000000, -0.000000000000000000, 1.000000000000000000 ) ) ;
#112 = CARTESIAN_POINT ( 'NONE',  ( 0.000000000000000000, 0.000000000000000000, -0.1875000000000000278 ) ) ;
#113 = VECTOR ( 'NONE', #53, 39.37007874015748143 ) ;
#114 = CARTESIAN_POINT ( 'NONE',  ( 0.000000000000000000, 0.000000000000000000, 0.000000000000000000 ) ) ;
#115 = MECHANICAL_DESIGN_GEOMETRIC_PRESENTATION_REPRESENTATION (  '', ( #14 ), #93 ) ;
#116 = PLANE ( 'NONE',  #42 ) ;
#117 = DIMENSIONAL_EXPONENTS ( 1.000000000000000000, 0.000000000000000000, 0.000000000000000000, 0.000000000000000000, 0.000000000000000000, 0.000000000000000000, 0.000000000000000000 ) ;
#118 = PRESENTATION_LAYER_ASSIGNMENT (  '', '', ( #43 ) ) ;
#119 = DIRECTION ( 'NONE',  ( 0.000000000000000000, 0.000000000000000000, -1.000000000000000000 ) ) ;
#120 = UNCERTAINTY_MEASURE_WITH_UNIT (LENGTH_MEASURE( 1.000000000000000082E-05 ), #176, 'distance_accuracy_value', 'NONE');
#121 = EDGE_LOOP ( 'NONE', ( #165, #51 ) ) ;
#122 = EDGE_LOOP ( 'NONE', ( #72, #48 ) ) ;
#123 = DIRECTION ( 'NONE',  ( -0.000000000000000000, -1.000000000000000000, -0.000000000000000000 ) ) ;
#124 = ORIENTED_EDGE ( 'NONE', *, *, #34, .F. ) ;
#125 = SURFACE_STYLE_FILL_AREA ( #239 ) ;
#126 = VERTEX_POINT ( 'NONE', #210 ) ;
#127 = CARTESIAN_POINT ( 'NONE',  ( 0.000000000000000000, 0.000000000000000000, 0.000000000000000000 ) ) ;
#128 = EDGE_CURVE ( 'NONE', #173, #126, #168, .T. ) ;
#129 = CARTESIAN_POINT ( 'NONE',  ( 0.1874999999999999445, 5.000000000000000000, 2.296212748401288342E-17 ) ) ;
#130 =( GEOMETRIC_REPRESENTATION_CONTEXT ( 3 ) GLOBAL_UNCERTAINTY_ASSIGNED_CONTEXT ( ( #258 ) ) GLOBAL_UNIT_ASSIGNED_CONTEXT ( ( #278, #60, #298 ) ) REPRESENTATION_CONTEXT ( 'NONE', 'WORKASPACE' ) );
#131 =( LENGTH_UNIT ( ) NAMED_UNIT ( * ) SI_UNIT ( $, .METRE. ) );
#132 = COLOUR_RGB ( '',0.7921568627450980005, 0.8196078431372548767, 0.9333333333333333481 ) ;
#133 = SURFACE_STYLE_USAGE ( .BOTH. , #229 ) ;
#134 = FILL_AREA_STYLE ('',( #18 ) ) ;
#135 = CARTESIAN_POINT ( 'NONE',  ( 0.000000000000000000, 0.000000000000000000, 0.000000000000000000 ) ) ;
#136 =( NAMED_UNIT ( * ) PLANE_ANGLE_UNIT ( ) SI_UNIT ( $, .RADIAN. ) );
#137 = DIRECTION ( 'NONE',  ( 0.000000000000000000, -1.000000000000000000, -0.000000000000000000 ) ) ;
#138 = CIRCLE ( 'NONE', #183, 0.1875000000000001388 ) ;
#139 = DIMENSIONAL_EXPONENTS ( 1.000000000000000000, 0.000000000000000000, 0.000000000000000000, 0.000000000000000000, 0.000000000000000000, 0.000000000000000000, 0.000000000000000000 ) ;
#140 = DIRECTION ( 'NONE',  ( -1.000000000000000000, 0.000000000000000000, 0.000000000000000000 ) ) ;
#141 = EDGE_LOOP ( 'NONE', ( #100, #46, #24, #271 ) ) ;
#142 = APPLICATION_CONTEXT ( 'automotive_design' ) ;
#143 = DIRECTION ( 'NONE',  ( -4.898587196589413075E-17, 1.000000000000000000, -0.000000000000000000 ) ) ;
#144 = ORIENTED_EDGE ( 'NONE', *, *, #308, .F. ) ;
#145 = MECHANICAL_DESIGN_GEOMETRIC_PRESENTATION_REPRESENTATION (  '', ( #226 ), #56 ) ;
#146 = CARTESIAN_POINT ( 'NONE',  ( 2.296212748401287726E-17, 0.000000000000000000, 0.1875000000000000278 ) ) ;
#147 = ADVANCED_FACE ( 'NONE', ( #303 ), #256, .T. ) ;
#148 = DIRECTION ( 'NONE',  ( 0.000000000000000000, 0.000000000000000000, -1.000000000000000000 ) ) ;
#149 = LINE ( 'NONE', #146, #209 ) ;
#150 = EDGE_LOOP ( 'NONE', ( #269, #3 ) ) ;
#151 = AXIS2_PLACEMENT_3D ( 'NONE', #212, #54, #167 ) ;
#152 = FILL_AREA_STYLE_COLOUR ( '', #171 ) ;
#153 = APPLICATION_PROTOCOL_DEFINITION ( 'draft international standard', 'automotive_design', 1998, #142 ) ;
#154 = DIRECTION ( 'NONE',  ( 0.000000000000000000, 1.000000000000000000, 0.000000000000000000 ) ) ;
#155 =( NAMED_UNIT ( * ) PLANE_ANGLE_UNIT ( ) SI_UNIT ( $, .RADIAN. ) );
#156 =( NAMED_UNIT ( * ) SI_UNIT ( $, .STERADIAN. ) SOLID_ANGLE_UNIT ( ) );
#157 = DIRECTION ( 'NONE',  ( 0.000000000000000000, 0.000000000000000000, -1.000000000000000000 ) ) ;
#158 =( NAMED_UNIT ( * ) SI_UNIT ( $, .STERADIAN. ) SOLID_ANGLE_UNIT ( ) );
#159 = CARTESIAN_POINT ( 'NONE',  ( 0.000000000000000000, 0.000000000000000000, -0.1875000000000000278 ) ) ;
#160 = EDGE_CURVE ( 'NONE', #216, #55, #185, .T. ) ;
#161 = FACE_OUTER_BOUND ( 'NONE', #121, .T. ) ;
#162 = SURFACE_SIDE_STYLE ('',( #9 ) ) ;
#163 = STYLED_ITEM ( 'NONE', ( #11 ), #5 ) ;
#164 = DIRECTION ( 'NONE',  ( -4.898587196589412459E-17, 1.000000000000000000, 0.000000000000000000 ) ) ;
#165 = ORIENTED_EDGE ( 'NONE', *, *, #296, .F. ) ;
#166 = UNCERTAINTY_MEASURE_WITH_UNIT (LENGTH_MEASURE( 1.000000000000000082E-05 ), #7, 'distance_accuracy_value', 'NONE');
#167 = DIRECTION ( 'NONE',  ( 1.000000000000000000, 4.898587196589412459E-17, 0.000000000000000000 ) ) ;
#168 = CIRCLE ( 'NONE', #289, 0.1875000000000000278 ) ;
#169 = EDGE_LOOP ( 'NONE', ( #29, #78, #124, #213 ) ) ;
#170 = ADVANCED_FACE ( 'NONE', ( #38 ), #45, .T. ) ;
#171 = COLOUR_RGB ( '',1.000000000000000000, 0.000000000000000000, 0.000000000000000000 ) ;
#172 = LENGTH_MEASURE_WITH_UNIT ( LENGTH_MEASURE( 0.02539999999999999897 ), #191 );
#173 = VERTEX_POINT ( 'NONE', #76 ) ;
#174 =( LENGTH_UNIT ( ) NAMED_UNIT ( * ) SI_UNIT ( $, .METRE. ) );
#175 = AXIS2_PLACEMENT_3D ( 'NONE', #264, #214, #140 ) ;
#176 =( CONVERSION_BASED_UNIT ( 'INCH', #203 ) LENGTH_UNIT ( ) NAMED_UNIT ( #178 ) );
#177 = SURFACE_STYLE_FILL_AREA ( #299 ) ;
#178 = DIMENSIONAL_EXPONENTS ( 1.000000000000000000, 0.000000000000000000, 0.000000000000000000, 0.000000000000000000, 0.000000000000000000, 0.000000000000000000, 0.000000000000000000 ) ;
#179 = FILL_AREA_STYLE ('',( #152 ) ) ;
#180 =( NAMED_UNIT ( * ) PLANE_ANGLE_UNIT ( ) SI_UNIT ( $, .RADIAN. ) );
#181 =( LENGTH_UNIT ( ) NAMED_UNIT ( * ) SI_UNIT ( $, .METRE. ) );
#182 = PRESENTATION_LAYER_ASSIGNMENT (  '', '', ( #14 ) ) ;
#183 = AXIS2_PLACEMENT_3D ( 'NONE', #184, #40, #19 ) ;
#184 = CARTESIAN_POINT ( 'NONE',  ( -1.224646799147353207E-16, 5.000000000000000000, 0.000000000000000000 ) ) ;
#185 = LINE ( 'NONE', #282, #295 ) ;
#186 = PRODUCT_DEFINITION_SHAPE ( 'NONE', 'NONE',  #274 ) ;
#187 = PRESENTATION_STYLE_ASSIGNMENT (( #92 ) ) ;
#188 = MECHANICAL_DESIGN_GEOMETRIC_PRESENTATION_REPRESENTATION (  '', ( #243 ), #12 ) ;
#189 = CARTESIAN_POINT ( 'NONE',  ( 0.000000000000000000, 0.000000000000000000, 0.000000000000000000 ) ) ;
#190 = DIRECTION ( 'NONE',  ( -4.898587196589413075E-17, 1.000000000000000000, -0.000000000000000000 ) ) ;
#191 =( LENGTH_UNIT ( ) NAMED_UNIT ( * ) SI_UNIT ( $, .METRE. ) );
#192 = EDGE_LOOP ( 'NONE', ( #265, #8, #74, #195 ) ) ;
#193 = UNCERTAINTY_MEASURE_WITH_UNIT (LENGTH_MEASURE( 1.000000000000000082E-05 ), #250, 'distance_accuracy_value', 'NONE');
#194 = CARTESIAN_POINT ( 'NONE',  ( 2.249639673992786583E-34, 2.500000000000000000, 0.000000000000000000 ) ) ;
#195 = ORIENTED_EDGE ( 'NONE', *, *, #95, .F. ) ;
#196 = MECHANICAL_DESIGN_GEOMETRIC_PRESENTATION_REPRESENTATION (  '', ( #249 ), #98 ) ;
#197 = SURFACE_SIDE_STYLE ('',( #218 ) ) ;
#198 = EDGE_LOOP ( 'NONE', ( #219, #106, #26, #144 ) ) ;
#199 = AXIS2_PLACEMENT_3D ( 'NONE', #259, #301, #257 ) ;
#200 = ORIENTED_EDGE ( 'NONE', *, *, #34, .T. ) ;
#201 =( NAMED_UNIT ( * ) SI_UNIT ( $, .STERADIAN. ) SOLID_ANGLE_UNIT ( ) );
#202 = PRODUCT_CONTEXT ( 'NONE', #142, 'mechanical' ) ;
#203 = LENGTH_MEASURE_WITH_UNIT ( LENGTH_MEASURE( 0.02539999999999999897 ), #251 );
#204 = FILL_AREA_STYLE_COLOUR ( '', #109 ) ;
#205 = AXIS2_PLACEMENT_3D ( 'NONE', #231, #15, #90 ) ;
#206 = DIRECTION ( 'NONE',  ( -0.000000000000000000, -1.000000000000000000, -0.000000000000000000 ) ) ;
#207 = COLOUR_RGB ( '',1.000000000000000000, 0.000000000000000000, 0.000000000000000000 ) ;
#208 = CARTESIAN_POINT ( 'NONE',  ( -0.1875000000000002776, 5.000000000000000000, 0.000000000000000000 ) ) ;
#209 = VECTOR ( 'NONE', #105, 39.37007874015748143 ) ;
#210 = CARTESIAN_POINT ( 'NONE',  ( 0.000000000000000000, 2.500000000000000000, -0.1875000000000000278 ) ) ;
#211 = SURFACE_STYLE_USAGE ( .BOTH. , #197 ) ;
#212 = CARTESIAN_POINT ( 'NONE',  ( 0.1875000000000000278, 5.000000000000000000, 0.000000000000000000 ) ) ;
#213 = ORIENTED_EDGE ( 'NONE', *, *, #160, .F. ) ;
#214 = DIRECTION ( 'NONE',  ( -4.898587196589413075E-17, 1.000000000000000000, -0.000000000000000000 ) ) ;
#215 = DIRECTION ( 'NONE',  ( -1.000000000000000000, -4.898587196589412459E-17, 0.000000000000000000 ) ) ;
#216 = VERTEX_POINT ( 'NONE', #102 ) ;
#217 = UNCERTAINTY_MEASURE_WITH_UNIT (LENGTH_MEASURE( 1.000000000000000082E-05 ), #81, 'distance_accuracy_value', 'NONE');
#218 = SURFACE_STYLE_FILL_AREA ( #27 ) ;
#219 = ORIENTED_EDGE ( 'NONE', *, *, #255, .F. ) ;
#220 = CIRCLE ( 'NONE', #80, 0.1875000000000000278 ) ;
#221 = FILL_AREA_STYLE ('',( #290 ) ) ;
#222 = ADVANCED_FACE ( 'NONE', ( #1 ), #272, .T. ) ;
#223 = UNCERTAINTY_MEASURE_WITH_UNIT (LENGTH_MEASURE( 1.000000000000000082E-05 ), #65, 'distance_accuracy_value', 'NONE');
#224 = CYLINDRICAL_SURFACE ( 'NONE', #199, 0.1875000000000000278 ) ;
#225 =( CONVERSION_BASED_UNIT ( 'INCH', #294 ) LENGTH_UNIT ( ) NAMED_UNIT ( #41 ) );
#226 = STYLED_ITEM ( 'NONE', ( #187 ), #91 ) ;
#227 = DIRECTION ( 'NONE',  ( -1.000000000000000000, 0.000000000000000000, 0.000000000000000000 ) ) ;
#228 = ADVANCED_FACE ( 'NONE', ( #23 ), #47, .F. ) ;
#229 = SURFACE_SIDE_STYLE ('',( #35 ) ) ;
#230 = COLOUR_RGB ( '',1.000000000000000000, 0.000000000000000000, 0.000000000000000000 ) ;
#231 = CARTESIAN_POINT ( 'NONE',  ( -1.224646799147353207E-16, 5.000000000000000000, 0.000000000000000000 ) ) ;
#232 = DIRECTION ( 'NONE',  ( 0.000000000000000000, 0.000000000000000000, -1.000000000000000000 ) ) ;
#233 =( NAMED_UNIT ( * ) SI_UNIT ( $, .STERADIAN. ) SOLID_ANGLE_UNIT ( ) );
#234 = PRODUCT_DEFINITION_FORMATION_WITH_SPECIFIED_SOURCE ( 'ANY', '', #13, .NOT_KNOWN. ) ;
#235 =( NAMED_UNIT ( * ) PLANE_ANGLE_UNIT ( ) SI_UNIT ( $, .RADIAN. ) );
#236 = CARTESIAN_POINT ( 'NONE',  ( 0.000000000000000000, 2.500000000000000000, 0.000000000000000000 ) ) ;
#237 = CIRCLE ( 'NONE', #302, 0.1875000000000001388 ) ;
#238 = UNCERTAINTY_MEASURE_WITH_UNIT (LENGTH_MEASURE( 1.000000000000000082E-05 ), #225, 'distance_accuracy_value', 'NONE');
#239 = FILL_AREA_STYLE ('',( #266 ) ) ;
#240 = CARTESIAN_POINT ( 'NONE',  ( 2.296212748401287726E-17, 0.000000000000000000, 0.1875000000000000278 ) ) ;
#241 = VERTEX_POINT ( 'NONE', #240 ) ;
#242 = CARTESIAN_POINT ( 'NONE',  ( 0.1875000000000000278, 2.500000000000000000, 2.296212748401288650E-17 ) ) ;
#243 = STYLED_ITEM ( 'NONE', ( #79 ), #44 ) ;
#244 = EDGE_LOOP ( 'NONE', ( #200, #293 ) ) ;
#245 = EDGE_CURVE ( 'NONE', #273, #216, #20, .T. ) ;
#246 = FILL_AREA_STYLE_COLOUR ( '', #75 ) ;
#247 = CARTESIAN_POINT ( 'NONE',  ( 0.000000000000000000, 0.000000000000000000, 0.000000000000000000 ) ) ;
#248 = LINE ( 'NONE', #129, #113 ) ;
#249 = STYLED_ITEM ( 'NONE', ( #99 ), #222 ) ;
#250 =( CONVERSION_BASED_UNIT ( 'INCH', #108 ) LENGTH_UNIT ( ) NAMED_UNIT ( #71 ) );
#251 =( LENGTH_UNIT ( ) NAMED_UNIT ( * ) SI_UNIT ( $, .METRE. ) );
#252 = VECTOR ( 'NONE', #94, 39.37007874015748143 ) ;
#253 = SURFACE_SIDE_STYLE ('',( #177 ) ) ;
#254 = MECHANICAL_DESIGN_GEOMETRIC_PRESENTATION_REPRESENTATION (  '', ( #163 ), #88 ) ;
#255 = EDGE_CURVE ( 'NONE', #173, #241, #149, .T. ) ;
#256 = CYLINDRICAL_SURFACE ( 'NONE', #205, 0.1875000000000000833 ) ;
#257 = DIRECTION ( 'NONE',  ( 0.000000000000000000, 0.000000000000000000, -1.000000000000000000 ) ) ;
#258 = UNCERTAINTY_MEASURE_WITH_UNIT (LENGTH_MEASURE( 1.000000000000000082E-05 ), #278, 'distance_accuracy_value', 'NONE');
#259 = CARTESIAN_POINT ( 'NONE',  ( 0.000000000000000000, 0.000000000000000000, 0.000000000000000000 ) ) ;
#260 = ADVANCED_FACE ( 'NONE', ( #161 ), #287, .F. ) ;
#261 = DIRECTION ( 'NONE',  ( -0.000000000000000000, -1.000000000000000000, -0.000000000000000000 ) ) ;
#262 = PRODUCT_RELATED_PRODUCT_CATEGORY ( 'part', '', ( #13 ) ) ;
#263 =( LENGTH_UNIT ( ) NAMED_UNIT ( * ) SI_UNIT ( $, .METRE. ) );
#264 = CARTESIAN_POINT ( 'NONE',  ( -1.224646799147353207E-16, 5.000000000000000000, 0.000000000000000000 ) ) ;
#265 = ORIENTED_EDGE ( 'NONE', *, *, #86, .T. ) ;
#266 = FILL_AREA_STYLE_COLOUR ( '', #230 ) ;
#267 = AXIS2_PLACEMENT_3D ( 'NONE', #127, #277, #59 ) ;
#268 = SURFACE_SIDE_STYLE ('',( #125 ) ) ;
#269 = ORIENTED_EDGE ( 'NONE', *, *, #62, .T. ) ;
#270 = DIRECTION ( 'NONE',  ( -1.000000000000000000, 0.000000000000000000, 0.000000000000000000 ) ) ;
#271 = ORIENTED_EDGE ( 'NONE', *, *, #89, .F. ) ;
#272 = CYLINDRICAL_SURFACE ( 'NONE', #104, 0.1875000000000000278 ) ;
#273 = VERTEX_POINT ( 'NONE', #242 ) ;
#274 = PRODUCT_DEFINITION ( 'UNKNOWN', '', #234, #6 ) ;
#275 = ADVANCED_BREP_SHAPE_REPRESENTATION ( '01405', ( #309, #5, #267 ), #67 ) ;
#276 = MECHANICAL_DESIGN_GEOMETRIC_PRESENTATION_REPRESENTATION (  '', ( #43 ), #130 ) ;
#277 = DIRECTION ( 'NONE',  ( 0.000000000000000000, 0.000000000000000000, 1.000000000000000000 ) ) ;
#278 =( CONVERSION_BASED_UNIT ( 'INCH', #58 ) LENGTH_UNIT ( ) NAMED_UNIT ( #305 ) );
#279 = SHAPE_DEFINITION_REPRESENTATION ( #186, #275 ) ;
#280 = CIRCLE ( 'NONE', #285, 0.1875000000000000278 ) ;
#281 = PRESENTATION_STYLE_ASSIGNMENT (( #61 ) ) ;
#282 = CARTESIAN_POINT ( 'NONE',  ( -0.1875000000000002220, 5.000000000000000000, 0.000000000000000000 ) ) ;
#283 = LENGTH_MEASURE_WITH_UNIT ( LENGTH_MEASURE( 0.02539999999999999897 ), #263 );
#284 = LINE ( 'NONE', #112, #252 ) ;
#285 = AXIS2_PLACEMENT_3D ( 'NONE', #247, #123, #119 ) ;
#286 = CARTESIAN_POINT ( 'NONE',  ( 0.1875000000000000278, 5.000000000000000000, 2.296212748401288650E-17 ) ) ;
#287 = PLANE ( 'NONE',  #28 ) ;
#288 = VERTEX_POINT ( 'NONE', #286 ) ;
#289 = AXIS2_PLACEMENT_3D ( 'NONE', #236, #206, #157 ) ;
#290 = FILL_AREA_STYLE_COLOUR ( '', #132 ) ;
#291 = CARTESIAN_POINT ( 'NONE',  ( 1.516480271171051896E-32, 2.500000000000000000, 0.000000000000000000 ) ) ;
#292 = PRESENTATION_LAYER_ASSIGNMENT (  '', '', ( #243 ) ) ;
#293 = ORIENTED_EDGE ( 'NONE', *, *, #89, .T. ) ;
#294 = LENGTH_MEASURE_WITH_UNIT ( LENGTH_MEASURE( 0.02539999999999999897 ), #181 );
#295 = VECTOR ( 'NONE', #66, 39.37007874015748143 ) ;
#296 = EDGE_CURVE ( 'NONE', #216, #273, #220, .T. ) ;
#297 = LENGTH_MEASURE_WITH_UNIT ( LENGTH_MEASURE( 0.02539999999999999897 ), #131 );
#298 =( NAMED_UNIT ( * ) SI_UNIT ( $, .STERADIAN. ) SOLID_ANGLE_UNIT ( ) );
#299 = FILL_AREA_STYLE ('',( #204 ) ) ;
#300 = CARTESIAN_POINT ( 'NONE',  ( 0.000000000000000000, 2.500000000000000000, 0.000000000000000000 ) ) ;
#301 = DIRECTION ( 'NONE',  ( -0.000000000000000000, -1.000000000000000000, -0.000000000000000000 ) ) ;
#302 = AXIS2_PLACEMENT_3D ( 'NONE', #63, #85, #227 ) ;
#303 = FACE_OUTER_BOUND ( 'NONE', #141, .T. ) ;
#304 = DIRECTION ( 'NONE',  ( 0.000000000000000000, 0.000000000000000000, -1.000000000000000000 ) ) ;
#305 = DIMENSIONAL_EXPONENTS ( 1.000000000000000000, 0.000000000000000000, 0.000000000000000000, 0.000000000000000000, 0.000000000000000000, 0.000000000000000000, 0.000000000000000000 ) ;
#306 = PRESENTATION_LAYER_ASSIGNMENT (  '', '', ( #163 ) ) ;
#307 = SURFACE_STYLE_FILL_AREA ( #134 ) ;
#308 = EDGE_CURVE ( 'NONE', #241, #101, #280, .T. ) ;
#309 = MANIFOLD_SOLID_BREP ( 'Revolve - Cutting Edge', #77 ) ;
ENDSEC;
END-ISO-10303-21;
