ISO-10303-21;
HEADER;
FILE_DESCRIPTION (( 'STEP AP214' ),
    '1' );
FILE_NAME ('Micro_GEC-062-3-010X.STEP',
    '2021-09-03T17:03:23',
    ( '' ),
    ( '' ),
    'SwSTEP 2.0',
    'SolidWorks 2020',
    '' );
FILE_SCHEMA (( 'AUTOMOTIVE_DESIGN' ));
ENDSEC;

DATA;
#1 =( NAMED_UNIT ( * ) PLANE_ANGLE_UNIT ( ) SI_UNIT ( $, .RADIAN. ) );
#2 = DIRECTION ( 'NONE',  ( -1.000000000000000000, 0.0000000000000000000, 0.0000000000000000000 ) ) ;
#3 = EDGE_CURVE ( 'NONE', #167, #31, #261, .T. ) ;
#4 = CIRCLE ( 'NONE', #289, 0.06250000000000002776 ) ;
#5 = EDGE_CURVE ( 'NONE', #134, #325, #197, .T. ) ;
#6 = SURFACE_SIDE_STYLE ('',( #109 ) ) ;
#7 = CARTESIAN_POINT ( 'NONE',  ( 0.06250000000000002776, 7.654042494670959086E-18, 1.500000000000000222 ) ) ;
#8 = DIRECTION ( 'NONE',  ( 1.000000000000000000, 0.0000000000000000000, 0.0000000000000000000 ) ) ;
#9 = AXIS2_PLACEMENT_3D ( 'NONE', #251, #183, #2 ) ;
#10 = ORIENTED_EDGE ( 'NONE', *, *, #202, .F. ) ;
#11 = CARTESIAN_POINT ( 'NONE',  ( 1.224646799147353770E-18, 0.0000000000000000000, 0.0000000000000000000 ) ) ;
#12 = EDGE_LOOP ( 'NONE', ( #57, #86 ) ) ;
#13 = ADVANCED_FACE ( 'NONE', ( #88 ), #257, .T. ) ;
#14 = VECTOR ( 'NONE', #140, 39.37007874015748143 ) ;
#15 = ORIENTED_EDGE ( 'NONE', *, *, #193, .T. ) ;
#16 = SURFACE_STYLE_USAGE ( .BOTH. , #259 ) ;
#17 = EDGE_CURVE ( 'NONE', #65, #134, #228, .T. ) ;
#18 =( NAMED_UNIT ( * ) SI_UNIT ( $, .STERADIAN. ) SOLID_ANGLE_UNIT ( ) );
#19 = PRESENTATION_LAYER_ASSIGNMENT (  '', '', ( #172 ) ) ;
#20 = CARTESIAN_POINT ( 'NONE',  ( 0.0000000000000000000, 0.0000000000000000000, 1.500000000000000222 ) ) ;
#21 = DIRECTION ( 'NONE',  ( -1.000000000000000000, 0.0000000000000000000, 0.0000000000000000000 ) ) ;
#22 = EDGE_CURVE ( 'NONE', #65, #277, #174, .T. ) ;
#23 = DIRECTION ( 'NONE',  ( -0.1736481776669311916, 2.126576849575783316E-17, 0.9848077530122080203 ) ) ;
#24 = AXIS2_PLACEMENT_3D ( 'NONE', #83, #116, #69 ) ;
#25 = CIRCLE ( 'NONE', #137, 0.04750000000000064587 ) ;
#26 = DIRECTION ( 'NONE',  ( 1.000000000000000000, 0.0000000000000000000, 0.0000000000000000000 ) ) ;
#27 = CARTESIAN_POINT ( 'NONE',  ( 0.0000000000000000000, 0.0000000000000000000, 1.500000000000000222 ) ) ;
#28 = CARTESIAN_POINT ( 'NONE',  ( -0.06249999999999997918, 0.0000000000000000000, 0.3654047844199155848 ) ) ;
#29 = CARTESIAN_POINT ( 'NONE',  ( 0.03121875000000000691, 3.823194226088144458E-18, -3.823194226088145998E-18 ) ) ;
#30 = CYLINDRICAL_SURFACE ( 'NONE', #279, 0.03121875000000000691 ) ;
#31 = VERTEX_POINT ( 'NONE', #72 ) ;
#32 = CONICAL_SURFACE ( 'NONE', #53, 0.04750000000000064587, 0.7853981633974466137 ) ;
#33 = ORIENTED_EDGE ( 'NONE', *, *, #193, .F. ) ;
#34 = ORIENTED_EDGE ( 'NONE', *, *, #286, .T. ) ;
#35 = ADVANCED_FACE ( 'NONE', ( #125 ), #136, .T. ) ;
#36 =( NAMED_UNIT ( * ) PLANE_ANGLE_UNIT ( ) SI_UNIT ( $, .RADIAN. ) );
#37 = CARTESIAN_POINT ( 'NONE',  ( 0.0000000000000000000, 0.0000000000000000000, 1.500000000000000222 ) ) ;
#38 = ADVANCED_FACE ( 'NONE', ( #93 ), #45, .T. ) ;
#39 = CIRCLE ( 'NONE', #9, 0.03121875000000000691 ) ;
#40 = ORIENTED_EDGE ( 'NONE', *, *, #51, .F. ) ;
#41 = ORIENTED_EDGE ( 'NONE', *, *, #22, .F. ) ;
#42 = ADVANCED_FACE ( 'NONE', ( #124 ), #46, .T. ) ;
#43 = DIRECTION ( 'NONE',  ( -0.0000000000000000000, -0.0000000000000000000, -1.000000000000000000 ) ) ;
#44 = DIRECTION ( 'NONE',  ( 1.224646799147353700E-16, 0.0000000000000000000, 1.000000000000000000 ) ) ;
#45 = CONICAL_SURFACE ( 'NONE', #239, 0.04750000000000064587, 0.7853981633974466137 ) ;
#46 = PLANE ( 'NONE',  #301 ) ;
#47 = DIRECTION ( 'NONE',  ( 1.000000000000000000, 0.0000000000000000000, -0.0000000000000000000 ) ) ;
#48 = DIRECTION ( 'NONE',  ( -1.224646799147353700E-16, -0.0000000000000000000, -1.000000000000000000 ) ) ;
#49 = PRESENTATION_STYLE_ASSIGNMENT (( #16 ) ) ;
#50 = DIRECTION ( 'NONE',  ( -1.224646799147353700E-16, -0.0000000000000000000, -1.000000000000000000 ) ) ;
#51 = EDGE_CURVE ( 'NONE', #164, #148, #246, .T. ) ;
#52 = FACE_OUTER_BOUND ( 'NONE', #199, .T. ) ;
#53 = AXIS2_PLACEMENT_3D ( 'NONE', #324, #351, #113 ) ;
#54 = APPLICATION_PROTOCOL_DEFINITION ( 'draft international standard', 'automotive_design', 1998, #194 ) ;
#55 = CYLINDRICAL_SURFACE ( 'NONE', #308, 0.06250000000000002776 ) ;
#56 = CARTESIAN_POINT ( 'NONE',  ( 1.224646799147353770E-18, 0.0000000000000000000, 0.01000000000000000021 ) ) ;
#57 = ORIENTED_EDGE ( 'NONE', *, *, #350, .T. ) ;
#58 = ORIENTED_EDGE ( 'NONE', *, *, #60, .F. ) ;
#59 = AXIS2_PLACEMENT_3D ( 'NONE', #318, #50, #291 ) ;
#60 = EDGE_CURVE ( 'NONE', #201, #225, #222, .T. ) ;
#61 = ORIENTED_EDGE ( 'NONE', *, *, #229, .F. ) ;
#62 = CARTESIAN_POINT ( 'NONE',  ( 0.0000000000000000000, 0.0000000000000000000, 0.0000000000000000000 ) ) ;
#63 = ORIENTED_EDGE ( 'NONE', *, *, #185, .F. ) ;
#64 = LINE ( 'NONE', #265, #266 ) ;
#65 = VERTEX_POINT ( 'NONE', #70 ) ;
#66 =( GEOMETRIC_REPRESENTATION_CONTEXT ( 3 ) GLOBAL_UNCERTAINTY_ASSIGNED_CONTEXT ( ( #294 ) ) GLOBAL_UNIT_ASSIGNED_CONTEXT ( ( #345, #311, #18 ) ) REPRESENTATION_CONTEXT ( 'NONE', 'WORKASPACE' ) );
#67 = ORIENTED_EDGE ( 'NONE', *, *, #22, .T. ) ;
#68 = EDGE_CURVE ( 'NONE', #79, #328, #25, .T. ) ;
#69 = DIRECTION ( 'NONE',  ( 1.000000000000000000, 0.0000000000000000000, 0.0000000000000000000 ) ) ;
#70 = CARTESIAN_POINT ( 'NONE',  ( -0.06250000000000002776, 0.0000000000000000000, 1.485000000000000764 ) ) ;
#71 = LINE ( 'NONE', #178, #73 ) ;
#72 = CARTESIAN_POINT ( 'NONE',  ( -0.02121875000000000497, 3.210870826514467669E-18, 0.0000000000000000000 ) ) ;
#73 = VECTOR ( 'NONE', #210, 39.37007874015748143 ) ;
#74 = PRODUCT_RELATED_PRODUCT_CATEGORY ( 'part', '', ( #241 ) ) ;
#75 = DIRECTION ( 'NONE',  ( -1.000000000000000000, 0.0000000000000000000, 1.224646799147353700E-16 ) ) ;
#76 = FACE_OUTER_BOUND ( 'NONE', #114, .T. ) ;
#77 = APPLICATION_PROTOCOL_DEFINITION ( 'draft international standard', 'automotive_design', 1998, #159 ) ;
#78 = DIRECTION ( 'NONE',  ( -1.224646799147353700E-16, -0.0000000000000000000, -1.000000000000000000 ) ) ;
#79 = VERTEX_POINT ( 'NONE', #340 ) ;
#80 = DIRECTION ( 'NONE',  ( -0.0000000000000000000, -0.0000000000000000000, -1.000000000000000000 ) ) ;
#81 = FILL_AREA_STYLE_COLOUR ( '', #347 ) ;
#82 =( NAMED_UNIT ( * ) SI_UNIT ( $, .STERADIAN. ) SOLID_ANGLE_UNIT ( ) );
#83 = CARTESIAN_POINT ( 'NONE',  ( 0.0000000000000000000, 0.0000000000000000000, 1.485000000000000764 ) ) ;
#84 = VECTOR ( 'NONE', #23, 39.37007874015747433 ) ;
#85 = STYLED_ITEM ( 'NONE', ( #327 ), #349 ) ;
#86 = ORIENTED_EDGE ( 'NONE', *, *, #68, .T. ) ;
#87 = DIRECTION ( 'NONE',  ( 0.0000000000000000000, 0.0000000000000000000, 1.000000000000000000 ) ) ;
#88 = FACE_OUTER_BOUND ( 'NONE', #296, .T. ) ;
#89 = EDGE_LOOP ( 'NONE', ( #300, #280, #303, #169 ) ) ;
#90 = MECHANICAL_DESIGN_GEOMETRIC_PRESENTATION_REPRESENTATION (  '', ( #172 ), #66 ) ;
#91 = AXIS2_PLACEMENT_3D ( 'NONE', #62, #276, #143 ) ;
#92 = ORIENTED_EDGE ( 'NONE', *, *, #51, .T. ) ;
#93 = FACE_OUTER_BOUND ( 'NONE', #322, .T. ) ;
#94 = DIRECTION ( 'NONE',  ( 0.0000000000000000000, 0.0000000000000000000, 1.000000000000000000 ) ) ;
#95 = MANIFOLD_SOLID_BREP ( 'Fillet1', #117 ) ;
#96 = AXIS2_PLACEMENT_3D ( 'NONE', #243, #216, #331 ) ;
#97 = DIRECTION ( 'NONE',  ( 1.000000000000000000, 0.0000000000000000000, 0.0000000000000000000 ) ) ;
#98 = ADVANCED_FACE ( 'NONE', ( #175 ), #233, .F. ) ;
#99 = DIRECTION ( 'NONE',  ( -1.224646799147353700E-16, -0.0000000000000000000, -1.000000000000000000 ) ) ;
#100 = CARTESIAN_POINT ( 'NONE',  ( -0.03121874999999998609, 3.823194226088144458E-18, 0.1880000000000000282 ) ) ;
#101 = ORIENTED_EDGE ( 'NONE', *, *, #202, .T. ) ;
#102 = CARTESIAN_POINT ( 'NONE',  ( 2.302335982397025094E-17, 0.0000000000000000000, 0.1880000000000000282 ) ) ;
#103 = UNCERTAINTY_MEASURE_WITH_UNIT (LENGTH_MEASURE( 1.000000000000000082E-05 ), #221, 'distance_accuracy_value', 'NONE');
#104 = VECTOR ( 'NONE', #330, 39.37007874015748143 ) ;
#105 = ORIENTED_EDGE ( 'NONE', *, *, #302, .F. ) ;
#106 = AXIS2_PLACEMENT_3D ( 'NONE', #56, #87, #271 ) ;
#107 = CARTESIAN_POINT ( 'NONE',  ( 1.224646799147353770E-18, 0.0000000000000000000, 0.01000000000000000021 ) ) ;
#108 = EDGE_CURVE ( 'NONE', #167, #148, #198, .T. ) ;
#109 = SURFACE_STYLE_FILL_AREA ( #195 ) ;
#110 = ORIENTED_EDGE ( 'NONE', *, *, #350, .F. ) ;
#111 = CIRCLE ( 'NONE', #122, 0.02121875000000000497 ) ;
#112 =( GEOMETRIC_REPRESENTATION_CONTEXT ( 3 ) GLOBAL_UNCERTAINTY_ASSIGNED_CONTEXT ( ( #103 ) ) GLOBAL_UNIT_ASSIGNED_CONTEXT ( ( #221, #1, #329 ) ) REPRESENTATION_CONTEXT ( 'NONE', 'WORKASPACE' ) );
#113 = DIRECTION ( 'NONE',  ( -1.000000000000000000, 0.0000000000000000000, 0.0000000000000000000 ) ) ;
#114 = EDGE_LOOP ( 'NONE', ( #119, #309, #67, #132 ) ) ;
#115 = DIRECTION ( 'NONE',  ( 1.000000000000000000, 0.0000000000000000000, 0.0000000000000000000 ) ) ;
#116 = DIRECTION ( 'NONE',  ( 0.0000000000000000000, 0.0000000000000000000, -1.000000000000000000 ) ) ;
#117 = CLOSED_SHELL ( 'NONE', ( #35, #268, #312, #38, #13, #250, #42, #316, #321, #248, #98, #205 ) ) ;
#118 = AXIS2_PLACEMENT_3D ( 'NONE', #209, #94, #47 ) ;
#119 = ORIENTED_EDGE ( 'NONE', *, *, #5, .F. ) ;
#120 = LENGTH_MEASURE_WITH_UNIT ( LENGTH_MEASURE( 0.02539999999999999897 ), #206 );
#121 = SURFACE_STYLE_FILL_AREA ( #150 ) ;
#122 = AXIS2_PLACEMENT_3D ( 'NONE', #182, #264, #290 ) ;
#123 = PRODUCT_DEFINITION_SHAPE ( 'NONE', 'NONE',  #339 ) ;
#124 = FACE_OUTER_BOUND ( 'NONE', #12, .T. ) ;
#125 = FACE_OUTER_BOUND ( 'NONE', #89, .T. ) ;
#126 = EDGE_CURVE ( 'NONE', #225, #325, #71, .T. ) ;
#127 = FACE_OUTER_BOUND ( 'NONE', #218, .T. ) ;
#128 = LINE ( 'NONE', #213, #129 ) ;
#129 = VECTOR ( 'NONE', #305, 39.37007874015748854 ) ;
#130 = ORIENTED_EDGE ( 'NONE', *, *, #149, .F. ) ;
#131 = DIRECTION ( 'NONE',  ( -1.000000000000000000, 1.224646799147353454E-16, 0.0000000000000000000 ) ) ;
#132 = ORIENTED_EDGE ( 'NONE', *, *, #286, .F. ) ;
#133 = FACE_OUTER_BOUND ( 'NONE', #223, .T. ) ;
#134 = VERTEX_POINT ( 'NONE', #317 ) ;
#135 = DIRECTION ( 'NONE',  ( 1.000000000000000000, 0.0000000000000000000, 0.0000000000000000000 ) ) ;
#136 = TOROIDAL_SURFACE ( 'NONE', #334, 0.02121875000000000497, 0.01000000000000000021 ) ;
#137 = AXIS2_PLACEMENT_3D ( 'NONE', #313, #260, #287 ) ;
#138 = PRODUCT_DEFINITION_FORMATION_WITH_SPECIFIED_SOURCE ( 'ANY', '', #241, .NOT_KNOWN. ) ;
#139 = EDGE_CURVE ( 'NONE', #31, #167, #111, .T. ) ;
#140 = DIRECTION ( 'NONE',  ( -1.224646799147353700E-16, -0.0000000000000000000, -1.000000000000000000 ) ) ;
#141 = ORIENTED_EDGE ( 'NONE', *, *, #108, .T. ) ;
#142 = DIRECTION ( 'NONE',  ( 1.224646799147353207E-16, 1.000000000000000000, -0.0000000000000000000 ) ) ;
#143 = DIRECTION ( 'NONE',  ( 1.000000000000000000, 0.0000000000000000000, 0.0000000000000000000 ) ) ;
#144 = CARTESIAN_POINT ( 'NONE',  ( -0.06250000000000002776, 0.0000000000000000000, 1.500000000000000222 ) ) ;
#145 = CIRCLE ( 'NONE', #165, 0.03121875000000000691 ) ;
#146 = ORIENTED_EDGE ( 'NONE', *, *, #149, .T. ) ;
#147 = ORIENTED_EDGE ( 'NONE', *, *, #302, .T. ) ;
#148 = VERTEX_POINT ( 'NONE', #158 ) ;
#149 = EDGE_CURVE ( 'NONE', #277, #325, #262, .T. ) ;
#150 = FILL_AREA_STYLE ('',( #237 ) ) ;
#151 = CARTESIAN_POINT ( 'NONE',  ( 0.0000000000000000000, 0.0000000000000000000, 1.500000000000000222 ) ) ;
#152 = AXIS2_PLACEMENT_3D ( 'NONE', #37, #43, #310 ) ;
#153 = AXIS2_PLACEMENT_3D ( 'NONE', #156, #142, #131 ) ;
#154 = DIRECTION ( 'NONE',  ( -1.000000000000000000, 0.0000000000000000000, 0.0000000000000000000 ) ) ;
#155 = CARTESIAN_POINT ( 'NONE',  ( -0.03121875000000000691, 0.0000000000000000000, 3.823194226088145998E-18 ) ) ;
#156 = CARTESIAN_POINT ( 'NONE',  ( -0.02121875000000000497, 2.598547426940790881E-18, 0.01000000000000000021 ) ) ;
#157 = CIRCLE ( 'NONE', #153, 0.01000000000000000021 ) ;
#158 = CARTESIAN_POINT ( 'NONE',  ( 0.03121875000000000691, 3.823194226088144458E-18, 0.01000000000000000021 ) ) ;
#159 = APPLICATION_CONTEXT ( 'automotive_design' ) ;
#160 = SHAPE_DEFINITION_REPRESENTATION ( #123, #349 ) ;
#161 = DIRECTION ( 'NONE',  ( 0.0000000000000000000, 0.0000000000000000000, -1.000000000000000000 ) ) ;
#162 = EDGE_CURVE ( 'NONE', #201, #164, #298, .T. ) ;
#163 =( LENGTH_UNIT ( ) NAMED_UNIT ( * ) SI_UNIT ( $, .METRE. ) );
#164 = VERTEX_POINT ( 'NONE', #187 ) ;
#165 = AXIS2_PLACEMENT_3D ( 'NONE', #107, #297, #135 ) ;
#166 = LENGTH_MEASURE_WITH_UNIT ( LENGTH_MEASURE( 0.02539999999999999897 ), #220 );
#167 = VERTEX_POINT ( 'NONE', #190 ) ;
#168 = LENGTH_MEASURE_WITH_UNIT ( LENGTH_MEASURE( 0.02539999999999999897 ), #163 );
#169 = ORIENTED_EDGE ( 'NONE', *, *, #108, .F. ) ;
#170 = DIRECTION ( 'NONE',  ( 0.7071067811865462405, 8.659560562354916834E-17, -0.7071067811865486830 ) ) ;
#171 = ORIENTED_EDGE ( 'NONE', *, *, #139, .T. ) ;
#172 = STYLED_ITEM ( 'NONE', ( #49 ), #95 ) ;
#173 = ORIENTED_EDGE ( 'NONE', *, *, #5, .T. ) ;
#174 = LINE ( 'NONE', #144, #307 ) ;
#175 = FACE_OUTER_BOUND ( 'NONE', #306, .T. ) ;
#176 = AXIS2_PLACEMENT_3D ( 'NONE', #270, #99, #75 ) ;
#177 = CARTESIAN_POINT ( 'NONE',  ( 1.224646799147353770E-18, 0.0000000000000000000, 0.01000000000000000021 ) ) ;
#178 = CARTESIAN_POINT ( 'NONE',  ( 0.03121875000000002773, 0.0000000000000000000, 0.1880000000000000282 ) ) ;
#179 = AXIS2_PLACEMENT_3D ( 'NONE', #11, #254, #115 ) ;
#180 = AXIS2_PLACEMENT_3D ( 'NONE', #320, #161, #26 ) ;
#181 = PRESENTATION_LAYER_ASSIGNMENT (  '', '', ( #85 ) ) ;
#182 = CARTESIAN_POINT ( 'NONE',  ( 1.224646799147353770E-18, 0.0000000000000000000, 0.0000000000000000000 ) ) ;
#183 = DIRECTION ( 'NONE',  ( -1.224646799147353700E-16, -0.0000000000000000000, -1.000000000000000000 ) ) ;
#184 = CARTESIAN_POINT ( 'NONE',  ( 4.474917996329784544E-17, 0.0000000000000000000, 0.3654047844199155848 ) ) ;
#185 = EDGE_CURVE ( 'NONE', #134, #65, #252, .T. ) ;
#186 = PRODUCT_CONTEXT ( 'NONE', #159, 'mechanical' ) ;
#187 = CARTESIAN_POINT ( 'NONE',  ( -0.03121875000000000691, 0.0000000000000000000, 0.01000000000000000021 ) ) ;
#188 =( GEOMETRIC_REPRESENTATION_CONTEXT ( 3 ) GLOBAL_UNCERTAINTY_ASSIGNED_CONTEXT ( ( #244 ) ) GLOBAL_UNIT_ASSIGNED_CONTEXT ( ( #219, #36, #82 ) ) REPRESENTATION_CONTEXT ( 'NONE', 'WORKASPACE' ) );
#189 = DIRECTION ( 'NONE',  ( 0.0000000000000000000, 0.0000000000000000000, 1.000000000000000000 ) ) ;
#190 = CARTESIAN_POINT ( 'NONE',  ( 0.02121875000000000497, 0.0000000000000000000, 0.0000000000000000000 ) ) ;
#191 = ORIENTED_EDGE ( 'NONE', *, *, #337, .T. ) ;
#192 = CARTESIAN_POINT ( 'NONE',  ( 0.06250000000000006939, 7.654042494670963708E-18, 0.3654047844199155848 ) ) ;
#193 = EDGE_CURVE ( 'NONE', #201, #277, #267, .T. ) ;
#194 = APPLICATION_CONTEXT ( 'automotive_design' ) ;
#195 = FILL_AREA_STYLE ('',( #81 ) ) ;
#196 = LINE ( 'NONE', #29, #14 ) ;
#197 = LINE ( 'NONE', #7, #104 ) ;
#198 = CIRCLE ( 'NONE', #230, 0.01000000000000000021 ) ;
#199 = EDGE_LOOP ( 'NONE', ( #282, #147, #275, #92 ) ) ;
#200 = FACE_OUTER_BOUND ( 'NONE', #204, .T. ) ;
#201 = VERTEX_POINT ( 'NONE', #348 ) ;
#202 = EDGE_CURVE ( 'NONE', #328, #65, #128, .T. ) ;
#203 = ORIENTED_EDGE ( 'NONE', *, *, #326, .T. ) ;
#204 = EDGE_LOOP ( 'NONE', ( #61, #110, #101, #63 ) ) ;
#205 = ADVANCED_FACE ( 'NONE', ( #133 ), #272, .T. ) ;
#206 =( LENGTH_UNIT ( ) NAMED_UNIT ( * ) SI_UNIT ( $, .METRE. ) );
#207 = DIRECTION ( 'NONE',  ( 0.0000000000000000000, 0.0000000000000000000, 1.000000000000000000 ) ) ;
#208 = DIRECTION ( 'NONE',  ( 1.000000000000000000, 0.0000000000000000000, -0.0000000000000000000 ) ) ;
#209 = CARTESIAN_POINT ( 'NONE',  ( 0.0000000000000000000, 0.0000000000000000000, 0.0000000000000000000 ) ) ;
#210 = DIRECTION ( 'NONE',  ( 0.1736481776669313859, 0.0000000000000000000, 0.9848077530122077983 ) ) ;
#211 = CIRCLE ( 'NONE', #258, 0.04750000000000064587 ) ;
#212 = DIRECTION ( 'NONE',  ( -1.000000000000000000, 0.0000000000000000000, 1.224646799147353700E-16 ) ) ;
#213 = CARTESIAN_POINT ( 'NONE',  ( -0.04750000000000064587, 0.0000000000000000000, 1.500000000000000222 ) ) ;
#214 = ORIENTED_EDGE ( 'NONE', *, *, #126, .T. ) ;
#215 = ORIENTED_EDGE ( 'NONE', *, *, #229, .T. ) ;
#216 = DIRECTION ( 'NONE',  ( 1.224646799147353700E-16, 0.0000000000000000000, 1.000000000000000000 ) ) ;
#217 = AXIS2_PLACEMENT_3D ( 'NONE', #231, #48, #154 ) ;
#218 = EDGE_LOOP ( 'NONE', ( #226, #191, #203, #304 ) ) ;
#219 =( CONVERSION_BASED_UNIT ( 'INCH', #168 ) LENGTH_UNIT ( ) NAMED_UNIT ( #344 ) );
#220 =( LENGTH_UNIT ( ) NAMED_UNIT ( * ) SI_UNIT ( $, .METRE. ) );
#221 =( CONVERSION_BASED_UNIT ( 'INCH', #166 ) LENGTH_UNIT ( ) NAMED_UNIT ( #232 ) );
#222 = CIRCLE ( 'NONE', #217, 0.03121875000000000691 ) ;
#223 = EDGE_LOOP ( 'NONE', ( #273, #333, #141, #40 ) ) ;
#224 = FACE_OUTER_BOUND ( 'NONE', #253, .T. ) ;
#225 = VERTEX_POINT ( 'NONE', #295 ) ;
#226 = ORIENTED_EDGE ( 'NONE', *, *, #60, .T. ) ;
#227 = ORIENTED_EDGE ( 'NONE', *, *, #17, .F. ) ;
#228 = CIRCLE ( 'NONE', #24, 0.06250000000000002776 ) ;
#229 = EDGE_CURVE ( 'NONE', #79, #134, #64, .T. ) ;
#230 = AXIS2_PLACEMENT_3D ( 'NONE', #342, #315, #314 ) ;
#231 = CARTESIAN_POINT ( 'NONE',  ( 2.302335982397025094E-17, 0.0000000000000000000, 0.1880000000000000282 ) ) ;
#232 = DIMENSIONAL_EXPONENTS ( 1.000000000000000000, 0.0000000000000000000, 0.0000000000000000000, 0.0000000000000000000, 0.0000000000000000000, 0.0000000000000000000, 0.0000000000000000000 ) ;
#233 = PLANE ( 'NONE',  #118 ) ;
#234 = DIMENSIONAL_EXPONENTS ( 1.000000000000000000, 0.0000000000000000000, 0.0000000000000000000, 0.0000000000000000000, 0.0000000000000000000, 0.0000000000000000000, 0.0000000000000000000 ) ;
#235 = CONICAL_SURFACE ( 'NONE', #293, 0.03121875000000000691, 0.1745329251994338915 ) ;
#236 = DIRECTION ( 'NONE',  ( 0.0000000000000000000, 0.0000000000000000000, 1.000000000000000000 ) ) ;
#237 = FILL_AREA_STYLE_COLOUR ( '', #335 ) ;
#238 = DIRECTION ( 'NONE',  ( -1.224646799147353700E-16, -0.0000000000000000000, -1.000000000000000000 ) ) ;
#239 = AXIS2_PLACEMENT_3D ( 'NONE', #20, #283, #21 ) ;
#240 = CONICAL_SURFACE ( 'NONE', #96, 0.03121875000000000691, 0.1745329251994338915 ) ;
#241 = PRODUCT ( 'Micro_GEC-062-3-010X', 'Micro_GEC-062-3-010X', '', ( #186 ) ) ;
#242 = DIRECTION ( 'NONE',  ( -1.000000000000000000, 0.0000000000000000000, 0.0000000000000000000 ) ) ;
#243 = CARTESIAN_POINT ( 'NONE',  ( 2.302335982397025094E-17, 0.0000000000000000000, 0.1880000000000000282 ) ) ;
#244 = UNCERTAINTY_MEASURE_WITH_UNIT (LENGTH_MEASURE( 1.000000000000000082E-05 ), #219, 'distance_accuracy_value', 'NONE');
#245 = DIRECTION ( 'NONE',  ( -1.224646799147353700E-16, -0.0000000000000000000, -1.000000000000000000 ) ) ;
#246 = CIRCLE ( 'NONE', #284, 0.03121875000000000691 ) ;
#247 = DIRECTION ( 'NONE',  ( 1.000000000000000000, 0.0000000000000000000, 0.0000000000000000000 ) ) ;
#248 = ADVANCED_FACE ( 'NONE', ( #52 ), #30, .T. ) ;
#249 = ORIENTED_EDGE ( 'NONE', *, *, #126, .F. ) ;
#250 = ADVANCED_FACE ( 'NONE', ( #76 ), #55, .T. ) ;
#251 = CARTESIAN_POINT ( 'NONE',  ( 2.302335982397025094E-17, 0.0000000000000000000, 0.1880000000000000282 ) ) ;
#252 = CIRCLE ( 'NONE', #180, 0.06250000000000002776 ) ;
#253 = EDGE_LOOP ( 'NONE', ( #33, #105, #214, #34 ) ) ;
#254 = DIRECTION ( 'NONE',  ( -0.0000000000000000000, -0.0000000000000000000, -1.000000000000000000 ) ) ;
#255 = EDGE_CURVE ( 'NONE', #31, #164, #157, .T. ) ;
#256 = EDGE_LOOP ( 'NONE', ( #58, #15, #146, #249 ) ) ;
#257 = CYLINDRICAL_SURFACE ( 'NONE', #152, 0.06250000000000002776 ) ;
#258 = AXIS2_PLACEMENT_3D ( 'NONE', #27, #189, #247 ) ;
#259 = SURFACE_SIDE_STYLE ('',( #121 ) ) ;
#260 = DIRECTION ( 'NONE',  ( 0.0000000000000000000, 0.0000000000000000000, 1.000000000000000000 ) ) ;
#261 = CIRCLE ( 'NONE', #179, 0.02121875000000000497 ) ;
#262 = CIRCLE ( 'NONE', #59, 0.06250000000000002776 ) ;
#263 = CARTESIAN_POINT ( 'NONE',  ( 1.224646799147353770E-18, 0.0000000000000000000, 0.01000000000000000021 ) ) ;
#264 = DIRECTION ( 'NONE',  ( -0.0000000000000000000, -0.0000000000000000000, -1.000000000000000000 ) ) ;
#265 = CARTESIAN_POINT ( 'NONE',  ( 0.04750000000000064587, 5.817072295950006528E-18, 1.500000000000000222 ) ) ;
#266 = VECTOR ( 'NONE', #170, 39.37007874015748854 ) ;
#267 = LINE ( 'NONE', #100, #84 ) ;
#268 = ADVANCED_FACE ( 'NONE', ( #127 ), #346, .T. ) ;
#269 = CARTESIAN_POINT ( 'NONE',  ( -0.04750000000000064587, 0.0000000000000000000, 1.500000000000000222 ) ) ;
#270 = CARTESIAN_POINT ( 'NONE',  ( 0.0000000000000000000, 0.0000000000000000000, 0.0000000000000000000 ) ) ;
#271 = DIRECTION ( 'NONE',  ( 1.000000000000000000, 0.0000000000000000000, 0.0000000000000000000 ) ) ;
#272 = TOROIDAL_SURFACE ( 'NONE', #106, 0.02121875000000000497, 0.01000000000000000021 ) ;
#273 = ORIENTED_EDGE ( 'NONE', *, *, #255, .F. ) ;
#274 = SURFACE_STYLE_USAGE ( .BOTH. , #6 ) ;
#275 = ORIENTED_EDGE ( 'NONE', *, *, #162, .T. ) ;
#276 = DIRECTION ( 'NONE',  ( 0.0000000000000000000, 0.0000000000000000000, 1.000000000000000000 ) ) ;
#277 = VERTEX_POINT ( 'NONE', #28 ) ;
#278 = CARTESIAN_POINT ( 'NONE',  ( 0.0000000000000000000, 0.0000000000000000000, 1.500000000000000222 ) ) ;
#279 = AXIS2_PLACEMENT_3D ( 'NONE', #319, #238, #212 ) ;
#280 = ORIENTED_EDGE ( 'NONE', *, *, #255, .T. ) ;
#281 = ORIENTED_EDGE ( 'NONE', *, *, #68, .F. ) ;
#282 = ORIENTED_EDGE ( 'NONE', *, *, #337, .F. ) ;
#283 = DIRECTION ( 'NONE',  ( 0.0000000000000000000, 0.0000000000000000000, -1.000000000000000000 ) ) ;
#284 = AXIS2_PLACEMENT_3D ( 'NONE', #263, #207, #338 ) ;
#285 = MECHANICAL_DESIGN_GEOMETRIC_PRESENTATION_REPRESENTATION (  '', ( #85 ), #112 ) ;
#286 = EDGE_CURVE ( 'NONE', #325, #277, #4, .T. ) ;
#287 = DIRECTION ( 'NONE',  ( 1.000000000000000000, 0.0000000000000000000, 0.0000000000000000000 ) ) ;
#288 = DIRECTION ( 'NONE',  ( 0.0000000000000000000, 0.0000000000000000000, 1.000000000000000000 ) ) ;
#289 = AXIS2_PLACEMENT_3D ( 'NONE', #184, #245, #8 ) ;
#290 = DIRECTION ( 'NONE',  ( 1.000000000000000000, 0.0000000000000000000, 0.0000000000000000000 ) ) ;
#291 = DIRECTION ( 'NONE',  ( 1.000000000000000000, 0.0000000000000000000, 0.0000000000000000000 ) ) ;
#292 = FACE_OUTER_BOUND ( 'NONE', #256, .T. ) ;
#293 = AXIS2_PLACEMENT_3D ( 'NONE', #102, #44, #341 ) ;
#294 = UNCERTAINTY_MEASURE_WITH_UNIT (LENGTH_MEASURE( 1.000000000000000082E-05 ), #345, 'distance_accuracy_value', 'NONE');
#295 = CARTESIAN_POINT ( 'NONE',  ( 0.03121875000000002773, 0.0000000000000000000, 0.1880000000000000282 ) ) ;
#296 = EDGE_LOOP ( 'NONE', ( #299, #173, #130, #41 ) ) ;
#297 = DIRECTION ( 'NONE',  ( 0.0000000000000000000, 0.0000000000000000000, 1.000000000000000000 ) ) ;
#298 = LINE ( 'NONE', #155, #323 ) ;
#299 = ORIENTED_EDGE ( 'NONE', *, *, #17, .T. ) ;
#300 = ORIENTED_EDGE ( 'NONE', *, *, #139, .F. ) ;
#301 = AXIS2_PLACEMENT_3D ( 'NONE', #151, #288, #208 ) ;
#302 = EDGE_CURVE ( 'NONE', #225, #201, #39, .T. ) ;
#303 = ORIENTED_EDGE ( 'NONE', *, *, #326, .F. ) ;
#304 = ORIENTED_EDGE ( 'NONE', *, *, #162, .F. ) ;
#305 = DIRECTION ( 'NONE',  ( -0.7071067811865462405, 0.0000000000000000000, -0.7071067811865486830 ) ) ;
#306 = EDGE_LOOP ( 'NONE', ( #336, #171 ) ) ;
#307 = VECTOR ( 'NONE', #332, 39.37007874015748143 ) ;
#308 = AXIS2_PLACEMENT_3D ( 'NONE', #278, #80, #242 ) ;
#309 = ORIENTED_EDGE ( 'NONE', *, *, #185, .T. ) ;
#310 = DIRECTION ( 'NONE',  ( -1.000000000000000000, 0.0000000000000000000, 0.0000000000000000000 ) ) ;
#311 =( NAMED_UNIT ( * ) PLANE_ANGLE_UNIT ( ) SI_UNIT ( $, .RADIAN. ) );
#312 = ADVANCED_FACE ( 'NONE', ( #292 ), #240, .T. ) ;
#313 = CARTESIAN_POINT ( 'NONE',  ( 0.0000000000000000000, 0.0000000000000000000, 1.500000000000000222 ) ) ;
#314 = DIRECTION ( 'NONE',  ( 0.0000000000000000000, 0.0000000000000000000, -1.000000000000000000 ) ) ;
#315 = DIRECTION ( 'NONE',  ( 0.0000000000000000000, -1.000000000000000000, 0.0000000000000000000 ) ) ;
#316 = ADVANCED_FACE ( 'NONE', ( #200 ), #32, .T. ) ;
#317 = CARTESIAN_POINT ( 'NONE',  ( 0.06250000000000002776, 7.654042494670959086E-18, 1.485000000000000764 ) ) ;
#318 = CARTESIAN_POINT ( 'NONE',  ( 4.474917996329784544E-17, 0.0000000000000000000, 0.3654047844199155848 ) ) ;
#319 = CARTESIAN_POINT ( 'NONE',  ( 0.0000000000000000000, 0.0000000000000000000, 0.0000000000000000000 ) ) ;
#320 = CARTESIAN_POINT ( 'NONE',  ( 0.0000000000000000000, 0.0000000000000000000, 1.485000000000000764 ) ) ;
#321 = ADVANCED_FACE ( 'NONE', ( #224 ), #235, .T. ) ;
#322 = EDGE_LOOP ( 'NONE', ( #281, #215, #227, #10 ) ) ;
#323 = VECTOR ( 'NONE', #78, 39.37007874015748143 ) ;
#324 = CARTESIAN_POINT ( 'NONE',  ( 0.0000000000000000000, 0.0000000000000000000, 1.500000000000000222 ) ) ;
#325 = VERTEX_POINT ( 'NONE', #192 ) ;
#326 = EDGE_CURVE ( 'NONE', #148, #164, #145, .T. ) ;
#327 = PRESENTATION_STYLE_ASSIGNMENT (( #274 ) ) ;
#328 = VERTEX_POINT ( 'NONE', #269 ) ;
#329 =( NAMED_UNIT ( * ) SI_UNIT ( $, .STERADIAN. ) SOLID_ANGLE_UNIT ( ) );
#330 = DIRECTION ( 'NONE',  ( -0.0000000000000000000, -0.0000000000000000000, -1.000000000000000000 ) ) ;
#331 = DIRECTION ( 'NONE',  ( 1.000000000000000000, 0.0000000000000000000, 0.0000000000000000000 ) ) ;
#332 = DIRECTION ( 'NONE',  ( -0.0000000000000000000, -0.0000000000000000000, -1.000000000000000000 ) ) ;
#333 = ORIENTED_EDGE ( 'NONE', *, *, #3, .F. ) ;
#334 = AXIS2_PLACEMENT_3D ( 'NONE', #177, #236, #97 ) ;
#335 = COLOUR_RGB ( '',0.7921568627450980005, 0.8196078431372548767, 0.9333333333333333481 ) ;
#336 = ORIENTED_EDGE ( 'NONE', *, *, #3, .T. ) ;
#337 = EDGE_CURVE ( 'NONE', #225, #148, #196, .T. ) ;
#338 = DIRECTION ( 'NONE',  ( 1.000000000000000000, 0.0000000000000000000, 0.0000000000000000000 ) ) ;
#339 = PRODUCT_DEFINITION ( 'UNKNOWN', '', #138, #343 ) ;
#340 = CARTESIAN_POINT ( 'NONE',  ( 0.04750000000000064587, 6.735557395310483192E-18, 1.500000000000000222 ) ) ;
#341 = DIRECTION ( 'NONE',  ( 1.000000000000000000, 0.0000000000000000000, 0.0000000000000000000 ) ) ;
#342 = CARTESIAN_POINT ( 'NONE',  ( 0.02121875000000000497, 0.0000000000000000000, 0.01000000000000000021 ) ) ;
#343 = PRODUCT_DEFINITION_CONTEXT ( 'detailed design', #194, 'design' ) ;
#344 = DIMENSIONAL_EXPONENTS ( 1.000000000000000000, 0.0000000000000000000, 0.0000000000000000000, 0.0000000000000000000, 0.0000000000000000000, 0.0000000000000000000, 0.0000000000000000000 ) ;
#345 =( CONVERSION_BASED_UNIT ( 'INCH', #120 ) LENGTH_UNIT ( ) NAMED_UNIT ( #234 ) );
#346 = CYLINDRICAL_SURFACE ( 'NONE', #176, 0.03121875000000000691 ) ;
#347 = COLOUR_RGB ( '',0.7921568627450980005, 0.8196078431372548767, 0.9333333333333333481 ) ;
#348 = CARTESIAN_POINT ( 'NONE',  ( -0.03121874999999998609, 5.738618360379552157E-18, 0.1880000000000000282 ) ) ;
#349 = ADVANCED_BREP_SHAPE_REPRESENTATION ( 'Micro_GEC-062-3-010X', ( #95, #91 ), #188 ) ;
#350 = EDGE_CURVE ( 'NONE', #328, #79, #211, .T. ) ;
#351 = DIRECTION ( 'NONE',  ( 0.0000000000000000000, 0.0000000000000000000, -1.000000000000000000 ) ) ;
ENDSEC;
END-ISO-10303-21;
