ISO-10303-21;
HEADER;
FILE_DESCRIPTION (( 'STEP AP214' ),
    '1' );
FILE_NAME ('48260.STEP',
    '2023-06-22T21:19:33',
    ( '' ),
    ( '' ),
    'SwSTEP 2.0',
    'SolidWorks 2023',
    '' );
FILE_SCHEMA (( 'AUTOMOTIVE_DESIGN' ));
ENDSEC;

DATA;
#1 = CLOSED_SHELL ( 'NONE', ( #95, #145, #116, #172 ) ) ;
#2 = FACE_OUTER_BOUND ( 'NONE', #36, .T. ) ;
#3 = EDGE_CURVE ( 'NONE', #218, #166, #273, .T. ) ;
#4 = SURFACE_STYLE_USAGE ( .BOTH. , #289 ) ;
#5 = ORIENTED_EDGE ( 'NONE', *, *, #3, .F. ) ;
#6 = ORIENTED_EDGE ( 'NONE', *, *, #59, .T. ) ;
#7 = COLOUR_RGB ( '',1.000000000000000000, 0.000000000000000000, 0.000000000000000000 ) ;
#8 = AXIS2_PLACEMENT_3D ( 'NONE', #278, #158, #257 ) ;
#9 = ORIENTED_EDGE ( 'NONE', *, *, #226, .T. ) ;
#10 = SHAPE_DEFINITION_REPRESENTATION ( #300, #139 ) ;
#11 = ORIENTED_EDGE ( 'NONE', *, *, #265, .T. ) ;
#12 = FILL_AREA_STYLE ('',( #147 ) ) ;
#13 = VERTEX_POINT ( 'NONE', #28 ) ;
#14 = CARTESIAN_POINT ( 'NONE',  ( 0.1875000000000000555, 1.000000000000000000, 2.296212748401288342E-17 ) ) ;
#15 = UNCERTAINTY_MEASURE_WITH_UNIT (LENGTH_MEASURE( 1.000000000000000082E-05 ), #169, 'distance_accuracy_value', 'NONE');
#16 = FACE_OUTER_BOUND ( 'NONE', #215, .T. ) ;
#17 = EDGE_CURVE ( 'NONE', #61, #150, #288, .T. ) ;
#18 = DIRECTION ( 'NONE',  ( -4.082155997157843818E-17, 1.000000000000000000, -0.000000000000000000 ) ) ;
#19 = FILL_AREA_STYLE ('',( #52 ) ) ;
#20 = LINE ( 'NONE', #44, #45 ) ;
#21 = AXIS2_PLACEMENT_3D ( 'NONE', #105, #272, #176 ) ;
#22 = DIRECTION ( 'NONE',  ( 0.000000000000000000, 0.000000000000000000, -1.000000000000000000 ) ) ;
#23 = UNCERTAINTY_MEASURE_WITH_UNIT (LENGTH_MEASURE( 1.000000000000000082E-05 ), #117, 'distance_accuracy_value', 'NONE');
#24 =( GEOMETRIC_REPRESENTATION_CONTEXT ( 3 ) GLOBAL_UNCERTAINTY_ASSIGNED_CONTEXT ( ( #132 ) ) GLOBAL_UNIT_ASSIGNED_CONTEXT ( ( #307, #159, #258 ) ) REPRESENTATION_CONTEXT ( 'NONE', 'WORKASPACE' ) );
#25 =( GEOMETRIC_REPRESENTATION_CONTEXT ( 3 ) GLOBAL_UNCERTAINTY_ASSIGNED_CONTEXT ( ( #207 ) ) GLOBAL_UNIT_ASSIGNED_CONTEXT ( ( #233, #283, #187 ) ) REPRESENTATION_CONTEXT ( 'NONE', 'WORKASPACE' ) );
#26 = EDGE_CURVE ( 'NONE', #166, #218, #254, .T. ) ;
#27 =( LENGTH_UNIT ( ) NAMED_UNIT ( * ) SI_UNIT ( $, .METRE. ) );
#28 = CARTESIAN_POINT ( 'NONE',  ( 2.296212748401287726E-17, 0.000000000000000000, 0.1875000000000000278 ) ) ;
#29 = DIRECTION ( 'NONE',  ( 0.000000000000000000, 0.000000000000000000, -1.000000000000000000 ) ) ;
#30 = CARTESIAN_POINT ( 'NONE',  ( 0.000000000000000000, 1.000000000000000000, 0.000000000000000000 ) ) ;
#31 = ADVANCED_FACE ( 'NONE', ( #16 ), #223, .T. ) ;
#32 = COLOUR_RGB ( '',0.7921568627450980005, 0.8196078431372548767, 0.9333333333333333481 ) ;
#33 = DIRECTION ( 'NONE',  ( 0.000000000000000000, -0.000000000000000000, 1.000000000000000000 ) ) ;
#34 = CARTESIAN_POINT ( 'NONE',  ( 0.000000000000000000, 1.000000000000000000, 0.000000000000000000 ) ) ;
#35 = CARTESIAN_POINT ( 'NONE',  ( 0.000000000000000000, 0.000000000000000000, 0.000000000000000000 ) ) ;
#36 = EDGE_LOOP ( 'NONE', ( #292, #250, #104, #269 ) ) ;
#37 = MECHANICAL_DESIGN_GEOMETRIC_PRESENTATION_REPRESENTATION (  '', ( #304 ), #24 ) ;
#38 = SURFACE_STYLE_FILL_AREA ( #12 ) ;
#39 = ORIENTED_EDGE ( 'NONE', *, *, #124, .T. ) ;
#40 = ORIENTED_EDGE ( 'NONE', *, *, #86, .T. ) ;
#41 = PRESENTATION_STYLE_ASSIGNMENT (( #88 ) ) ;
#42 = PRODUCT_DEFINITION ( 'UNKNOWN', '', #231, #83 ) ;
#43 = AXIS2_PLACEMENT_3D ( 'NONE', #103, #217, #295 ) ;
#44 = CARTESIAN_POINT ( 'NONE',  ( -0.1875000000000001388, 2.500000000000000000, 0.000000000000000000 ) ) ;
#45 = VECTOR ( 'NONE', #18, 39.37007874015748143 ) ;
#46 = LENGTH_MEASURE_WITH_UNIT ( LENGTH_MEASURE( 0.02539999999999999897 ), #256 );
#47 = DIRECTION ( 'NONE',  ( -0.000000000000000000, -1.000000000000000000, -0.000000000000000000 ) ) ;
#48 = SURFACE_SIDE_STYLE ('',( #234 ) ) ;
#49 = LENGTH_MEASURE_WITH_UNIT ( LENGTH_MEASURE( 0.02539999999999999897 ), #181 );
#50 = CIRCLE ( 'NONE', #118, 0.1875000000000001110 ) ;
#51 = CARTESIAN_POINT ( 'NONE',  ( -0.1875000000000000555, 1.000000000000000000, 0.000000000000000000 ) ) ;
#52 = FILL_AREA_STYLE_COLOUR ( '', #32 ) ;
#53 = MANIFOLD_SOLID_BREP ( 'Revolve - Tool Body (Straight Shanked)', #297 ) ;
#54 = DIRECTION ( 'NONE',  ( -0.000000000000000000, -1.000000000000000000, -0.000000000000000000 ) ) ;
#55 = MANIFOLD_SOLID_BREP ( 'Revolve - Cutting Edge', #1 ) ;
#56 = SURFACE_STYLE_FILL_AREA ( #183 ) ;
#57 = CARTESIAN_POINT ( 'NONE',  ( 0.000000000000000000, 1.000000000000000000, 0.000000000000000000 ) ) ;
#58 = CARTESIAN_POINT ( 'NONE',  ( 2.296212748401288034E-17, 0.000000000000000000, 0.1875000000000000555 ) ) ;
#59 = EDGE_CURVE ( 'NONE', #268, #13, #178, .T. ) ;
#60 = AXIS2_PLACEMENT_3D ( 'NONE', #144, #214, #170 ) ;
#61 = VERTEX_POINT ( 'NONE', #121 ) ;
#62 = EDGE_LOOP ( 'NONE', ( #6, #11 ) ) ;
#63 = AXIS2_PLACEMENT_3D ( 'NONE', #57, #141, #160 ) ;
#64 = MECHANICAL_DESIGN_GEOMETRIC_PRESENTATION_REPRESENTATION (  '', ( #285 ), #305 ) ;
#65 = CARTESIAN_POINT ( 'NONE',  ( -0.1875000000000001943, 2.500000000000000000, 0.000000000000000000 ) ) ;
#66 = ORIENTED_EDGE ( 'NONE', *, *, #26, .F. ) ;
#67 = DIRECTION ( 'NONE',  ( -1.000000000000000000, 0.000000000000000000, 0.000000000000000000 ) ) ;
#68 = EDGE_CURVE ( 'NONE', #150, #61, #253, .T. ) ;
#69 = DIMENSIONAL_EXPONENTS ( 1.000000000000000000, 0.000000000000000000, 0.000000000000000000, 0.000000000000000000, 0.000000000000000000, 0.000000000000000000, 0.000000000000000000 ) ;
#70 = CARTESIAN_POINT ( 'NONE',  ( 0.1875000000000000555, 2.500000000000000000, 0.000000000000000000 ) ) ;
#71 = PRESENTATION_LAYER_ASSIGNMENT (  '', '', ( #190 ) ) ;
#72 =( NAMED_UNIT ( * ) SI_UNIT ( $, .STERADIAN. ) SOLID_ANGLE_UNIT ( ) );
#73 = LENGTH_MEASURE_WITH_UNIT ( LENGTH_MEASURE( 0.02539999999999999897 ), #279 );
#74 = FACE_OUTER_BOUND ( 'NONE', #296, .T. ) ;
#75 = MECHANICAL_DESIGN_GEOMETRIC_PRESENTATION_REPRESENTATION (  '', ( #212 ), #140 ) ;
#76 =( CONVERSION_BASED_UNIT ( 'INCH', #162 ) LENGTH_UNIT ( ) NAMED_UNIT ( #301 ) );
#77 = SURFACE_STYLE_FILL_AREA ( #188 ) ;
#78 = AXIS2_PLACEMENT_3D ( 'NONE', #84, #90, #174 ) ;
#79 = EDGE_LOOP ( 'NONE', ( #146, #168 ) ) ;
#80 = SURFACE_STYLE_USAGE ( .BOTH. , #191 ) ;
#81 = ORIENTED_EDGE ( 'NONE', *, *, #124, .F. ) ;
#82 =( NAMED_UNIT ( * ) PLANE_ANGLE_UNIT ( ) SI_UNIT ( $, .RADIAN. ) );
#83 = PRODUCT_DEFINITION_CONTEXT ( 'detailed design', #94, 'design' ) ;
#84 = CARTESIAN_POINT ( 'NONE',  ( -6.123233995736766036E-17, 2.500000000000000000, 0.000000000000000000 ) ) ;
#85 = STYLED_ITEM ( 'NONE', ( #202 ), #55 ) ;
#86 = EDGE_CURVE ( 'NONE', #271, #127, #50, .T. ) ;
#87 = CARTESIAN_POINT ( 'NONE',  ( 2.296212748401288034E-17, 1.000000000000000000, 0.1875000000000000555 ) ) ;
#88 = SURFACE_STYLE_USAGE ( .BOTH. , #173 ) ;
#89 = DIMENSIONAL_EXPONENTS ( 1.000000000000000000, 0.000000000000000000, 0.000000000000000000, 0.000000000000000000, 0.000000000000000000, 0.000000000000000000, 0.000000000000000000 ) ;
#90 = DIRECTION ( 'NONE',  ( -4.082155997157843818E-17, 1.000000000000000000, -0.000000000000000000 ) ) ;
#91 = FILL_AREA_STYLE_COLOUR ( '', #205 ) ;
#92 = CIRCLE ( 'NONE', #43, 0.1875000000000001110 ) ;
#93 = PLANE ( 'NONE',  #149 ) ;
#94 = APPLICATION_CONTEXT ( 'automotive_design' ) ;
#95 = ADVANCED_FACE ( 'NONE', ( #2 ), #119, .T. ) ;
#96 = PRESENTATION_STYLE_ASSIGNMENT (( #163 ) ) ;
#97 = DIRECTION ( 'NONE',  ( 0.000000000000000000, 0.000000000000000000, -1.000000000000000000 ) ) ;
#98 = PRESENTATION_LAYER_ASSIGNMENT (  '', '', ( #85 ) ) ;
#99 = FILL_AREA_STYLE_COLOUR ( '', #255 ) ;
#100 = COLOUR_RGB ( '',1.000000000000000000, 0.000000000000000000, 0.000000000000000000 ) ;
#101 = DIRECTION ( 'NONE',  ( -1.000000000000000000, 0.000000000000000000, 0.000000000000000000 ) ) ;
#102 = ORIENTED_EDGE ( 'NONE', *, *, #265, .F. ) ;
#103 = CARTESIAN_POINT ( 'NONE',  ( -6.123233995736766036E-17, 2.500000000000000000, 0.000000000000000000 ) ) ;
#104 = ORIENTED_EDGE ( 'NONE', *, *, #59, .F. ) ;
#105 = CARTESIAN_POINT ( 'NONE',  ( 0.000000000000000000, 0.000000000000000000, 0.000000000000000000 ) ) ;
#106 = CARTESIAN_POINT ( 'NONE',  ( 0.000000000000000000, 1.000000000000000000, 0.000000000000000000 ) ) ;
#107 = EDGE_CURVE ( 'NONE', #150, #13, #236, .T. ) ;
#108 = STYLED_ITEM ( 'NONE', ( #96 ), #116 ) ;
#109 = FACE_OUTER_BOUND ( 'NONE', #62, .T. ) ;
#110 = DIMENSIONAL_EXPONENTS ( 1.000000000000000000, 0.000000000000000000, 0.000000000000000000, 0.000000000000000000, 0.000000000000000000, 0.000000000000000000, 0.000000000000000000 ) ;
#111 = DIRECTION ( 'NONE',  ( -4.082155997157843818E-17, 1.000000000000000000, 0.000000000000000000 ) ) ;
#112 = SURFACE_STYLE_USAGE ( .BOTH. , #48 ) ;
#113 = LINE ( 'NONE', #133, #228 ) ;
#114 = PRODUCT_RELATED_PRODUCT_CATEGORY ( 'part', '', ( #243 ) ) ;
#115 =( GEOMETRIC_REPRESENTATION_CONTEXT ( 3 ) GLOBAL_UNCERTAINTY_ASSIGNED_CONTEXT ( ( #15 ) ) GLOBAL_UNIT_ASSIGNED_CONTEXT ( ( #169, #274, #151 ) ) REPRESENTATION_CONTEXT ( 'NONE', 'WORKASPACE' ) );
#116 = ADVANCED_FACE ( 'NONE', ( #287 ), #123, .T. ) ;
#117 =( CONVERSION_BASED_UNIT ( 'INCH', #46 ) LENGTH_UNIT ( ) NAMED_UNIT ( #110 ) );
#118 = AXIS2_PLACEMENT_3D ( 'NONE', #261, #186, #184 ) ;
#119 = CYLINDRICAL_SURFACE ( 'NONE', #219, 0.1875000000000000555 ) ;
#120 = PRESENTATION_STYLE_ASSIGNMENT (( #4 ) ) ;
#121 = CARTESIAN_POINT ( 'NONE',  ( 0.000000000000000000, 1.000000000000000000, -0.1875000000000000555 ) ) ;
#122 = DIRECTION ( 'NONE',  ( 0.000000000000000000, 0.000000000000000000, -1.000000000000000000 ) ) ;
#123 = CYLINDRICAL_SURFACE ( 'NONE', #266, 0.1875000000000000555 ) ;
#124 = EDGE_CURVE ( 'NONE', #127, #271, #92, .T. ) ;
#125 = FILL_AREA_STYLE ('',( #99 ) ) ;
#126 = DIRECTION ( 'NONE',  ( -4.082155997157843818E-17, 1.000000000000000000, -0.000000000000000000 ) ) ;
#127 = VERTEX_POINT ( 'NONE', #65 ) ;
#128 = ORIENTED_EDGE ( 'NONE', *, *, #242, .T. ) ;
#129 = PLANE ( 'NONE',  #294 ) ;
#130 = ORIENTED_EDGE ( 'NONE', *, *, #226, .F. ) ;
#131 = FACE_OUTER_BOUND ( 'NONE', #194, .T. ) ;
#132 = UNCERTAINTY_MEASURE_WITH_UNIT (LENGTH_MEASURE( 1.000000000000000082E-05 ), #307, 'distance_accuracy_value', 'NONE');
#133 = CARTESIAN_POINT ( 'NONE',  ( 0.1875000000000000278, 2.500000000000000000, 2.296212748401288342E-17 ) ) ;
#134 = DIRECTION ( 'NONE',  ( 1.000000000000000000, 4.082155997157843818E-17, 0.000000000000000000 ) ) ;
#135 = SURFACE_SIDE_STYLE ('',( #156 ) ) ;
#136 = AXIS2_PLACEMENT_3D ( 'NONE', #30, #164, #122 ) ;
#137 = PLANE ( 'NONE',  #153 ) ;
#138 = UNCERTAINTY_MEASURE_WITH_UNIT (LENGTH_MEASURE( 1.000000000000000082E-05 ), #291, 'distance_accuracy_value', 'NONE');
#139 = ADVANCED_BREP_SHAPE_REPRESENTATION ( '48260', ( #55, #53, #21 ), #25 ) ;
#140 =( GEOMETRIC_REPRESENTATION_CONTEXT ( 3 ) GLOBAL_UNCERTAINTY_ASSIGNED_CONTEXT ( ( #225 ) ) GLOBAL_UNIT_ASSIGNED_CONTEXT ( ( #76, #211, #210 ) ) REPRESENTATION_CONTEXT ( 'NONE', 'WORKASPACE' ) );
#141 = DIRECTION ( 'NONE',  ( -0.000000000000000000, -1.000000000000000000, -0.000000000000000000 ) ) ;
#142 = APPLICATION_CONTEXT ( 'automotive_design' ) ;
#143 =( LENGTH_UNIT ( ) NAMED_UNIT ( * ) SI_UNIT ( $, .METRE. ) );
#144 = CARTESIAN_POINT ( 'NONE',  ( 0.000000000000000000, 1.000000000000000000, 0.000000000000000000 ) ) ;
#145 = ADVANCED_FACE ( 'NONE', ( #244 ), #129, .T. ) ;
#146 = ORIENTED_EDGE ( 'NONE', *, *, #17, .F. ) ;
#147 = FILL_AREA_STYLE_COLOUR ( '', #100 ) ;
#148 = DIRECTION ( 'NONE',  ( -0.000000000000000000, -1.000000000000000000, -0.000000000000000000 ) ) ;
#149 = AXIS2_PLACEMENT_3D ( 'NONE', #155, #111, #180 ) ;
#150 = VERTEX_POINT ( 'NONE', #87 ) ;
#151 =( NAMED_UNIT ( * ) SI_UNIT ( $, .STERADIAN. ) SOLID_ANGLE_UNIT ( ) );
#152 = ORIENTED_EDGE ( 'NONE', *, *, #198, .F. ) ;
#153 = AXIS2_PLACEMENT_3D ( 'NONE', #70, #203, #134 ) ;
#154 = PRESENTATION_STYLE_ASSIGNMENT (( #204 ) ) ;
#155 = CARTESIAN_POINT ( 'NONE',  ( 1.562249773606102102E-34, 1.000000000000000000, 0.000000000000000000 ) ) ;
#156 = SURFACE_STYLE_FILL_AREA ( #306 ) ;
#157 = PRESENTATION_LAYER_ASSIGNMENT (  '', '', ( #304 ) ) ;
#158 = DIRECTION ( 'NONE',  ( 0.000000000000000000, -1.000000000000000000, -0.000000000000000000 ) ) ;
#159 =( NAMED_UNIT ( * ) PLANE_ANGLE_UNIT ( ) SI_UNIT ( $, .RADIAN. ) );
#160 = DIRECTION ( 'NONE',  ( 0.000000000000000000, 0.000000000000000000, -1.000000000000000000 ) ) ;
#161 = ADVANCED_FACE ( 'NONE', ( #131 ), #251, .T. ) ;
#162 = LENGTH_MEASURE_WITH_UNIT ( LENGTH_MEASURE( 0.02539999999999999897 ), #27 );
#163 = SURFACE_STYLE_USAGE ( .BOTH. , #309 ) ;
#164 = DIRECTION ( 'NONE',  ( -0.000000000000000000, -1.000000000000000000, -0.000000000000000000 ) ) ;
#165 =( NAMED_UNIT ( * ) SI_UNIT ( $, .STERADIAN. ) SOLID_ANGLE_UNIT ( ) );
#166 = VERTEX_POINT ( 'NONE', #14 ) ;
#167 = PRESENTATION_STYLE_ASSIGNMENT (( #80 ) ) ;
#168 = ORIENTED_EDGE ( 'NONE', *, *, #68, .F. ) ;
#169 =( CONVERSION_BASED_UNIT ( 'INCH', #277 ) LENGTH_UNIT ( ) NAMED_UNIT ( #89 ) );
#170 = DIRECTION ( 'NONE',  ( -1.000000000000000000, 0.000000000000000000, 0.000000000000000000 ) ) ;
#171 = ORIENTED_EDGE ( 'NONE', *, *, #68, .T. ) ;
#172 = ADVANCED_FACE ( 'NONE', ( #109 ), #302, .T. ) ;
#173 = SURFACE_SIDE_STYLE ('',( #38 ) ) ;
#174 = DIRECTION ( 'NONE',  ( -1.000000000000000000, 0.000000000000000000, 0.000000000000000000 ) ) ;
#175 = ORIENTED_EDGE ( 'NONE', *, *, #26, .T. ) ;
#176 = DIRECTION ( 'NONE',  ( 1.000000000000000000, 0.000000000000000000, 0.000000000000000000 ) ) ;
#177 = CARTESIAN_POINT ( 'NONE',  ( -6.123233995736766036E-17, 2.500000000000000000, 0.000000000000000000 ) ) ;
#178 = CIRCLE ( 'NONE', #246, 0.1875000000000000278 ) ;
#179 = CARTESIAN_POINT ( 'NONE',  ( 0.000000000000000000, 0.000000000000000000, 0.000000000000000000 ) ) ;
#180 = DIRECTION ( 'NONE',  ( -1.000000000000000000, -4.082155997157843818E-17, 0.000000000000000000 ) ) ;
#181 =( LENGTH_UNIT ( ) NAMED_UNIT ( * ) SI_UNIT ( $, .METRE. ) );
#182 =( LENGTH_UNIT ( ) NAMED_UNIT ( * ) SI_UNIT ( $, .METRE. ) );
#183 = FILL_AREA_STYLE ('',( #238 ) ) ;
#184 = DIRECTION ( 'NONE',  ( -1.000000000000000000, 0.000000000000000000, 0.000000000000000000 ) ) ;
#185 =( GEOMETRIC_REPRESENTATION_CONTEXT ( 3 ) GLOBAL_UNCERTAINTY_ASSIGNED_CONTEXT ( ( #138 ) ) GLOBAL_UNIT_ASSIGNED_CONTEXT ( ( #291, #213, #165 ) ) REPRESENTATION_CONTEXT ( 'NONE', 'WORKASPACE' ) );
#186 = DIRECTION ( 'NONE',  ( -4.082155997157843818E-17, 1.000000000000000000, -0.000000000000000000 ) ) ;
#187 =( NAMED_UNIT ( * ) SI_UNIT ( $, .STERADIAN. ) SOLID_ANGLE_UNIT ( ) );
#188 = FILL_AREA_STYLE ('',( #264 ) ) ;
#189 = LENGTH_MEASURE_WITH_UNIT ( LENGTH_MEASURE( 0.02539999999999999897 ), #182 );
#190 = STYLED_ITEM ( 'NONE', ( #41 ), #145 ) ;
#191 = SURFACE_SIDE_STYLE ('',( #193 ) ) ;
#192 = AXIS2_PLACEMENT_3D ( 'NONE', #177, #227, #67 ) ;
#193 = SURFACE_STYLE_FILL_AREA ( #125 ) ;
#194 = EDGE_LOOP ( 'NONE', ( #224, #196, #81, #130 ) ) ;
#195 = UNCERTAINTY_MEASURE_WITH_UNIT (LENGTH_MEASURE( 1.000000000000000082E-05 ), #270, 'distance_accuracy_value', 'NONE');
#196 = ORIENTED_EDGE ( 'NONE', *, *, #198, .T. ) ;
#197 = COLOUR_RGB ( '',1.000000000000000000, 0.000000000000000000, 0.000000000000000000 ) ;
#198 = EDGE_CURVE ( 'NONE', #166, #271, #113, .T. ) ;
#199 =( NAMED_UNIT ( * ) SI_UNIT ( $, .STERADIAN. ) SOLID_ANGLE_UNIT ( ) );
#200 = DIMENSIONAL_EXPONENTS ( 1.000000000000000000, 0.000000000000000000, 0.000000000000000000, 0.000000000000000000, 0.000000000000000000, 0.000000000000000000, 0.000000000000000000 ) ;
#201 = LINE ( 'NONE', #232, #263 ) ;
#202 = PRESENTATION_STYLE_ASSIGNMENT (( #112 ) ) ;
#203 = DIRECTION ( 'NONE',  ( 4.082155997157843818E-17, -1.000000000000000000, 0.000000000000000000 ) ) ;
#204 = SURFACE_STYLE_USAGE ( .BOTH. , #135 ) ;
#205 = COLOUR_RGB ( '',0.7921568627450980005, 0.8196078431372548767, 0.9333333333333333481 ) ;
#206 = CARTESIAN_POINT ( 'NONE',  ( 0.000000000000000000, 0.000000000000000000, 0.000000000000000000 ) ) ;
#207 = UNCERTAINTY_MEASURE_WITH_UNIT (LENGTH_MEASURE( 1.000000000000000082E-05 ), #233, 'distance_accuracy_value', 'NONE');
#208 = FACE_OUTER_BOUND ( 'NONE', #245, .T. ) ;
#209 = MECHANICAL_DESIGN_GEOMETRIC_PRESENTATION_REPRESENTATION (  '', ( #108 ), #293 ) ;
#210 =( NAMED_UNIT ( * ) SI_UNIT ( $, .STERADIAN. ) SOLID_ANGLE_UNIT ( ) );
#211 =( NAMED_UNIT ( * ) PLANE_ANGLE_UNIT ( ) SI_UNIT ( $, .RADIAN. ) );
#212 = STYLED_ITEM ( 'NONE', ( #120 ), #95 ) ;
#213 =( NAMED_UNIT ( * ) PLANE_ANGLE_UNIT ( ) SI_UNIT ( $, .RADIAN. ) );
#214 = DIRECTION ( 'NONE',  ( -4.082155997157843818E-17, 1.000000000000000000, -0.000000000000000000 ) ) ;
#215 = EDGE_LOOP ( 'NONE', ( #152, #175, #9, #249 ) ) ;
#216 = APPLICATION_PROTOCOL_DEFINITION ( 'draft international standard', 'automotive_design', 1998, #142 ) ;
#217 = DIRECTION ( 'NONE',  ( -4.082155997157843818E-17, 1.000000000000000000, -0.000000000000000000 ) ) ;
#218 = VERTEX_POINT ( 'NONE', #51 ) ;
#219 = AXIS2_PLACEMENT_3D ( 'NONE', #239, #290, #29 ) ;
#220 =( LENGTH_UNIT ( ) NAMED_UNIT ( * ) SI_UNIT ( $, .METRE. ) );
#221 = EDGE_LOOP ( 'NONE', ( #241, #171, #128, #102 ) ) ;
#222 = APPLICATION_PROTOCOL_DEFINITION ( 'draft international standard', 'automotive_design', 1998, #94 ) ;
#223 = CYLINDRICAL_SURFACE ( 'NONE', #78, 0.1875000000000000833 ) ;
#224 = ORIENTED_EDGE ( 'NONE', *, *, #3, .T. ) ;
#225 = UNCERTAINTY_MEASURE_WITH_UNIT (LENGTH_MEASURE( 1.000000000000000082E-05 ), #76, 'distance_accuracy_value', 'NONE');
#226 = EDGE_CURVE ( 'NONE', #218, #127, #20, .T. ) ;
#227 = DIRECTION ( 'NONE',  ( -4.082155997157843818E-17, 1.000000000000000000, -0.000000000000000000 ) ) ;
#228 = VECTOR ( 'NONE', #229, 39.37007874015748143 ) ;
#229 = DIRECTION ( 'NONE',  ( -4.082155997157843818E-17, 1.000000000000000000, -0.000000000000000000 ) ) ;
#230 =( NAMED_UNIT ( * ) PLANE_ANGLE_UNIT ( ) SI_UNIT ( $, .RADIAN. ) );
#231 = PRODUCT_DEFINITION_FORMATION_WITH_SPECIFIED_SOURCE ( 'ANY', '', #243, .NOT_KNOWN. ) ;
#232 = CARTESIAN_POINT ( 'NONE',  ( 0.000000000000000000, 0.000000000000000000, -0.1875000000000000555 ) ) ;
#233 =( CONVERSION_BASED_UNIT ( 'INCH', #49 ) LENGTH_UNIT ( ) NAMED_UNIT ( #200 ) );
#234 = SURFACE_STYLE_FILL_AREA ( #19 ) ;
#235 = ADVANCED_FACE ( 'NONE', ( #74 ), #137, .F. ) ;
#236 = LINE ( 'NONE', #58, #240 ) ;
#237 = MECHANICAL_DESIGN_GEOMETRIC_PRESENTATION_REPRESENTATION (  '', ( #190 ), #115 ) ;
#238 = FILL_AREA_STYLE_COLOUR ( '', #197 ) ;
#239 = CARTESIAN_POINT ( 'NONE',  ( 0.000000000000000000, 0.000000000000000000, 0.000000000000000000 ) ) ;
#240 = VECTOR ( 'NONE', #286, 39.37007874015748143 ) ;
#241 = ORIENTED_EDGE ( 'NONE', *, *, #107, .F. ) ;
#242 = EDGE_CURVE ( 'NONE', #61, #268, #201, .T. ) ;
#243 = PRODUCT ( '48260', '48260', '', ( #267 ) ) ;
#244 = FACE_OUTER_BOUND ( 'NONE', #79, .T. ) ;
#245 = EDGE_LOOP ( 'NONE', ( #5, #66 ) ) ;
#246 = AXIS2_PLACEMENT_3D ( 'NONE', #206, #54, #97 ) ;
#247 = DIRECTION ( 'NONE',  ( 0.000000000000000000, 0.000000000000000000, -1.000000000000000000 ) ) ;
#248 = AXIS2_PLACEMENT_3D ( 'NONE', #179, #47, #22 ) ;
#249 = ORIENTED_EDGE ( 'NONE', *, *, #86, .F. ) ;
#250 = ORIENTED_EDGE ( 'NONE', *, *, #107, .T. ) ;
#251 = CYLINDRICAL_SURFACE ( 'NONE', #192, 0.1875000000000000833 ) ;
#252 = DIMENSIONAL_EXPONENTS ( 1.000000000000000000, 0.000000000000000000, 0.000000000000000000, 0.000000000000000000, 0.000000000000000000, 0.000000000000000000, 0.000000000000000000 ) ;
#253 = CIRCLE ( 'NONE', #63, 0.1875000000000000555 ) ;
#254 = CIRCLE ( 'NONE', #60, 0.1875000000000000555 ) ;
#255 = COLOUR_RGB ( '',1.000000000000000000, 0.000000000000000000, 0.000000000000000000 ) ;
#256 =( LENGTH_UNIT ( ) NAMED_UNIT ( * ) SI_UNIT ( $, .METRE. ) );
#257 = DIRECTION ( 'NONE',  ( 0.000000000000000000, 0.000000000000000000, -1.000000000000000000 ) ) ;
#258 =( NAMED_UNIT ( * ) SI_UNIT ( $, .STERADIAN. ) SOLID_ANGLE_UNIT ( ) );
#259 = PRESENTATION_LAYER_ASSIGNMENT (  '', '', ( #212 ) ) ;
#260 = ADVANCED_FACE ( 'NONE', ( #208 ), #93, .F. ) ;
#261 = CARTESIAN_POINT ( 'NONE',  ( -6.123233995736766036E-17, 2.500000000000000000, 0.000000000000000000 ) ) ;
#262 = AXIS2_PLACEMENT_3D ( 'NONE', #34, #126, #101 ) ;
#263 = VECTOR ( 'NONE', #303, 39.37007874015748143 ) ;
#264 = FILL_AREA_STYLE_COLOUR ( '', #7 ) ;
#265 = EDGE_CURVE ( 'NONE', #13, #268, #280, .T. ) ;
#266 = AXIS2_PLACEMENT_3D ( 'NONE', #35, #148, #247 ) ;
#267 = PRODUCT_CONTEXT ( 'NONE', #142, 'mechanical' ) ;
#268 = VERTEX_POINT ( 'NONE', #281 ) ;
#269 = ORIENTED_EDGE ( 'NONE', *, *, #242, .F. ) ;
#270 =( CONVERSION_BASED_UNIT ( 'INCH', #275 ) LENGTH_UNIT ( ) NAMED_UNIT ( #69 ) );
#271 = VERTEX_POINT ( 'NONE', #282 ) ;
#272 = DIRECTION ( 'NONE',  ( 0.000000000000000000, 0.000000000000000000, 1.000000000000000000 ) ) ;
#273 = CIRCLE ( 'NONE', #262, 0.1875000000000000555 ) ;
#274 =( NAMED_UNIT ( * ) PLANE_ANGLE_UNIT ( ) SI_UNIT ( $, .RADIAN. ) );
#275 = LENGTH_MEASURE_WITH_UNIT ( LENGTH_MEASURE( 0.02539999999999999897 ), #143 );
#276 = DIMENSIONAL_EXPONENTS ( 1.000000000000000000, 0.000000000000000000, 0.000000000000000000, 0.000000000000000000, 0.000000000000000000, 0.000000000000000000, 0.000000000000000000 ) ;
#277 = LENGTH_MEASURE_WITH_UNIT ( LENGTH_MEASURE( 0.02539999999999999897 ), #220 );
#278 = CARTESIAN_POINT ( 'NONE',  ( 0.000000000000000000, 0.000000000000000000, 0.000000000000000000 ) ) ;
#279 =( LENGTH_UNIT ( ) NAMED_UNIT ( * ) SI_UNIT ( $, .METRE. ) );
#280 = CIRCLE ( 'NONE', #248, 0.1875000000000000278 ) ;
#281 = CARTESIAN_POINT ( 'NONE',  ( 0.000000000000000000, 0.000000000000000000, -0.1875000000000000278 ) ) ;
#282 = CARTESIAN_POINT ( 'NONE',  ( 0.1875000000000000555, 2.500000000000000000, 2.296212748401288342E-17 ) ) ;
#283 =( NAMED_UNIT ( * ) PLANE_ANGLE_UNIT ( ) SI_UNIT ( $, .RADIAN. ) );
#284 = PRESENTATION_LAYER_ASSIGNMENT (  '', '', ( #108 ) ) ;
#285 = STYLED_ITEM ( 'NONE', ( #167 ), #172 ) ;
#286 = DIRECTION ( 'NONE',  ( -0.000000000000000000, -1.000000000000000000, -0.000000000000000000 ) ) ;
#287 = FACE_OUTER_BOUND ( 'NONE', #221, .T. ) ;
#288 = CIRCLE ( 'NONE', #136, 0.1875000000000000555 ) ;
#289 = SURFACE_SIDE_STYLE ('',( #56 ) ) ;
#290 = DIRECTION ( 'NONE',  ( -0.000000000000000000, -1.000000000000000000, -0.000000000000000000 ) ) ;
#291 =( CONVERSION_BASED_UNIT ( 'INCH', #189 ) LENGTH_UNIT ( ) NAMED_UNIT ( #276 ) );
#292 = ORIENTED_EDGE ( 'NONE', *, *, #17, .T. ) ;
#293 =( GEOMETRIC_REPRESENTATION_CONTEXT ( 3 ) GLOBAL_UNCERTAINTY_ASSIGNED_CONTEXT ( ( #195 ) ) GLOBAL_UNIT_ASSIGNED_CONTEXT ( ( #270, #82, #199 ) ) REPRESENTATION_CONTEXT ( 'NONE', 'WORKASPACE' ) );
#294 = AXIS2_PLACEMENT_3D ( 'NONE', #106, #298, #33 ) ;
#295 = DIRECTION ( 'NONE',  ( -1.000000000000000000, 0.000000000000000000, 0.000000000000000000 ) ) ;
#296 = EDGE_LOOP ( 'NONE', ( #39, #40 ) ) ;
#297 = CLOSED_SHELL ( 'NONE', ( #161, #260, #31, #235 ) ) ;
#298 = DIRECTION ( 'NONE',  ( 0.000000000000000000, 1.000000000000000000, 0.000000000000000000 ) ) ;
#299 = PRESENTATION_LAYER_ASSIGNMENT (  '', '', ( #285 ) ) ;
#300 = PRODUCT_DEFINITION_SHAPE ( 'NONE', 'NONE',  #42 ) ;
#301 = DIMENSIONAL_EXPONENTS ( 1.000000000000000000, 0.000000000000000000, 0.000000000000000000, 0.000000000000000000, 0.000000000000000000, 0.000000000000000000, 0.000000000000000000 ) ;
#302 = PLANE ( 'NONE',  #8 ) ;
#303 = DIRECTION ( 'NONE',  ( -0.000000000000000000, -1.000000000000000000, -0.000000000000000000 ) ) ;
#304 = STYLED_ITEM ( 'NONE', ( #154 ), #53 ) ;
#305 =( GEOMETRIC_REPRESENTATION_CONTEXT ( 3 ) GLOBAL_UNCERTAINTY_ASSIGNED_CONTEXT ( ( #23 ) ) GLOBAL_UNIT_ASSIGNED_CONTEXT ( ( #117, #230, #72 ) ) REPRESENTATION_CONTEXT ( 'NONE', 'WORKASPACE' ) );
#306 = FILL_AREA_STYLE ('',( #91 ) ) ;
#307 =( CONVERSION_BASED_UNIT ( 'INCH', #73 ) LENGTH_UNIT ( ) NAMED_UNIT ( #252 ) );
#308 = MECHANICAL_DESIGN_GEOMETRIC_PRESENTATION_REPRESENTATION (  '', ( #85 ), #185 ) ;
#309 = SURFACE_SIDE_STYLE ('',( #77 ) ) ;
ENDSEC;
END-ISO-10303-21;
