ISO-10303-21;
HEADER;
FILE_DESCRIPTION (( 'STEP AP214' ),
    '1' );
FILE_NAME ('Micro_GEM-140-2.STEP',
    '2021-09-01T19:40:18',
    ( '' ),
    ( '' ),
    'SwSTEP 2.0',
    'SolidWorks 2020',
    '' );
FILE_SCHEMA (( 'AUTOMOTIVE_DESIGN' ));
ENDSEC;

DATA;
#1 = DIRECTION ( 'NONE',  ( 0.0000000000000000000, 0.0000000000000000000, 1.000000000000000000 ) ) ;
#2 = FACE_OUTER_BOUND ( 'NONE', #259, .T. ) ;
#3 = PRODUCT_DEFINITION ( 'UNKNOWN', '', #127, #270 ) ;
#4 = CARTESIAN_POINT ( 'NONE',  ( 0.0000000000000000000, 0.0000000000000000000, 2.000000000000000000 ) ) ;
#5 = AXIS2_PLACEMENT_3D ( 'NONE', #230, #37, #169 ) ;
#6 = CARTESIAN_POINT ( 'NONE',  ( 0.0000000000000000000, 0.0000000000000000000, 2.000000000000000000 ) ) ;
#7 = DIRECTION ( 'NONE',  ( -1.224646799147353207E-16, -0.0000000000000000000, -1.000000000000000000 ) ) ;
#8 = AXIS2_PLACEMENT_3D ( 'NONE', #40, #296, #246 ) ;
#9 =( NAMED_UNIT ( * ) SI_UNIT ( $, .STERADIAN. ) SOLID_ANGLE_UNIT ( ) );
#10 = ADVANCED_FACE ( 'NONE', ( #42 ), #33, .T. ) ;
#11 = FACE_OUTER_BOUND ( 'NONE', #192, .T. ) ;
#12 = DIRECTION ( 'NONE',  ( -1.000000000000000000, 0.0000000000000000000, 0.0000000000000000000 ) ) ;
#13 = VERTEX_POINT ( 'NONE', #197 ) ;
#14 = CARTESIAN_POINT ( 'NONE',  ( -0.09375000000000001388, 0.0000000000000000000, 1.984999999999999654 ) ) ;
#15 = ORIENTED_EDGE ( 'NONE', *, *, #239, .F. ) ;
#16 = ORIENTED_EDGE ( 'NONE', *, *, #252, .T. ) ;
#17 = STYLED_ITEM ( 'NONE', ( #110 ), #121 ) ;
#18 = DIRECTION ( 'NONE',  ( 0.0000000000000000000, 0.0000000000000000000, 1.000000000000000000 ) ) ;
#19 = LENGTH_MEASURE_WITH_UNIT ( LENGTH_MEASURE( 0.02539999999999999897 ), #21 );
#20 = DIRECTION ( 'NONE',  ( -1.224646799147353207E-16, -0.0000000000000000000, -1.000000000000000000 ) ) ;
#21 =( LENGTH_UNIT ( ) NAMED_UNIT ( * ) SI_UNIT ( $, .METRE. ) );
#22 = DIRECTION ( 'NONE',  ( 1.000000000000000000, 0.0000000000000000000, 0.0000000000000000000 ) ) ;
#23 = EDGE_CURVE ( 'NONE', #299, #238, #84, .T. ) ;
#24 = AXIS2_PLACEMENT_3D ( 'NONE', #25, #201, #181 ) ;
#25 = CARTESIAN_POINT ( 'NONE',  ( 7.756793420066120836E-17, 0.0000000000000000000, 0.6333902497819535737 ) ) ;
#26 = DIRECTION ( 'NONE',  ( 1.000000000000000000, 0.0000000000000000000, -0.0000000000000000000 ) ) ;
#27 = FACE_OUTER_BOUND ( 'NONE', #193, .T. ) ;
#28 = CARTESIAN_POINT ( 'NONE',  ( 0.07874999999999980627, 1.056257864264590573E-17, 2.000000000000000000 ) ) ;
#29 = CIRCLE ( 'NONE', #177, 0.09375000000000001388 ) ;
#30 = EDGE_CURVE ( 'NONE', #65, #85, #199, .T. ) ;
#31 = CYLINDRICAL_SURFACE ( 'NONE', #158, 0.09375000000000001388 ) ;
#32 = LENGTH_MEASURE_WITH_UNIT ( LENGTH_MEASURE( 0.02539999999999999897 ), #95 );
#33 = CONICAL_SURFACE ( 'NONE', #244, 0.07022970000000000601, 0.1745329251994338915 ) ;
#34 = DIRECTION ( 'NONE',  ( -1.000000000000000000, 0.0000000000000000000, 1.224646799147353207E-16 ) ) ;
#35 = CLOSED_SHELL ( 'NONE', ( #288, #10, #210, #159, #103, #96, #250, #157, #224, #204 ) ) ;
#36 = UNCERTAINTY_MEASURE_WITH_UNIT (LENGTH_MEASURE( 1.000000000000000082E-05 ), #223, 'distance_accuracy_value', 'NONE');
#37 = DIRECTION ( 'NONE',  ( -1.224646799147353207E-16, -0.0000000000000000000, -1.000000000000000000 ) ) ;
#38 = LINE ( 'NONE', #185, #290 ) ;
#39 = EDGE_LOOP ( 'NONE', ( #152, #15, #128, #86 ) ) ;
#40 = CARTESIAN_POINT ( 'NONE',  ( 0.0000000000000000000, 0.0000000000000000000, 1.984999999999999654 ) ) ;
#41 = DIRECTION ( 'NONE',  ( 1.000000000000000000, 0.0000000000000000000, 0.0000000000000000000 ) ) ;
#42 = FACE_OUTER_BOUND ( 'NONE', #289, .T. ) ;
#43 = CONICAL_SURFACE ( 'NONE', #93, 0.07874999999999980627, 0.7853981633974466137 ) ;
#44 = FILL_AREA_STYLE ('',( #102 ) ) ;
#45 = ORIENTED_EDGE ( 'NONE', *, *, #120, .T. ) ;
#46 = CARTESIAN_POINT ( 'NONE',  ( 0.09375000000000001388, 1.148106374200643863E-17, 1.984999999999999654 ) ) ;
#47 = PRODUCT_RELATED_PRODUCT_CATEGORY ( 'part', '', ( #297 ) ) ;
#48 = DIRECTION ( 'NONE',  ( 1.000000000000000000, 0.0000000000000000000, -0.0000000000000000000 ) ) ;
#49 = DIRECTION ( 'NONE',  ( -0.0000000000000000000, -0.0000000000000000000, -1.000000000000000000 ) ) ;
#50 = CARTESIAN_POINT ( 'NONE',  ( 0.0000000000000000000, 0.0000000000000000000, 0.0000000000000000000 ) ) ;
#51 = DIRECTION ( 'NONE',  ( 1.224646799147353207E-16, 0.0000000000000000000, 1.000000000000000000 ) ) ;
#52 = AXIS2_PLACEMENT_3D ( 'NONE', #258, #233, #34 ) ;
#53 = AXIS2_PLACEMENT_3D ( 'NONE', #82, #171, #41 ) ;
#54 =( CONVERSION_BASED_UNIT ( 'INCH', #32 ) LENGTH_UNIT ( ) NAMED_UNIT ( #118 ) );
#55 = EDGE_CURVE ( 'NONE', #219, #61, #274, .T. ) ;
#56 = DIRECTION ( 'NONE',  ( -0.7071067811865463515, 0.0000000000000000000, -0.7071067811865486830 ) ) ;
#57 = LINE ( 'NONE', #191, #107 ) ;
#58 = CIRCLE ( 'NONE', #221, 0.07022970000000000601 ) ;
#59 = DIRECTION ( 'NONE',  ( 0.0000000000000000000, 0.0000000000000000000, -1.000000000000000000 ) ) ;
#60 = AXIS2_PLACEMENT_3D ( 'NONE', #4, #1, #26 ) ;
#61 = VERTEX_POINT ( 'NONE', #46 ) ;
#62 = APPLICATION_PROTOCOL_DEFINITION ( 'draft international standard', 'automotive_design', 1998, #188 ) ;
#63 = EDGE_LOOP ( 'NONE', ( #133, #276 ) ) ;
#64 = CARTESIAN_POINT ( 'NONE',  ( -0.07874999999999980627, 0.0000000000000000000, 2.000000000000000000 ) ) ;
#65 = VERTEX_POINT ( 'NONE', #64 ) ;
#66 = ORIENTED_EDGE ( 'NONE', *, *, #229, .F. ) ;
#67 = EDGE_CURVE ( 'NONE', #13, #234, #29, .T. ) ;
#68 = FACE_OUTER_BOUND ( 'NONE', #63, .T. ) ;
#69 = CIRCLE ( 'NONE', #136, 0.07874999999999980627 ) ;
#70 = CARTESIAN_POINT ( 'NONE',  ( 0.0000000000000000000, 0.0000000000000000000, 2.000000000000000000 ) ) ;
#71 = CIRCLE ( 'NONE', #162, 0.07022970000000000601 ) ;
#72 = CYLINDRICAL_SURFACE ( 'NONE', #147, 0.07022970000000000601 ) ;
#73 = LINE ( 'NONE', #125, #132 ) ;
#74 = ORIENTED_EDGE ( 'NONE', *, *, #273, .F. ) ;
#75 = EDGE_CURVE ( 'NONE', #299, #13, #291, .T. ) ;
#76 = LINE ( 'NONE', #236, #122 ) ;
#77 =( GEOMETRIC_REPRESENTATION_CONTEXT ( 3 ) GLOBAL_UNCERTAINTY_ASSIGNED_CONTEXT ( ( #36 ) ) GLOBAL_UNIT_ASSIGNED_CONTEXT ( ( #223, #135, #183 ) ) REPRESENTATION_CONTEXT ( 'NONE', 'WORKASPACE' ) );
#78 = DIRECTION ( 'NONE',  ( -1.000000000000000000, 0.0000000000000000000, 1.224646799147353207E-16 ) ) ;
#79 = SURFACE_STYLE_USAGE ( .BOTH. , #265 ) ;
#80 = CARTESIAN_POINT ( 'NONE',  ( 6.123233995736766036E-17, 0.0000000000000000000, 0.5000000000000000000 ) ) ;
#81 = COLOUR_RGB ( '',0.7921568627450980005, 0.8196078431372548767, 0.9333333333333333481 ) ;
#82 = CARTESIAN_POINT ( 'NONE',  ( 0.0000000000000000000, 0.0000000000000000000, 0.0000000000000000000 ) ) ;
#83 = CARTESIAN_POINT ( 'NONE',  ( 0.07022970000000007540, 0.0000000000000000000, 0.5000000000000000000 ) ) ;
#84 = LINE ( 'NONE', #172, #106 ) ;
#85 = VERTEX_POINT ( 'NONE', #28 ) ;
#86 = ORIENTED_EDGE ( 'NONE', *, *, #67, .T. ) ;
#87 = CARTESIAN_POINT ( 'NONE',  ( 0.0000000000000000000, 0.0000000000000000000, 2.000000000000000000 ) ) ;
#88 = AXIS2_PLACEMENT_3D ( 'NONE', #149, #18, #240 ) ;
#89 = CYLINDRICAL_SURFACE ( 'NONE', #237, 0.09375000000000001388 ) ;
#90 = COLOUR_RGB ( '',0.7921568627450980005, 0.8196078431372548767, 0.9333333333333333481 ) ;
#91 = SURFACE_SIDE_STYLE ('',( #278 ) ) ;
#92 = DIRECTION ( 'NONE',  ( 1.000000000000000000, 0.0000000000000000000, 0.0000000000000000000 ) ) ;
#93 = AXIS2_PLACEMENT_3D ( 'NONE', #257, #59, #145 ) ;
#94 = CARTESIAN_POINT ( 'NONE',  ( 6.123233995736766036E-17, 0.0000000000000000000, 0.5000000000000000000 ) ) ;
#95 =( LENGTH_UNIT ( ) NAMED_UNIT ( * ) SI_UNIT ( $, .METRE. ) );
#96 = ADVANCED_FACE ( 'NONE', ( #27 ), #203, .T. ) ;
#97 = UNCERTAINTY_MEASURE_WITH_UNIT (LENGTH_MEASURE( 1.000000000000000082E-05 ), #54, 'distance_accuracy_value', 'NONE');
#98 = DIRECTION ( 'NONE',  ( -1.224646799147353207E-16, -0.0000000000000000000, -1.000000000000000000 ) ) ;
#99 = STYLED_ITEM ( 'NONE', ( #182 ), #116 ) ;
#100 = PRESENTATION_LAYER_ASSIGNMENT (  '', '', ( #17 ) ) ;
#101 = FACE_OUTER_BOUND ( 'NONE', #218, .T. ) ;
#102 = FILL_AREA_STYLE_COLOUR ( '', #90 ) ;
#103 = ADVANCED_FACE ( 'NONE', ( #225 ), #89, .T. ) ;
#104 = ORIENTED_EDGE ( 'NONE', *, *, #252, .F. ) ;
#105 = ORIENTED_EDGE ( 'NONE', *, *, #167, .T. ) ;
#106 = VECTOR ( 'NONE', #20, 39.37007874015748143 ) ;
#107 = VECTOR ( 'NONE', #141, 39.37007874015747433 ) ;
#108 = ORIENTED_EDGE ( 'NONE', *, *, #214, .T. ) ;
#109 = EDGE_LOOP ( 'NONE', ( #74, #45, #293, #175 ) ) ;
#110 = PRESENTATION_STYLE_ASSIGNMENT (( #79 ) ) ;
#111 = VERTEX_POINT ( 'NONE', #280 ) ;
#112 = MECHANICAL_DESIGN_GEOMETRIC_PRESENTATION_REPRESENTATION (  '', ( #99 ), #77 ) ;
#113 = PLANE ( 'NONE',  #117 ) ;
#114 = CARTESIAN_POINT ( 'NONE',  ( 1.053276796084074714E-33, 0.0000000000000000000, 8.600657731007888113E-18 ) ) ;
#115 = CARTESIAN_POINT ( 'NONE',  ( -0.07022970000000000601, 0.0000000000000000000, 1.720131546201577623E-17 ) ) ;
#116 = MANIFOLD_SOLID_BREP ( 'Cut-Revolve1', #35 ) ;
#117 = AXIS2_PLACEMENT_3D ( 'NONE', #50, #139, #48 ) ;
#118 = DIMENSIONAL_EXPONENTS ( 1.000000000000000000, 0.0000000000000000000, 0.0000000000000000000, 0.0000000000000000000, 0.0000000000000000000, 0.0000000000000000000, 0.0000000000000000000 ) ;
#119 = DIRECTION ( 'NONE',  ( -1.000000000000000000, 0.0000000000000000000, 0.0000000000000000000 ) ) ;
#120 = EDGE_CURVE ( 'NONE', #61, #219, #154, .T. ) ;
#121 = ADVANCED_BREP_SHAPE_REPRESENTATION ( 'Micro_GEM-140-2', ( #116, #53 ), #126 ) ;
#122 = VECTOR ( 'NONE', #283, 39.37007874015748143 ) ;
#123 = CARTESIAN_POINT ( 'NONE',  ( 0.07022970000000007540, 0.0000000000000000000, 0.5000000000000000000 ) ) ;
#124 = LINE ( 'NONE', #190, #232 ) ;
#125 = CARTESIAN_POINT ( 'NONE',  ( -0.07022970000000000601, 0.0000000000000000000, 8.600657731007888113E-18 ) ) ;
#126 =( GEOMETRIC_REPRESENTATION_CONTEXT ( 3 ) GLOBAL_UNCERTAINTY_ASSIGNED_CONTEXT ( ( #97 ) ) GLOBAL_UNIT_ASSIGNED_CONTEXT ( ( #54, #228, #9 ) ) REPRESENTATION_CONTEXT ( 'NONE', 'WORKASPACE' ) );
#127 = PRODUCT_DEFINITION_FORMATION_WITH_SPECIFIED_SOURCE ( 'ANY', '', #297, .NOT_KNOWN. ) ;
#128 = ORIENTED_EDGE ( 'NONE', *, *, #75, .T. ) ;
#129 = VERTEX_POINT ( 'NONE', #115 ) ;
#130 = APPLICATION_PROTOCOL_DEFINITION ( 'draft international standard', 'automotive_design', 1998, #241 ) ;
#131 = DIRECTION ( 'NONE',  ( 1.224646799147353207E-16, 0.0000000000000000000, 1.000000000000000000 ) ) ;
#132 = VECTOR ( 'NONE', #98, 39.37007874015748143 ) ;
#133 = ORIENTED_EDGE ( 'NONE', *, *, #294, .T. ) ;
#134 = DIRECTION ( 'NONE',  ( -1.224646799147353207E-16, -0.0000000000000000000, -1.000000000000000000 ) ) ;
#135 =( NAMED_UNIT ( * ) PLANE_ANGLE_UNIT ( ) SI_UNIT ( $, .RADIAN. ) );
#136 = AXIS2_PLACEMENT_3D ( 'NONE', #165, #207, #144 ) ;
#137 = SURFACE_STYLE_USAGE ( .BOTH. , #91 ) ;
#138 = PRODUCT_DEFINITION_SHAPE ( 'NONE', 'NONE',  #3 ) ;
#139 = DIRECTION ( 'NONE',  ( 0.0000000000000000000, 0.0000000000000000000, 1.000000000000000000 ) ) ;
#140 =( LENGTH_UNIT ( ) NAMED_UNIT ( * ) SI_UNIT ( $, .METRE. ) );
#141 = DIRECTION ( 'NONE',  ( -0.1736481776669311916, 2.126576849575783316E-17, 0.9848077530122080203 ) ) ;
#142 = DIRECTION ( 'NONE',  ( 0.7071067811865463515, 8.659560562354916834E-17, -0.7071067811865486830 ) ) ;
#143 = ORIENTED_EDGE ( 'NONE', *, *, #30, .T. ) ;
#144 = DIRECTION ( 'NONE',  ( 1.000000000000000000, 0.0000000000000000000, 0.0000000000000000000 ) ) ;
#145 = DIRECTION ( 'NONE',  ( -1.000000000000000000, 0.0000000000000000000, 0.0000000000000000000 ) ) ;
#146 = DIRECTION ( 'NONE',  ( 0.0000000000000000000, 0.0000000000000000000, -1.000000000000000000 ) ) ;
#147 = AXIS2_PLACEMENT_3D ( 'NONE', #286, #212, #78 ) ;
#148 = EDGE_CURVE ( 'NONE', #111, #299, #71, .T. ) ;
#149 = CARTESIAN_POINT ( 'NONE',  ( 0.0000000000000000000, 0.0000000000000000000, 2.000000000000000000 ) ) ;
#150 =( CONVERSION_BASED_UNIT ( 'INCH', #19 ) LENGTH_UNIT ( ) NAMED_UNIT ( #187 ) );
#151 = ORIENTED_EDGE ( 'NONE', *, *, #260, .T. ) ;
#152 = ORIENTED_EDGE ( 'NONE', *, *, #214, .F. ) ;
#153 = CONICAL_SURFACE ( 'NONE', #279, 0.07022970000000000601, 0.1745329251994338915 ) ;
#154 = CIRCLE ( 'NONE', #298, 0.09375000000000001388 ) ;
#155 = ORIENTED_EDGE ( 'NONE', *, *, #23, .F. ) ;
#156 = DIRECTION ( 'NONE',  ( -1.000000000000000000, 0.0000000000000000000, 0.0000000000000000000 ) ) ;
#157 = ADVANCED_FACE ( 'NONE', ( #254 ), #153, .T. ) ;
#158 = AXIS2_PLACEMENT_3D ( 'NONE', #70, #49, #119 ) ;
#159 = ADVANCED_FACE ( 'NONE', ( #227 ), #31, .T. ) ;
#160 = DIRECTION ( 'NONE',  ( -1.000000000000000000, 0.0000000000000000000, 1.224646799147353207E-16 ) ) ;
#161 = DIRECTION ( 'NONE',  ( -1.000000000000000000, 0.0000000000000000000, 0.0000000000000000000 ) ) ;
#162 = AXIS2_PLACEMENT_3D ( 'NONE', #277, #247, #161 ) ;
#163 = CARTESIAN_POINT ( 'NONE',  ( 0.07022970000000000601, 8.600657731007888113E-18, 0.0000000000000000000 ) ) ;
#164 = CARTESIAN_POINT ( 'NONE',  ( 0.07874999999999980627, 9.644093543285380530E-18, 2.000000000000000000 ) ) ;
#165 = CARTESIAN_POINT ( 'NONE',  ( 0.0000000000000000000, 0.0000000000000000000, 2.000000000000000000 ) ) ;
#166 = ORIENTED_EDGE ( 'NONE', *, *, #206, .F. ) ;
#167 = EDGE_CURVE ( 'NONE', #234, #13, #249, .T. ) ;
#168 = DIRECTION ( 'NONE',  ( -1.224646799147353207E-16, -0.0000000000000000000, -1.000000000000000000 ) ) ;
#169 = DIRECTION ( 'NONE',  ( -1.000000000000000000, 0.0000000000000000000, 1.224646799147353207E-16 ) ) ;
#170 = ORIENTED_EDGE ( 'NONE', *, *, #148, .T. ) ;
#171 = DIRECTION ( 'NONE',  ( 0.0000000000000000000, 0.0000000000000000000, 1.000000000000000000 ) ) ;
#172 = CARTESIAN_POINT ( 'NONE',  ( 0.07022970000000000601, 8.600657731007888113E-18, -8.600657731007888113E-18 ) ) ;
#173 = SURFACE_STYLE_FILL_AREA ( #44 ) ;
#174 = ORIENTED_EDGE ( 'NONE', *, *, #268, .T. ) ;
#175 = ORIENTED_EDGE ( 'NONE', *, *, #67, .F. ) ;
#176 = ORIENTED_EDGE ( 'NONE', *, *, #75, .F. ) ;
#177 = AXIS2_PLACEMENT_3D ( 'NONE', #194, #134, #22 ) ;
#178 = ORIENTED_EDGE ( 'NONE', *, *, #167, .F. ) ;
#179 = CARTESIAN_POINT ( 'NONE',  ( 0.0000000000000000000, 0.0000000000000000000, 1.984999999999999654 ) ) ;
#180 = FILL_AREA_STYLE_COLOUR ( '', #81 ) ;
#181 = DIRECTION ( 'NONE',  ( 1.000000000000000000, 0.0000000000000000000, 0.0000000000000000000 ) ) ;
#182 = PRESENTATION_STYLE_ASSIGNMENT (( #137 ) ) ;
#183 =( NAMED_UNIT ( * ) SI_UNIT ( $, .STERADIAN. ) SOLID_ANGLE_UNIT ( ) );
#184 = AXIS2_PLACEMENT_3D ( 'NONE', #87, #146, #12 ) ;
#185 = CARTESIAN_POINT ( 'NONE',  ( -0.07874999999999980627, 0.0000000000000000000, 2.000000000000000000 ) ) ;
#186 = FACE_OUTER_BOUND ( 'NONE', #196, .T. ) ;
#187 = DIMENSIONAL_EXPONENTS ( 1.000000000000000000, 0.0000000000000000000, 0.0000000000000000000, 0.0000000000000000000, 0.0000000000000000000, 0.0000000000000000000, 0.0000000000000000000 ) ;
#188 = APPLICATION_CONTEXT ( 'automotive_design' ) ;
#189 = CIRCLE ( 'NONE', #195, 0.07022970000000000601 ) ;
#190 = CARTESIAN_POINT ( 'NONE',  ( 0.09375000000000001388, 1.148106374200643863E-17, 2.000000000000000000 ) ) ;
#191 = CARTESIAN_POINT ( 'NONE',  ( -0.07022969999999995050, 8.600657731007888113E-18, 0.5000000000000000000 ) ) ;
#192 = EDGE_LOOP ( 'NONE', ( #104, #284, #174, #287 ) ) ;
#193 = EDGE_LOOP ( 'NONE', ( #143, #213 ) ) ;
#194 = CARTESIAN_POINT ( 'NONE',  ( 7.756793420066120836E-17, 0.0000000000000000000, 0.6333902497819535737 ) ) ;
#195 = AXIS2_PLACEMENT_3D ( 'NONE', #114, #7, #160 ) ;
#196 = EDGE_LOOP ( 'NONE', ( #155, #242, #151, #166 ) ) ;
#197 = CARTESIAN_POINT ( 'NONE',  ( 0.09375000000000009714, 1.148106374200644787E-17, 0.6333902497819535737 ) ) ;
#198 = ORIENTED_EDGE ( 'NONE', *, *, #55, .F. ) ;
#199 = CIRCLE ( 'NONE', #88, 0.07874999999999980627 ) ;
#200 = DIRECTION ( 'NONE',  ( -0.0000000000000000000, -0.0000000000000000000, -1.000000000000000000 ) ) ;
#201 = DIRECTION ( 'NONE',  ( -1.224646799147353207E-16, -0.0000000000000000000, -1.000000000000000000 ) ) ;
#202 = FILL_AREA_STYLE ('',( #180 ) ) ;
#203 = PLANE ( 'NONE',  #60 ) ;
#204 = ADVANCED_FACE ( 'NONE', ( #68 ), #113, .F. ) ;
#205 = PRESENTATION_LAYER_ASSIGNMENT (  '', '', ( #99 ) ) ;
#206 = EDGE_CURVE ( 'NONE', #238, #129, #189, .T. ) ;
#207 = DIRECTION ( 'NONE',  ( 0.0000000000000000000, 0.0000000000000000000, 1.000000000000000000 ) ) ;
#208 = ORIENTED_EDGE ( 'NONE', *, *, #260, .F. ) ;
#209 = ORIENTED_EDGE ( 'NONE', *, *, #55, .T. ) ;
#210 = ADVANCED_FACE ( 'NONE', ( #2 ), #226, .T. ) ;
#211 = VECTOR ( 'NONE', #281, 39.37007874015748143 ) ;
#212 = DIRECTION ( 'NONE',  ( -1.224646799147353207E-16, -0.0000000000000000000, -1.000000000000000000 ) ) ;
#213 = ORIENTED_EDGE ( 'NONE', *, *, #263, .T. ) ;
#214 = EDGE_CURVE ( 'NONE', #111, #234, #57, .T. ) ;
#215 = ORIENTED_EDGE ( 'NONE', *, *, #294, .F. ) ;
#216 = DIRECTION ( 'NONE',  ( 1.000000000000000000, 0.0000000000000000000, 0.0000000000000000000 ) ) ;
#217 = CIRCLE ( 'NONE', #5, 0.07022970000000000601 ) ;
#218 = EDGE_LOOP ( 'NONE', ( #170, #267, #215, #208 ) ) ;
#219 = VERTEX_POINT ( 'NONE', #14 ) ;
#220 = CARTESIAN_POINT ( 'NONE',  ( 6.123233995736766036E-17, 0.0000000000000000000, 0.5000000000000000000 ) ) ;
#221 = AXIS2_PLACEMENT_3D ( 'NONE', #94, #168, #261 ) ;
#222 =( GEOMETRIC_REPRESENTATION_CONTEXT ( 3 ) GLOBAL_UNCERTAINTY_ASSIGNED_CONTEXT ( ( #285 ) ) GLOBAL_UNIT_ASSIGNED_CONTEXT ( ( #150, #245, #292 ) ) REPRESENTATION_CONTEXT ( 'NONE', 'WORKASPACE' ) );
#223 =( CONVERSION_BASED_UNIT ( 'INCH', #248 ) LENGTH_UNIT ( ) NAMED_UNIT ( #255 ) );
#224 = ADVANCED_FACE ( 'NONE', ( #186 ), #72, .T. ) ;
#225 = FACE_OUTER_BOUND ( 'NONE', #109, .T. ) ;
#226 = CONICAL_SURFACE ( 'NONE', #184, 0.07874999999999980627, 0.7853981633974466137 ) ;
#227 = FACE_OUTER_BOUND ( 'NONE', #275, .T. ) ;
#228 =( NAMED_UNIT ( * ) PLANE_ANGLE_UNIT ( ) SI_UNIT ( $, .RADIAN. ) );
#229 = EDGE_CURVE ( 'NONE', #219, #234, #76, .T. ) ;
#230 = CARTESIAN_POINT ( 'NONE',  ( 1.053276796084074714E-33, 0.0000000000000000000, 8.600657731007888113E-18 ) ) ;
#231 = ORIENTED_EDGE ( 'NONE', *, *, #148, .F. ) ;
#232 = VECTOR ( 'NONE', #262, 39.37007874015748143 ) ;
#233 = DIRECTION ( 'NONE',  ( -1.224646799147353207E-16, -0.0000000000000000000, -1.000000000000000000 ) ) ;
#234 = VERTEX_POINT ( 'NONE', #282 ) ;
#235 = LINE ( 'NONE', #164, #264 ) ;
#236 = CARTESIAN_POINT ( 'NONE',  ( -0.09375000000000001388, 0.0000000000000000000, 2.000000000000000000 ) ) ;
#237 = AXIS2_PLACEMENT_3D ( 'NONE', #6, #200, #156 ) ;
#238 = VERTEX_POINT ( 'NONE', #163 ) ;
#239 = EDGE_CURVE ( 'NONE', #299, #111, #58, .T. ) ;
#240 = DIRECTION ( 'NONE',  ( 1.000000000000000000, 0.0000000000000000000, 0.0000000000000000000 ) ) ;
#241 = APPLICATION_CONTEXT ( 'automotive_design' ) ;
#242 = ORIENTED_EDGE ( 'NONE', *, *, #239, .T. ) ;
#243 = ORIENTED_EDGE ( 'NONE', *, *, #263, .F. ) ;
#244 = AXIS2_PLACEMENT_3D ( 'NONE', #80, #131, #216 ) ;
#245 =( NAMED_UNIT ( * ) PLANE_ANGLE_UNIT ( ) SI_UNIT ( $, .RADIAN. ) );
#246 = DIRECTION ( 'NONE',  ( 1.000000000000000000, 0.0000000000000000000, 0.0000000000000000000 ) ) ;
#247 = DIRECTION ( 'NONE',  ( -1.224646799147353207E-16, -0.0000000000000000000, -1.000000000000000000 ) ) ;
#248 = LENGTH_MEASURE_WITH_UNIT ( LENGTH_MEASURE( 0.02539999999999999897 ), #140 );
#249 = CIRCLE ( 'NONE', #24, 0.09375000000000001388 ) ;
#250 = ADVANCED_FACE ( 'NONE', ( #11 ), #43, .T. ) ;
#251 = DIRECTION ( 'NONE',  ( 1.000000000000000000, 0.0000000000000000000, 0.0000000000000000000 ) ) ;
#252 = EDGE_CURVE ( 'NONE', #85, #61, #235, .T. ) ;
#253 = DIRECTION ( 'NONE',  ( 0.0000000000000000000, 0.0000000000000000000, -1.000000000000000000 ) ) ;
#254 = FACE_OUTER_BOUND ( 'NONE', #39, .T. ) ;
#255 = DIMENSIONAL_EXPONENTS ( 1.000000000000000000, 0.0000000000000000000, 0.0000000000000000000, 0.0000000000000000000, 0.0000000000000000000, 0.0000000000000000000, 0.0000000000000000000 ) ;
#256 = CYLINDRICAL_SURFACE ( 'NONE', #52, 0.07022970000000000601 ) ;
#257 = CARTESIAN_POINT ( 'NONE',  ( 0.0000000000000000000, 0.0000000000000000000, 2.000000000000000000 ) ) ;
#258 = CARTESIAN_POINT ( 'NONE',  ( 0.0000000000000000000, 0.0000000000000000000, 0.0000000000000000000 ) ) ;
#259 = EDGE_LOOP ( 'NONE', ( #243, #16, #198, #269 ) ) ;
#260 = EDGE_CURVE ( 'NONE', #111, #129, #73, .T. ) ;
#261 = DIRECTION ( 'NONE',  ( -1.000000000000000000, 0.0000000000000000000, 0.0000000000000000000 ) ) ;
#262 = DIRECTION ( 'NONE',  ( -0.0000000000000000000, -0.0000000000000000000, -1.000000000000000000 ) ) ;
#263 = EDGE_CURVE ( 'NONE', #85, #65, #69, .T. ) ;
#264 = VECTOR ( 'NONE', #142, 39.37007874015748143 ) ;
#265 = SURFACE_SIDE_STYLE ('',( #173 ) ) ;
#266 = MECHANICAL_DESIGN_GEOMETRIC_PRESENTATION_REPRESENTATION (  '', ( #17 ), #222 ) ;
#267 = ORIENTED_EDGE ( 'NONE', *, *, #23, .T. ) ;
#268 = EDGE_CURVE ( 'NONE', #65, #219, #38, .T. ) ;
#269 = ORIENTED_EDGE ( 'NONE', *, *, #268, .F. ) ;
#270 = PRODUCT_DEFINITION_CONTEXT ( 'detailed design', #241, 'design' ) ;
#271 = SHAPE_DEFINITION_REPRESENTATION ( #138, #121 ) ;
#272 = ORIENTED_EDGE ( 'NONE', *, *, #273, .T. ) ;
#273 = EDGE_CURVE ( 'NONE', #61, #13, #124, .T. ) ;
#274 = CIRCLE ( 'NONE', #8, 0.09375000000000001388 ) ;
#275 = EDGE_LOOP ( 'NONE', ( #209, #272, #178, #66 ) ) ;
#276 = ORIENTED_EDGE ( 'NONE', *, *, #206, .T. ) ;
#277 = CARTESIAN_POINT ( 'NONE',  ( 6.123233995736766036E-17, 0.0000000000000000000, 0.5000000000000000000 ) ) ;
#278 = SURFACE_STYLE_FILL_AREA ( #202 ) ;
#279 = AXIS2_PLACEMENT_3D ( 'NONE', #220, #51, #251 ) ;
#280 = CARTESIAN_POINT ( 'NONE',  ( -0.07022969999999995050, 1.004086073650716183E-17, 0.5000000000000000000 ) ) ;
#281 = DIRECTION ( 'NONE',  ( 0.1736481776669313859, 0.0000000000000000000, 0.9848077530122077983 ) ) ;
#282 = CARTESIAN_POINT ( 'NONE',  ( -0.09374999999999991673, 0.0000000000000000000, 0.6333902497819535737 ) ) ;
#283 = DIRECTION ( 'NONE',  ( -0.0000000000000000000, -0.0000000000000000000, -1.000000000000000000 ) ) ;
#284 = ORIENTED_EDGE ( 'NONE', *, *, #30, .F. ) ;
#285 = UNCERTAINTY_MEASURE_WITH_UNIT (LENGTH_MEASURE( 1.000000000000000082E-05 ), #150, 'distance_accuracy_value', 'NONE');
#286 = CARTESIAN_POINT ( 'NONE',  ( 0.0000000000000000000, 0.0000000000000000000, 0.0000000000000000000 ) ) ;
#287 = ORIENTED_EDGE ( 'NONE', *, *, #120, .F. ) ;
#288 = ADVANCED_FACE ( 'NONE', ( #101 ), #256, .T. ) ;
#289 = EDGE_LOOP ( 'NONE', ( #231, #108, #105, #176 ) ) ;
#290 = VECTOR ( 'NONE', #56, 39.37007874015748143 ) ;
#291 = LINE ( 'NONE', #83, #211 ) ;
#292 =( NAMED_UNIT ( * ) SI_UNIT ( $, .STERADIAN. ) SOLID_ANGLE_UNIT ( ) );
#293 = ORIENTED_EDGE ( 'NONE', *, *, #229, .T. ) ;
#294 = EDGE_CURVE ( 'NONE', #129, #238, #217, .T. ) ;
#295 = PRODUCT_CONTEXT ( 'NONE', #188, 'mechanical' ) ;
#296 = DIRECTION ( 'NONE',  ( 0.0000000000000000000, 0.0000000000000000000, -1.000000000000000000 ) ) ;
#297 = PRODUCT ( 'Micro_GEM-140-2', 'Micro_GEM-140-2', '', ( #295 ) ) ;
#298 = AXIS2_PLACEMENT_3D ( 'NONE', #179, #253, #92 ) ;
#299 = VERTEX_POINT ( 'NONE', #123 ) ;
ENDSEC;
END-ISO-10303-21;
