ISO-10303-21;
HEADER;
FILE_DESCRIPTION (( 'STEP AP214' ),
    '1' );
FILE_NAME ('Micro_BMRM-010-2.STEP',
    '2021-09-03T14:22:12',
    ( '' ),
    ( '' ),
    'SwSTEP 2.0',
    'SolidWorks 2020',
    '' );
FILE_SCHEMA (( 'AUTOMOTIVE_DESIGN' ));
ENDSEC;

DATA;
#1 = ADVANCED_FACE ( 'NONE', ( #196 ), #316, .T. ) ;
#2 = CIRCLE ( 'NONE', #22, 0.07874000000000000443 ) ;
#3 =( GEOMETRIC_REPRESENTATION_CONTEXT ( 3 ) GLOBAL_UNCERTAINTY_ASSIGNED_CONTEXT ( ( #108 ) ) GLOBAL_UNIT_ASSIGNED_CONTEXT ( ( #21, #178, #25 ) ) REPRESENTATION_CONTEXT ( 'NONE', 'WORKASPACE' ) );
#4 = VERTEX_POINT ( 'NONE', #267 ) ;
#5 = CARTESIAN_POINT ( 'NONE',  ( 0.0000000000000000000, 0.0000000000000000000, 1.968503999999999809 ) ) ;
#6 = ORIENTED_EDGE ( 'NONE', *, *, #63, .T. ) ;
#7 =( CONVERSION_BASED_UNIT ( 'INCH', #237 ) LENGTH_UNIT ( ) NAMED_UNIT ( #165 ) );
#8 = EDGE_LOOP ( 'NONE', ( #213, #54, #284, #221 ) ) ;
#9 = PRODUCT ( 'Micro_BMRM-010-2', 'Micro_BMRM-010-2', '', ( #169 ) ) ;
#10 = ORIENTED_EDGE ( 'NONE', *, *, #131, .T. ) ;
#11 = EDGE_CURVE ( 'NONE', #285, #216, #288, .T. ) ;
#12 = CYLINDRICAL_SURFACE ( 'NONE', #164, 0.01966531500000000265 ) ;
#13 = AXIS2_PLACEMENT_3D ( 'NONE', #291, #98, #222 ) ;
#14 = AXIS2_PLACEMENT_3D ( 'NONE', #200, #191, #245 ) ;
#15 = DIRECTION ( 'NONE',  ( 0.0000000000000000000, 0.0000000000000000000, 1.000000000000000000 ) ) ;
#16 = CARTESIAN_POINT ( 'NONE',  ( -0.01966531499999998878, 2.408306506897443486E-18, 0.1181100000000000066 ) ) ;
#17 = ORIENTED_EDGE ( 'NONE', *, *, #233, .T. ) ;
#18 = EDGE_CURVE ( 'NONE', #110, #120, #305, .T. ) ;
#19 = DIRECTION ( 'NONE',  ( -1.000000000000000000, 0.0000000000000000000, 1.224646799147353207E-16 ) ) ;
#20 = CARTESIAN_POINT ( 'NONE',  ( 0.06374000000000018540, 7.805898697765251255E-18, 1.968503999999999809 ) ) ;
#21 =( CONVERSION_BASED_UNIT ( 'INCH', #103 ) LENGTH_UNIT ( ) NAMED_UNIT ( #246 ) );
#22 = AXIS2_PLACEMENT_3D ( 'NONE', #194, #123, #170 ) ;
#23 = CONICAL_SURFACE ( 'NONE', #175, 0.06374000000000018540, 0.7853981633974522758 ) ;
#24 = DIRECTION ( 'NONE',  ( 1.224646799147353207E-16, 0.0000000000000000000, 1.000000000000000000 ) ) ;
#25 =( NAMED_UNIT ( * ) SI_UNIT ( $, .STERADIAN. ) SOLID_ANGLE_UNIT ( ) );
#26 = DIRECTION ( 'NONE',  ( -1.224646799147353207E-16, -0.0000000000000000000, -1.000000000000000000 ) ) ;
#27 = VECTOR ( 'NONE', #253, 39.37007874015748143 ) ;
#28 = CONICAL_SURFACE ( 'NONE', #324, 0.01966531500000000265, 0.1745329251994338915 ) ;
#29 = ORIENTED_EDGE ( 'NONE', *, *, #154, .T. ) ;
#30 = PRODUCT_DEFINITION_CONTEXT ( 'detailed design', #198, 'design' ) ;
#31 = DIRECTION ( 'NONE',  ( 1.000000000000000000, 0.0000000000000000000, 0.0000000000000000000 ) ) ;
#32 = ORIENTED_EDGE ( 'NONE', *, *, #195, .F. ) ;
#33 = DIRECTION ( 'NONE',  ( -0.0000000000000000000, -0.0000000000000000000, -1.000000000000000000 ) ) ;
#34 = EDGE_LOOP ( 'NONE', ( #244, #317, #308, #242 ) ) ;
#35 = EDGE_LOOP ( 'NONE', ( #189, #85, #99 ) ) ;
#36 = ORIENTED_EDGE ( 'NONE', *, *, #256, .T. ) ;
#37 = ADVANCED_FACE ( 'NONE', ( #122 ), #12, .T. ) ;
#38 =( NAMED_UNIT ( * ) SI_UNIT ( $, .STERADIAN. ) SOLID_ANGLE_UNIT ( ) );
#39 = LINE ( 'NONE', #140, #27 ) ;
#40 = AXIS2_PLACEMENT_3D ( 'NONE', #127, #322, #101 ) ;
#41 = DIRECTION ( 'NONE',  ( 1.224646799147353207E-16, 1.000000000000000000, -0.0000000000000000000 ) ) ;
#42 = ORIENTED_EDGE ( 'NONE', *, *, #204, .T. ) ;
#43 = CARTESIAN_POINT ( 'NONE',  ( -0.07874000000000000443, 0.0000000000000000000, 1.953504000000000129 ) ) ;
#44 = VECTOR ( 'NONE', #290, 39.37007874015747433 ) ;
#45 = CARTESIAN_POINT ( 'NONE',  ( 5.549354549769427352E-17, 0.0000000000000000000, 0.4531391870401411670 ) ) ;
#46 = CONICAL_SURFACE ( 'NONE', #193, 0.01966531500000000265, 0.1745329251994338915 ) ;
#47 = SURFACE_STYLE_USAGE ( .BOTH. , #153 ) ;
#48 = CARTESIAN_POINT ( 'NONE',  ( 0.01966531500000000265, 2.408306506897443486E-18, -2.408306506897443486E-18 ) ) ;
#49 = EDGE_CURVE ( 'NONE', #124, #61, #323, .T. ) ;
#50 = DIRECTION ( 'NONE',  ( 1.224646799147353207E-16, 0.0000000000000000000, 1.000000000000000000 ) ) ;
#51 = MECHANICAL_DESIGN_GEOMETRIC_PRESENTATION_REPRESENTATION (  '', ( #72 ), #115 ) ;
#52 =( LENGTH_UNIT ( ) NAMED_UNIT ( * ) SI_UNIT ( $, .METRE. ) );
#53 = DIRECTION ( 'NONE',  ( -0.0000000000000000000, -0.0000000000000000000, -1.000000000000000000 ) ) ;
#54 = ORIENTED_EDGE ( 'NONE', *, *, #135, .T. ) ;
#55 = FILL_AREA_STYLE ('',( #212 ) ) ;
#56 = ORIENTED_EDGE ( 'NONE', *, *, #145, .F. ) ;
#57 = EDGE_CURVE ( 'NONE', #285, #247, #67, .T. ) ;
#58 = CARTESIAN_POINT ( 'NONE',  ( -0.01966531499999998878, 6.025587701691850612E-18, 0.1181100000000000066 ) ) ;
#59 = ORIENTED_EDGE ( 'NONE', *, *, #227, .F. ) ;
#60 = CARTESIAN_POINT ( 'NONE',  ( 0.0000000000000000000, 0.0000000000000000000, 1.968503999999999809 ) ) ;
#61 = VERTEX_POINT ( 'NONE', #228 ) ;
#62 = FACE_OUTER_BOUND ( 'NONE', #197, .T. ) ;
#63 = EDGE_CURVE ( 'NONE', #64, #113, #2, .T. ) ;
#64 = VERTEX_POINT ( 'NONE', #312 ) ;
#65 = ORIENTED_EDGE ( 'NONE', *, *, #63, .F. ) ;
#66 = AXIS2_PLACEMENT_3D ( 'NONE', #80, #177, #203 ) ;
#67 = LINE ( 'NONE', #16, #44 ) ;
#68 =( LENGTH_UNIT ( ) NAMED_UNIT ( * ) SI_UNIT ( $, .METRE. ) );
#69 = CYLINDRICAL_SURFACE ( 'NONE', #215, 0.07874000000000000443 ) ;
#70 =( CONVERSION_BASED_UNIT ( 'INCH', #311 ) LENGTH_UNIT ( ) NAMED_UNIT ( #309 ) );
#71 = AXIS2_PLACEMENT_3D ( 'NONE', #252, #319, #74 ) ;
#72 = STYLED_ITEM ( 'NONE', ( #87 ), #100 ) ;
#73 = DIRECTION ( 'NONE',  ( -0.0000000000000000000, -0.0000000000000000000, -1.000000000000000000 ) ) ;
#74 = DIRECTION ( 'NONE',  ( -1.000000000000000000, 0.0000000000000000000, 0.0000000000000000000 ) ) ;
#75 = CARTESIAN_POINT ( 'NONE',  ( 2.408306506897442716E-18, 0.0000000000000000000, 0.01966531499999999918 ) ) ;
#76 = PRESENTATION_STYLE_ASSIGNMENT (( #47 ) ) ;
#77 = AXIS2_PLACEMENT_3D ( 'NONE', #82, #53, #105 ) ;
#78 = EDGE_CURVE ( 'NONE', #216, #4, #39, .T. ) ;
#79 = LINE ( 'NONE', #20, #141 ) ;
#80 = CARTESIAN_POINT ( 'NONE',  ( 2.408306506897442716E-18, 0.0000000000000000000, 0.01966531499999999918 ) ) ;
#81 = DIRECTION ( 'NONE',  ( -1.000000000000000000, 0.0000000000000000000, 2.170579261049421609E-16 ) ) ;
#82 = CARTESIAN_POINT ( 'NONE',  ( 0.0000000000000000000, 0.0000000000000000000, 1.968503999999999809 ) ) ;
#83 = VERTEX_POINT ( 'NONE', #96 ) ;
#84 = FACE_OUTER_BOUND ( 'NONE', #250, .T. ) ;
#85 = ORIENTED_EDGE ( 'NONE', *, *, #49, .T. ) ;
#86 = PRESENTATION_LAYER_ASSIGNMENT (  '', '', ( #210 ) ) ;
#87 = PRESENTATION_STYLE_ASSIGNMENT (( #112 ) ) ;
#88 = ADVANCED_FACE ( 'NONE', ( #249 ), #69, .T. ) ;
#89 =( NAMED_UNIT ( * ) SI_UNIT ( $, .STERADIAN. ) SOLID_ANGLE_UNIT ( ) );
#90 = ORIENTED_EDGE ( 'NONE', *, *, #204, .F. ) ;
#91 = CARTESIAN_POINT ( 'NONE',  ( -0.06374000000000018540, 0.0000000000000000000, 1.968503999999999809 ) ) ;
#92 = AXIS2_PLACEMENT_3D ( 'NONE', #211, #155, #186 ) ;
#93 = EDGE_LOOP ( 'NONE', ( #172, #29, #133 ) ) ;
#94 = CARTESIAN_POINT ( 'NONE',  ( 0.0000000000000000000, 0.0000000000000000000, 0.0000000000000000000 ) ) ;
#95 = EDGE_CURVE ( 'NONE', #216, #285, #106, .T. ) ;
#96 = CARTESIAN_POINT ( 'NONE',  ( 0.01966531500000000612, 2.408306506897443486E-18, 0.01966531499999999225 ) ) ;
#97 = AXIS2_PLACEMENT_3D ( 'NONE', #121, #15, #318 ) ;
#98 = DIRECTION ( 'NONE',  ( -1.224646799147353207E-16, -0.0000000000000000000, -1.000000000000000000 ) ) ;
#99 = ORIENTED_EDGE ( 'NONE', *, *, #134, .F. ) ;
#100 = ADVANCED_BREP_SHAPE_REPRESENTATION ( 'Micro_BMRM-010-2', ( #174, #14 ), #217 ) ;
#101 = DIRECTION ( 'NONE',  ( 1.000000000000000000, 0.0000000000000000000, 0.0000000000000000000 ) ) ;
#102 = PRODUCT_RELATED_PRODUCT_CATEGORY ( 'part', '', ( #9 ) ) ;
#103 = LENGTH_MEASURE_WITH_UNIT ( LENGTH_MEASURE( 0.02539999999999999897 ), #52 );
#104 = PRODUCT_DEFINITION_SHAPE ( 'NONE', 'NONE',  #225 ) ;
#105 = DIRECTION ( 'NONE',  ( -1.000000000000000000, 0.0000000000000000000, 0.0000000000000000000 ) ) ;
#106 = CIRCLE ( 'NONE', #71, 0.01966531500000000265 ) ;
#107 = AXIS2_PLACEMENT_3D ( 'NONE', #60, #283, #182 ) ;
#108 = UNCERTAINTY_MEASURE_WITH_UNIT (LENGTH_MEASURE( 1.000000000000000082E-05 ), #21, 'distance_accuracy_value', 'NONE');
#109 = APPLICATION_PROTOCOL_DEFINITION ( 'draft international standard', 'automotive_design', 1998, #207 ) ;
#110 = VERTEX_POINT ( 'NONE', #201 ) ;
#111 = DIRECTION ( 'NONE',  ( 0.0000000000000000000, 0.0000000000000000000, -1.000000000000000000 ) ) ;
#112 = SURFACE_STYLE_USAGE ( .BOTH. , #157 ) ;
#113 = VERTEX_POINT ( 'NONE', #43 ) ;
#114 = AXIS2_PLACEMENT_3D ( 'NONE', #273, #300, #206 ) ;
#115 =( GEOMETRIC_REPRESENTATION_CONTEXT ( 3 ) GLOBAL_UNCERTAINTY_ASSIGNED_CONTEXT ( ( #304 ) ) GLOBAL_UNIT_ASSIGNED_CONTEXT ( ( #70, #295, #38 ) ) REPRESENTATION_CONTEXT ( 'NONE', 'WORKASPACE' ) );
#116 = CARTESIAN_POINT ( 'NONE',  ( 0.0000000000000000000, 0.0000000000000000000, 1.953504000000000129 ) ) ;
#117 = ORIENTED_EDGE ( 'NONE', *, *, #227, .T. ) ;
#118 = ORIENTED_EDGE ( 'NONE', *, *, #145, .T. ) ;
#119 = DIRECTION ( 'NONE',  ( -1.000000000000000000, 1.224646799147352961E-16, 0.0000000000000000000 ) ) ;
#120 = VERTEX_POINT ( 'NONE', #91 ) ;
#121 = CARTESIAN_POINT ( 'NONE',  ( 0.0000000000000000000, 0.0000000000000000000, 1.968503999999999809 ) ) ;
#122 = FACE_OUTER_BOUND ( 'NONE', #8, .T. ) ;
#123 = DIRECTION ( 'NONE',  ( 0.0000000000000000000, 0.0000000000000000000, -1.000000000000000000 ) ) ;
#124 = VERTEX_POINT ( 'NONE', #296 ) ;
#125 = SURFACE_STYLE_FILL_AREA ( #173 ) ;
#126 = ADVANCED_FACE ( 'NONE', ( #192 ), #208, .T. ) ;
#127 = CARTESIAN_POINT ( 'NONE',  ( 5.549354549769427352E-17, 0.0000000000000000000, 0.4531391870401411670 ) ) ;
#128 = CARTESIAN_POINT ( 'NONE',  ( 1.446430334472939084E-17, 0.0000000000000000000, 0.1181100000000000066 ) ) ;
#129 = AXIS2_PLACEMENT_3D ( 'NONE', #5, #239, #31 ) ;
#130 = LINE ( 'NONE', #180, #274 ) ;
#131 = EDGE_CURVE ( 'NONE', #120, #113, #130, .T. ) ;
#132 = CIRCLE ( 'NONE', #223, 0.01966531500000000265 ) ;
#133 = ORIENTED_EDGE ( 'NONE', *, *, #185, .F. ) ;
#134 = EDGE_CURVE ( 'NONE', #83, #61, #132, .T. ) ;
#135 = EDGE_CURVE ( 'NONE', #216, #83, #232, .T. ) ;
#136 = CARTESIAN_POINT ( 'NONE',  ( -0.07873999999999994892, 0.0000000000000000000, 0.4531391870401411670 ) ) ;
#137 = CIRCLE ( 'NONE', #129, 0.06374000000000018540 ) ;
#138 = VECTOR ( 'NONE', #280, 39.37007874015748143 ) ;
#139 = CARTESIAN_POINT ( 'NONE',  ( 2.408306506897442716E-18, 0.0000000000000000000, 0.01966531499999999918 ) ) ;
#140 = CARTESIAN_POINT ( 'NONE',  ( 0.01966531500000001306, 0.0000000000000000000, 0.1181100000000000066 ) ) ;
#141 = VECTOR ( 'NONE', #236, 39.37007874015748854 ) ;
#142 = APPLICATION_PROTOCOL_DEFINITION ( 'draft international standard', 'automotive_design', 1998, #198 ) ;
#143 = EDGE_LOOP ( 'NONE', ( #117, #36, #32, #269 ) ) ;
#144 = ORIENTED_EDGE ( 'NONE', *, *, #260, .T. ) ;
#145 = EDGE_CURVE ( 'NONE', #110, #64, #79, .T. ) ;
#146 = DIRECTION ( 'NONE',  ( -1.224646799147353207E-16, -0.0000000000000000000, -1.000000000000000000 ) ) ;
#147 = ORIENTED_EDGE ( 'NONE', *, *, #256, .F. ) ;
#148 = DIRECTION ( 'NONE',  ( -0.7071067811865502373, 0.0000000000000000000, -0.7071067811865446862 ) ) ;
#149 = DIRECTION ( 'NONE',  ( -1.000000000000000000, 0.0000000000000000000, 2.170579261049421609E-16 ) ) ;
#150 = CARTESIAN_POINT ( 'NONE',  ( 2.408306506897442716E-18, 0.0000000000000000000, 0.01966531499999999918 ) ) ;
#151 = DIRECTION ( 'NONE',  ( 1.000000000000000000, 0.0000000000000000000, 0.0000000000000000000 ) ) ;
#152 = CIRCLE ( 'NONE', #66, 0.01966531499999999918 ) ;
#153 = SURFACE_SIDE_STYLE ('',( #125 ) ) ;
#154 = EDGE_CURVE ( 'NONE', #124, #83, #152, .T. ) ;
#155 = DIRECTION ( 'NONE',  ( 0.0000000000000000000, 0.0000000000000000000, 1.000000000000000000 ) ) ;
#156 = ORIENTED_EDGE ( 'NONE', *, *, #18, .T. ) ;
#157 = SURFACE_SIDE_STYLE ('',( #307 ) ) ;
#158 = AXIS2_PLACEMENT_3D ( 'NONE', #167, #292, #19 ) ;
#159 = ADVANCED_FACE ( 'NONE', ( #276 ), #28, .T. ) ;
#160 = FACE_OUTER_BOUND ( 'NONE', #161, .T. ) ;
#161 = EDGE_LOOP ( 'NONE', ( #147, #6, #144, #90 ) ) ;
#162 = CARTESIAN_POINT ( 'NONE',  ( 0.0000000000000000000, 0.0000000000000000000, 1.968503999999999809 ) ) ;
#163 = ORIENTED_EDGE ( 'NONE', *, *, #78, .T. ) ;
#164 = AXIS2_PLACEMENT_3D ( 'NONE', #94, #146, #266 ) ;
#165 = DIMENSIONAL_EXPONENTS ( 1.000000000000000000, 0.0000000000000000000, 0.0000000000000000000, 0.0000000000000000000, 0.0000000000000000000, 0.0000000000000000000, 0.0000000000000000000 ) ;
#166 = ORIENTED_EDGE ( 'NONE', *, *, #18, .F. ) ;
#167 = CARTESIAN_POINT ( 'NONE',  ( 0.0000000000000000000, 0.0000000000000000000, 0.0000000000000000000 ) ) ;
#168 = EDGE_LOOP ( 'NONE', ( #293, #156 ) ) ;
#169 = PRODUCT_CONTEXT ( 'NONE', #207, 'mechanical' ) ;
#170 = DIRECTION ( 'NONE',  ( 1.000000000000000000, 0.0000000000000000000, 0.0000000000000000000 ) ) ;
#171 = ORIENTED_EDGE ( 'NONE', *, *, #185, .T. ) ;
#172 = ORIENTED_EDGE ( 'NONE', *, *, #49, .F. ) ;
#173 = FILL_AREA_STYLE ('',( #258 ) ) ;
#174 = MANIFOLD_SOLID_BREP ( 'Fillet1', #277 ) ;
#175 = AXIS2_PLACEMENT_3D ( 'NONE', #162, #264, #263 ) ;
#176 = SPHERICAL_SURFACE ( 'NONE', #230, 0.01966531499999999918 ) ;
#177 = DIRECTION ( 'NONE',  ( 0.0000000000000000000, -1.000000000000000000, 0.0000000000000000000 ) ) ;
#178 =( NAMED_UNIT ( * ) PLANE_ANGLE_UNIT ( ) SI_UNIT ( $, .RADIAN. ) );
#179 = AXIS2_PLACEMENT_3D ( 'NONE', #116, #111, #286 ) ;
#180 = CARTESIAN_POINT ( 'NONE',  ( -0.06374000000000018540, 0.0000000000000000000, 1.968503999999999809 ) ) ;
#181 = ADVANCED_FACE ( 'NONE', ( #202 ), #176, .T. ) ;
#182 = DIRECTION ( 'NONE',  ( -1.000000000000000000, 0.0000000000000000000, 0.0000000000000000000 ) ) ;
#183 = ORIENTED_EDGE ( 'NONE', *, *, #95, .F. ) ;
#184 = LINE ( 'NONE', #303, #306 ) ;
#185 = EDGE_CURVE ( 'NONE', #61, #83, #265, .T. ) ;
#186 = DIRECTION ( 'NONE',  ( 1.000000000000000000, 0.0000000000000000000, -0.0000000000000000000 ) ) ;
#187 = EDGE_LOOP ( 'NONE', ( #229, #220, #17, #171 ) ) ;
#188 = LINE ( 'NONE', #214, #138 ) ;
#189 = ORIENTED_EDGE ( 'NONE', *, *, #154, .F. ) ;
#190 = LINE ( 'NONE', #261, #275 ) ;
#191 = DIRECTION ( 'NONE',  ( 0.0000000000000000000, 0.0000000000000000000, 1.000000000000000000 ) ) ;
#192 = FACE_OUTER_BOUND ( 'NONE', #93, .T. ) ;
#193 = AXIS2_PLACEMENT_3D ( 'NONE', #257, #301, #151 ) ;
#194 = CARTESIAN_POINT ( 'NONE',  ( 0.0000000000000000000, 0.0000000000000000000, 1.953504000000000129 ) ) ;
#195 = EDGE_CURVE ( 'NONE', #247, #4, #234, .T. ) ;
#196 = FACE_OUTER_BOUND ( 'NONE', #187, .T. ) ;
#197 = EDGE_LOOP ( 'NONE', ( #166, #118, #59, #226 ) ) ;
#198 = APPLICATION_CONTEXT ( 'automotive_design' ) ;
#199 = ADVANCED_FACE ( 'NONE', ( #321 ), #46, .T. ) ;
#200 = CARTESIAN_POINT ( 'NONE',  ( 0.0000000000000000000, 0.0000000000000000000, 0.0000000000000000000 ) ) ;
#201 = CARTESIAN_POINT ( 'NONE',  ( 0.06374000000000018540, 8.724383797125754882E-18, 1.968503999999999809 ) ) ;
#202 = FACE_OUTER_BOUND ( 'NONE', #35, .T. ) ;
#203 = DIRECTION ( 'NONE',  ( 0.0000000000000000000, 0.0000000000000000000, -1.000000000000000000 ) ) ;
#204 = EDGE_CURVE ( 'NONE', #4, #247, #270, .T. ) ;
#205 = PRODUCT_DEFINITION_FORMATION_WITH_SPECIFIED_SOURCE ( 'ANY', '', #9, .NOT_KNOWN. ) ;
#206 = DIRECTION ( 'NONE',  ( 1.000000000000000000, 0.0000000000000000000, 0.0000000000000000000 ) ) ;
#207 = APPLICATION_CONTEXT ( 'automotive_design' ) ;
#208 = SPHERICAL_SURFACE ( 'NONE', #114, 0.01966531499999999918 ) ;
#209 = DIRECTION ( 'NONE',  ( 0.0000000000000000000, 1.000000000000000000, 0.0000000000000000000 ) ) ;
#210 = STYLED_ITEM ( 'NONE', ( #76 ), #174 ) ;
#211 = CARTESIAN_POINT ( 'NONE',  ( 0.0000000000000000000, 0.0000000000000000000, 1.968503999999999809 ) ) ;
#212 = FILL_AREA_STYLE_COLOUR ( '', #289 ) ;
#213 = ORIENTED_EDGE ( 'NONE', *, *, #11, .T. ) ;
#214 = CARTESIAN_POINT ( 'NONE',  ( -0.07874000000000000443, 0.0000000000000000000, 1.968503999999999809 ) ) ;
#215 = AXIS2_PLACEMENT_3D ( 'NONE', #272, #73, #271 ) ;
#216 = VERTEX_POINT ( 'NONE', #241 ) ;
#217 =( GEOMETRIC_REPRESENTATION_CONTEXT ( 3 ) GLOBAL_UNCERTAINTY_ASSIGNED_CONTEXT ( ( #251 ) ) GLOBAL_UNIT_ASSIGNED_CONTEXT ( ( #7, #310, #89 ) ) REPRESENTATION_CONTEXT ( 'NONE', 'WORKASPACE' ) );
#218 = ADVANCED_FACE ( 'NONE', ( #62 ), #298, .T. ) ;
#219 = CYLINDRICAL_SURFACE ( 'NONE', #77, 0.07874000000000000443 ) ;
#220 = ORIENTED_EDGE ( 'NONE', *, *, #95, .T. ) ;
#221 = ORIENTED_EDGE ( 'NONE', *, *, #233, .F. ) ;
#222 = DIRECTION ( 'NONE',  ( -1.000000000000000000, 0.0000000000000000000, 0.0000000000000000000 ) ) ;
#223 = AXIS2_PLACEMENT_3D ( 'NONE', #150, #24, #81 ) ;
#224 = SHAPE_DEFINITION_REPRESENTATION ( #104, #100 ) ;
#225 = PRODUCT_DEFINITION ( 'UNKNOWN', '', #205, #30 ) ;
#226 = ORIENTED_EDGE ( 'NONE', *, *, #131, .F. ) ;
#227 = EDGE_CURVE ( 'NONE', #113, #64, #294, .T. ) ;
#228 = CARTESIAN_POINT ( 'NONE',  ( -0.01966531499999999918, 0.0000000000000000000, 0.01966531500000000265 ) ) ;
#229 = ORIENTED_EDGE ( 'NONE', *, *, #135, .F. ) ;
#230 = AXIS2_PLACEMENT_3D ( 'NONE', #75, #209, #325 ) ;
#231 = DIRECTION ( 'NONE',  ( 1.224646799147353207E-16, 0.0000000000000000000, 1.000000000000000000 ) ) ;
#232 = LINE ( 'NONE', #48, #313 ) ;
#233 = EDGE_CURVE ( 'NONE', #285, #61, #190, .T. ) ;
#234 = CIRCLE ( 'NONE', #314, 0.07874000000000000443 ) ;
#235 = CARTESIAN_POINT ( 'NONE',  ( 2.408306506897442716E-18, 0.0000000000000000000, 0.01966531499999999918 ) ) ;
#236 = DIRECTION ( 'NONE',  ( 0.7071067811865502373, 8.659560562354966138E-17, -0.7071067811865446862 ) ) ;
#237 = LENGTH_MEASURE_WITH_UNIT ( LENGTH_MEASURE( 0.02539999999999999897 ), #240 );
#238 = MECHANICAL_DESIGN_GEOMETRIC_PRESENTATION_REPRESENTATION (  '', ( #210 ), #3 ) ;
#239 = DIRECTION ( 'NONE',  ( 0.0000000000000000000, 0.0000000000000000000, 1.000000000000000000 ) ) ;
#240 =( LENGTH_UNIT ( ) NAMED_UNIT ( * ) SI_UNIT ( $, .METRE. ) );
#241 = CARTESIAN_POINT ( 'NONE',  ( 0.01966531500000001306, 0.0000000000000000000, 0.1181100000000000066 ) ) ;
#242 = ORIENTED_EDGE ( 'NONE', *, *, #78, .F. ) ;
#243 = AXIS2_PLACEMENT_3D ( 'NONE', #235, #50, #149 ) ;
#244 = ORIENTED_EDGE ( 'NONE', *, *, #11, .F. ) ;
#245 = DIRECTION ( 'NONE',  ( 1.000000000000000000, 0.0000000000000000000, 0.0000000000000000000 ) ) ;
#246 = DIMENSIONAL_EXPONENTS ( 1.000000000000000000, 0.0000000000000000000, 0.0000000000000000000, 0.0000000000000000000, 0.0000000000000000000, 0.0000000000000000000, 0.0000000000000000000 ) ;
#247 = VERTEX_POINT ( 'NONE', #136 ) ;
#248 = EDGE_CURVE ( 'NONE', #120, #110, #137, .T. ) ;
#249 = FACE_OUTER_BOUND ( 'NONE', #143, .T. ) ;
#250 = EDGE_LOOP ( 'NONE', ( #56, #281, #10, #65 ) ) ;
#251 = UNCERTAINTY_MEASURE_WITH_UNIT (LENGTH_MEASURE( 1.000000000000000082E-05 ), #7, 'distance_accuracy_value', 'NONE');
#252 = CARTESIAN_POINT ( 'NONE',  ( 1.446430334472939084E-17, 0.0000000000000000000, 0.1181100000000000066 ) ) ;
#253 = DIRECTION ( 'NONE',  ( 0.1736481776669313859, 0.0000000000000000000, 0.9848077530122077983 ) ) ;
#254 = COLOUR_RGB ( '',0.7921568627450980005, 0.8196078431372548767, 0.9333333333333333481 ) ;
#255 = DIRECTION ( 'NONE',  ( -1.224646799147353207E-16, -0.0000000000000000000, -1.000000000000000000 ) ) ;
#256 = EDGE_CURVE ( 'NONE', #64, #4, #184, .T. ) ;
#257 = CARTESIAN_POINT ( 'NONE',  ( 1.446430334472939084E-17, 0.0000000000000000000, 0.1181100000000000066 ) ) ;
#258 = FILL_AREA_STYLE_COLOUR ( '', #254 ) ;
#259 = DIRECTION ( 'NONE',  ( 1.000000000000000000, 0.0000000000000000000, 0.0000000000000000000 ) ) ;
#260 = EDGE_CURVE ( 'NONE', #113, #247, #188, .T. ) ;
#261 = CARTESIAN_POINT ( 'NONE',  ( -0.01966531500000000265, 0.0000000000000000000, 2.408306506897443486E-18 ) ) ;
#262 = ORIENTED_EDGE ( 'NONE', *, *, #57, .F. ) ;
#263 = DIRECTION ( 'NONE',  ( -1.000000000000000000, 0.0000000000000000000, 0.0000000000000000000 ) ) ;
#264 = DIRECTION ( 'NONE',  ( 0.0000000000000000000, 0.0000000000000000000, -1.000000000000000000 ) ) ;
#265 = CIRCLE ( 'NONE', #243, 0.01966531500000000265 ) ;
#266 = DIRECTION ( 'NONE',  ( -1.000000000000000000, 0.0000000000000000000, 1.224646799147353207E-16 ) ) ;
#267 = CARTESIAN_POINT ( 'NONE',  ( 0.07874000000000004607, 9.642868896486264672E-18, 0.4531391870401411670 ) ) ;
#268 = ADVANCED_FACE ( 'NONE', ( #160 ), #219, .T. ) ;
#269 = ORIENTED_EDGE ( 'NONE', *, *, #260, .F. ) ;
#270 = CIRCLE ( 'NONE', #40, 0.07874000000000000443 ) ;
#271 = DIRECTION ( 'NONE',  ( -1.000000000000000000, 0.0000000000000000000, 0.0000000000000000000 ) ) ;
#272 = CARTESIAN_POINT ( 'NONE',  ( 0.0000000000000000000, 0.0000000000000000000, 1.968503999999999809 ) ) ;
#273 = CARTESIAN_POINT ( 'NONE',  ( 2.408306506897442716E-18, 0.0000000000000000000, 0.01966531499999999918 ) ) ;
#274 = VECTOR ( 'NONE', #148, 39.37007874015748854 ) ;
#275 = VECTOR ( 'NONE', #26, 39.37007874015748143 ) ;
#276 = FACE_OUTER_BOUND ( 'NONE', #287, .T. ) ;
#277 = CLOSED_SHELL ( 'NONE', ( #181, #37, #199, #218, #88, #268, #297, #315, #159, #1, #126 ) ) ;
#278 = DIRECTION ( 'NONE',  ( 1.000000000000000000, 0.0000000000000000000, 0.0000000000000000000 ) ) ;
#279 = AXIS2_PLACEMENT_3D ( 'NONE', #139, #41, #119 ) ;
#280 = DIRECTION ( 'NONE',  ( -0.0000000000000000000, -0.0000000000000000000, -1.000000000000000000 ) ) ;
#281 = ORIENTED_EDGE ( 'NONE', *, *, #248, .F. ) ;
#282 = PLANE ( 'NONE',  #92 ) ;
#283 = DIRECTION ( 'NONE',  ( 0.0000000000000000000, 0.0000000000000000000, -1.000000000000000000 ) ) ;
#284 = ORIENTED_EDGE ( 'NONE', *, *, #134, .T. ) ;
#285 = VERTEX_POINT ( 'NONE', #58 ) ;
#286 = DIRECTION ( 'NONE',  ( 1.000000000000000000, 0.0000000000000000000, 0.0000000000000000000 ) ) ;
#287 = EDGE_LOOP ( 'NONE', ( #262, #183, #163, #42 ) ) ;
#288 = CIRCLE ( 'NONE', #13, 0.01966531500000000265 ) ;
#289 = COLOUR_RGB ( '',0.7921568627450980005, 0.8196078431372548767, 0.9333333333333333481 ) ;
#290 = DIRECTION ( 'NONE',  ( -0.1736481776669311916, 2.126576849575783316E-17, 0.9848077530122080203 ) ) ;
#291 = CARTESIAN_POINT ( 'NONE',  ( 1.446430334472939084E-17, 0.0000000000000000000, 0.1181100000000000066 ) ) ;
#292 = DIRECTION ( 'NONE',  ( -1.224646799147353207E-16, -0.0000000000000000000, -1.000000000000000000 ) ) ;
#293 = ORIENTED_EDGE ( 'NONE', *, *, #248, .T. ) ;
#294 = CIRCLE ( 'NONE', #179, 0.07874000000000000443 ) ;
#295 =( NAMED_UNIT ( * ) PLANE_ANGLE_UNIT ( ) SI_UNIT ( $, .RADIAN. ) );
#296 = CARTESIAN_POINT ( 'NONE',  ( 3.612459760346164074E-18, 0.0000000000000000000, 0.0000000000000000000 ) ) ;
#297 = ADVANCED_FACE ( 'NONE', ( #302 ), #282, .T. ) ;
#298 = CONICAL_SURFACE ( 'NONE', #107, 0.06374000000000018540, 0.7853981633974522758 ) ;
#299 = DIRECTION ( 'NONE',  ( -1.224646799147353207E-16, -0.0000000000000000000, -1.000000000000000000 ) ) ;
#300 = DIRECTION ( 'NONE',  ( 0.0000000000000000000, 1.000000000000000000, 0.0000000000000000000 ) ) ;
#301 = DIRECTION ( 'NONE',  ( 1.224646799147353207E-16, 0.0000000000000000000, 1.000000000000000000 ) ) ;
#302 = FACE_OUTER_BOUND ( 'NONE', #168, .T. ) ;
#303 = CARTESIAN_POINT ( 'NONE',  ( 0.07874000000000000443, 9.642868896486258509E-18, 1.968503999999999809 ) ) ;
#304 = UNCERTAINTY_MEASURE_WITH_UNIT (LENGTH_MEASURE( 1.000000000000000082E-05 ), #70, 'distance_accuracy_value', 'NONE');
#305 = CIRCLE ( 'NONE', #97, 0.06374000000000018540 ) ;
#306 = VECTOR ( 'NONE', #33, 39.37007874015748143 ) ;
#307 = SURFACE_STYLE_FILL_AREA ( #55 ) ;
#308 = ORIENTED_EDGE ( 'NONE', *, *, #195, .T. ) ;
#309 = DIMENSIONAL_EXPONENTS ( 1.000000000000000000, 0.0000000000000000000, 0.0000000000000000000, 0.0000000000000000000, 0.0000000000000000000, 0.0000000000000000000, 0.0000000000000000000 ) ;
#310 =( NAMED_UNIT ( * ) PLANE_ANGLE_UNIT ( ) SI_UNIT ( $, .RADIAN. ) );
#311 = LENGTH_MEASURE_WITH_UNIT ( LENGTH_MEASURE( 0.02539999999999999897 ), #68 );
#312 = CARTESIAN_POINT ( 'NONE',  ( 0.07874000000000000443, 9.642868896486258509E-18, 1.953504000000000129 ) ) ;
#313 = VECTOR ( 'NONE', #299, 39.37007874015748143 ) ;
#314 = AXIS2_PLACEMENT_3D ( 'NONE', #45, #255, #259 ) ;
#315 = ADVANCED_FACE ( 'NONE', ( #84 ), #23, .T. ) ;
#316 = CYLINDRICAL_SURFACE ( 'NONE', #158, 0.01966531500000000265 ) ;
#317 = ORIENTED_EDGE ( 'NONE', *, *, #57, .T. ) ;
#318 = DIRECTION ( 'NONE',  ( 1.000000000000000000, 0.0000000000000000000, 0.0000000000000000000 ) ) ;
#319 = DIRECTION ( 'NONE',  ( -1.224646799147353207E-16, -0.0000000000000000000, -1.000000000000000000 ) ) ;
#320 = PRESENTATION_LAYER_ASSIGNMENT (  '', '', ( #72 ) ) ;
#321 = FACE_OUTER_BOUND ( 'NONE', #34, .T. ) ;
#322 = DIRECTION ( 'NONE',  ( -1.224646799147353207E-16, -0.0000000000000000000, -1.000000000000000000 ) ) ;
#323 = CIRCLE ( 'NONE', #279, 0.01966531499999999918 ) ;
#324 = AXIS2_PLACEMENT_3D ( 'NONE', #128, #231, #278 ) ;
#325 = DIRECTION ( 'NONE',  ( 1.000000000000000000, 0.0000000000000000000, 0.0000000000000000000 ) ) ;
ENDSEC;
END-ISO-10303-21;
