ISO-10303-21;
HEADER;
FILE_DESCRIPTION (( 'STEP AP214' ),
    '1' );
FILE_NAME ('59848.STEP',
    '2023-06-22T23:28:12',
    ( '' ),
    ( '' ),
    'SwSTEP 2.0',
    'SolidWorks 2023',
    '' );
FILE_SCHEMA (( 'AUTOMOTIVE_DESIGN' ));
ENDSEC;

DATA;
#1 =( NAMED_UNIT ( * ) SI_UNIT ( $, .STERADIAN. ) SOLID_ANGLE_UNIT ( ) );
#2 = EDGE_CURVE ( 'NONE', #148, #63, #16, .T. ) ;
#3 = LENGTH_MEASURE_WITH_UNIT ( LENGTH_MEASURE( 0.02539999999999999897 ), #43 );
#4 =( GEOMETRIC_REPRESENTATION_CONTEXT ( 3 ) GLOBAL_UNCERTAINTY_ASSIGNED_CONTEXT ( ( #221 ) ) GLOBAL_UNIT_ASSIGNED_CONTEXT ( ( #164, #287, #21 ) ) REPRESENTATION_CONTEXT ( 'NONE', 'WORKASPACE' ) );
#5 = EDGE_CURVE ( 'NONE', #63, #50, #139, .T. ) ;
#6 = AXIS2_PLACEMENT_3D ( 'NONE', #195, #298, #13 ) ;
#7 = MECHANICAL_DESIGN_GEOMETRIC_PRESENTATION_REPRESENTATION (  '', ( #205 ), #163 ) ;
#8 = ORIENTED_EDGE ( 'NONE', *, *, #5, .F. ) ;
#9 = ADVANCED_FACE ( 'NONE', ( #137 ), #304, .F. ) ;
#10 = UNCERTAINTY_MEASURE_WITH_UNIT (LENGTH_MEASURE( 1.000000000000000082E-05 ), #23, 'distance_accuracy_value', 'NONE');
#11 = DIMENSIONAL_EXPONENTS ( 1.000000000000000000, 0.000000000000000000, 0.000000000000000000, 0.000000000000000000, 0.000000000000000000, 0.000000000000000000, 0.000000000000000000 ) ;
#12 =( NAMED_UNIT ( * ) PLANE_ANGLE_UNIT ( ) SI_UNIT ( $, .RADIAN. ) );
#13 = DIRECTION ( 'NONE',  ( 0.000000000000000000, 0.000000000000000000, -1.000000000000000000 ) ) ;
#14 = MECHANICAL_DESIGN_GEOMETRIC_PRESENTATION_REPRESENTATION (  '', ( #72 ), #4 ) ;
#15 = CARTESIAN_POINT ( 'NONE',  ( 0.000000000000000000, 0.000000000000000000, 0.000000000000000000 ) ) ;
#16 = LINE ( 'NONE', #176, #116 ) ;
#17 = CIRCLE ( 'NONE', #223, 0.2500000000000000000 ) ;
#18 = PRESENTATION_LAYER_ASSIGNMENT (  '', '', ( #150 ) ) ;
#19 = FACE_OUTER_BOUND ( 'NONE', #202, .T. ) ;
#20 = ORIENTED_EDGE ( 'NONE', *, *, #28, .T. ) ;
#21 =( NAMED_UNIT ( * ) SI_UNIT ( $, .STERADIAN. ) SOLID_ANGLE_UNIT ( ) );
#22 = AXIS2_PLACEMENT_3D ( 'NONE', #59, #236, #204 ) ;
#23 =( CONVERSION_BASED_UNIT ( 'INCH', #292 ) LENGTH_UNIT ( ) NAMED_UNIT ( #224 ) );
#24 = PRODUCT_DEFINITION ( 'UNKNOWN', '', #295, #42 ) ;
#25 = ADVANCED_BREP_SHAPE_REPRESENTATION ( '59848', ( #259, #51, #117 ), #258 ) ;
#26 = CARTESIAN_POINT ( 'NONE',  ( 3.061616997868383018E-17, 0.000000000000000000, 0.2500000000000000000 ) ) ;
#27 = SURFACE_STYLE_USAGE ( .BOTH. , #98 ) ;
#28 = EDGE_CURVE ( 'NONE', #171, #50, #132, .T. ) ;
#29 = COLOUR_RGB ( '',1.000000000000000000, 0.000000000000000000, 0.000000000000000000 ) ;
#30 = ORIENTED_EDGE ( 'NONE', *, *, #124, .F. ) ;
#31 = DIRECTION ( 'NONE',  ( -5.156407575357275299E-17, 1.000000000000000000, -0.000000000000000000 ) ) ;
#32 = DIMENSIONAL_EXPONENTS ( 1.000000000000000000, 0.000000000000000000, 0.000000000000000000, 0.000000000000000000, 0.000000000000000000, 0.000000000000000000, 0.000000000000000000 ) ;
#33 = ADVANCED_FACE ( 'NONE', ( #247 ), #253, .T. ) ;
#34 = CARTESIAN_POINT ( 'NONE',  ( 0.2500000000000000000, 4.000000000000000000, 0.000000000000000000 ) ) ;
#35 = VECTOR ( 'NONE', #118, 39.37007874015748143 ) ;
#36 = UNCERTAINTY_MEASURE_WITH_UNIT (LENGTH_MEASURE( 1.000000000000000082E-05 ), #290, 'distance_accuracy_value', 'NONE');
#37 = DIRECTION ( 'NONE',  ( -5.156407575357275299E-17, 1.000000000000000000, -0.000000000000000000 ) ) ;
#38 = PRODUCT ( '59848', '59848', '', ( #179 ) ) ;
#39 = AXIS2_PLACEMENT_3D ( 'NONE', #237, #68, #44 ) ;
#40 = SURFACE_STYLE_FILL_AREA ( #203 ) ;
#41 = DIRECTION ( 'NONE',  ( -0.000000000000000000, -1.000000000000000000, -0.000000000000000000 ) ) ;
#42 = PRODUCT_DEFINITION_CONTEXT ( 'detailed design', #81, 'design' ) ;
#43 =( LENGTH_UNIT ( ) NAMED_UNIT ( * ) SI_UNIT ( $, .METRE. ) );
#44 = DIRECTION ( 'NONE',  ( -1.000000000000000000, 0.000000000000000000, 0.000000000000000000 ) ) ;
#45 = DIRECTION ( 'NONE',  ( -0.000000000000000000, -1.000000000000000000, -0.000000000000000000 ) ) ;
#46 = FILL_AREA_STYLE_COLOUR ( '', #48 ) ;
#47 =( NAMED_UNIT ( * ) PLANE_ANGLE_UNIT ( ) SI_UNIT ( $, .RADIAN. ) );
#48 = COLOUR_RGB ( '',0.7921568627450980005, 0.8196078431372548767, 0.9333333333333333481 ) ;
#49 =( NAMED_UNIT ( * ) SI_UNIT ( $, .STERADIAN. ) SOLID_ANGLE_UNIT ( ) );
#50 = VERTEX_POINT ( 'NONE', #192 ) ;
#51 = MANIFOLD_SOLID_BREP ( 'Revolve - Tool Body (Straight Shanked)', #143 ) ;
#52 = PRESENTATION_STYLE_ASSIGNMENT (( #73 ) ) ;
#53 = PRESENTATION_LAYER_ASSIGNMENT (  '', '', ( #263 ) ) ;
#54 = EDGE_CURVE ( 'NONE', #64, #197, #91, .T. ) ;
#55 = DIRECTION ( 'NONE',  ( 0.000000000000000000, -0.000000000000000000, 1.000000000000000000 ) ) ;
#56 = UNCERTAINTY_MEASURE_WITH_UNIT (LENGTH_MEASURE( 1.000000000000000082E-05 ), #239, 'distance_accuracy_value', 'NONE');
#57 = ORIENTED_EDGE ( 'NONE', *, *, #272, .F. ) ;
#58 = CIRCLE ( 'NONE', #157, 0.2500000000000000000 ) ;
#59 = CARTESIAN_POINT ( 'NONE',  ( -1.224646799147352714E-16, 4.000000000000000000, 0.000000000000000000 ) ) ;
#60 = EDGE_LOOP ( 'NONE', ( #187, #256, #20, #8 ) ) ;
#61 = APPLICATION_CONTEXT ( 'automotive_design' ) ;
#62 = LINE ( 'NONE', #231, #77 ) ;
#63 = VERTEX_POINT ( 'NONE', #183 ) ;
#64 = VERTEX_POINT ( 'NONE', #26 ) ;
#65 = LENGTH_MEASURE_WITH_UNIT ( LENGTH_MEASURE( 0.02539999999999999897 ), #280 );
#66 = CYLINDRICAL_SURFACE ( 'NONE', #270, 0.2500000000000000555 ) ;
#67 = ADVANCED_FACE ( 'NONE', ( #212 ), #235, .T. ) ;
#68 = DIRECTION ( 'NONE',  ( -5.156407575357275299E-17, 1.000000000000000000, -0.000000000000000000 ) ) ;
#69 = CARTESIAN_POINT ( 'NONE',  ( 3.061616997868383018E-17, 1.625000000000000000, 0.2500000000000000000 ) ) ;
#70 = SURFACE_SIDE_STYLE ('',( #94 ) ) ;
#71 = CARTESIAN_POINT ( 'NONE',  ( 3.323567385400236968E-34, 1.625000000000000000, 0.000000000000000000 ) ) ;
#72 = STYLED_ITEM ( 'NONE', ( #52 ), #51 ) ;
#73 = SURFACE_STYLE_USAGE ( .BOTH. , #119 ) ;
#74 = DIRECTION ( 'NONE',  ( 0.000000000000000000, 0.000000000000000000, -1.000000000000000000 ) ) ;
#75 = DIRECTION ( 'NONE',  ( -5.156407575357275916E-17, 1.000000000000000000, -0.000000000000000000 ) ) ;
#76 = CARTESIAN_POINT ( 'NONE',  ( 0.000000000000000000, 0.000000000000000000, 0.000000000000000000 ) ) ;
#77 = VECTOR ( 'NONE', #133, 39.37007874015748143 ) ;
#78 =( GEOMETRIC_REPRESENTATION_CONTEXT ( 3 ) GLOBAL_UNCERTAINTY_ASSIGNED_CONTEXT ( ( #36 ) ) GLOBAL_UNIT_ASSIGNED_CONTEXT ( ( #290, #47, #49 ) ) REPRESENTATION_CONTEXT ( 'NONE', 'WORKASPACE' ) );
#79 = PRESENTATION_STYLE_ASSIGNMENT (( #27 ) ) ;
#80 = FILL_AREA_STYLE_COLOUR ( '', #126 ) ;
#81 = APPLICATION_CONTEXT ( 'automotive_design' ) ;
#82 = ORIENTED_EDGE ( 'NONE', *, *, #124, .T. ) ;
#83 = MECHANICAL_DESIGN_GEOMETRIC_PRESENTATION_REPRESENTATION (  '', ( #109 ), #288 ) ;
#84 = EDGE_CURVE ( 'NONE', #148, #171, #17, .T. ) ;
#85 = EDGE_LOOP ( 'NONE', ( #220, #228, #57, #122 ) ) ;
#86 = SURFACE_SIDE_STYLE ('',( #255 ) ) ;
#87 = SURFACE_STYLE_USAGE ( .BOTH. , #262 ) ;
#88 = CARTESIAN_POINT ( 'NONE',  ( 0.000000000000000000, 1.625000000000000000, 0.000000000000000000 ) ) ;
#89 = DIMENSIONAL_EXPONENTS ( 1.000000000000000000, 0.000000000000000000, 0.000000000000000000, 0.000000000000000000, 0.000000000000000000, 0.000000000000000000, 0.000000000000000000 ) ;
#90 = FILL_AREA_STYLE_COLOUR ( '', #128 ) ;
#91 = CIRCLE ( 'NONE', #149, 0.2500000000000000000 ) ;
#92 = FACE_OUTER_BOUND ( 'NONE', #60, .T. ) ;
#93 = LENGTH_MEASURE_WITH_UNIT ( LENGTH_MEASURE( 0.02539999999999999897 ), #206 );
#94 = SURFACE_STYLE_FILL_AREA ( #144 ) ;
#95 =( GEOMETRIC_REPRESENTATION_CONTEXT ( 3 ) GLOBAL_UNCERTAINTY_ASSIGNED_CONTEXT ( ( #248 ) ) GLOBAL_UNIT_ASSIGNED_CONTEXT ( ( #201, #12, #229 ) ) REPRESENTATION_CONTEXT ( 'NONE', 'WORKASPACE' ) );
#96 = DIRECTION ( 'NONE',  ( 0.000000000000000000, 0.000000000000000000, 1.000000000000000000 ) ) ;
#97 =( NAMED_UNIT ( * ) SI_UNIT ( $, .STERADIAN. ) SOLID_ANGLE_UNIT ( ) );
#98 = SURFACE_SIDE_STYLE ('',( #273 ) ) ;
#99 = ORIENTED_EDGE ( 'NONE', *, *, #238, .T. ) ;
#100 = LENGTH_MEASURE_WITH_UNIT ( LENGTH_MEASURE( 0.02539999999999999897 ), #271 );
#101 = PRESENTATION_LAYER_ASSIGNMENT (  '', '', ( #205 ) ) ;
#102 =( NAMED_UNIT ( * ) SI_UNIT ( $, .STERADIAN. ) SOLID_ANGLE_UNIT ( ) );
#103 = EDGE_LOOP ( 'NONE', ( #106, #127, #99, #219 ) ) ;
#104 = PRESENTATION_LAYER_ASSIGNMENT (  '', '', ( #308 ) ) ;
#105 = DIMENSIONAL_EXPONENTS ( 1.000000000000000000, 0.000000000000000000, 0.000000000000000000, 0.000000000000000000, 0.000000000000000000, 0.000000000000000000, 0.000000000000000000 ) ;
#106 = ORIENTED_EDGE ( 'NONE', *, *, #140, .F. ) ;
#107 = ORIENTED_EDGE ( 'NONE', *, *, #54, .T. ) ;
#108 = FILL_AREA_STYLE_COLOUR ( '', #277 ) ;
#109 = STYLED_ITEM ( 'NONE', ( #79 ), #33 ) ;
#110 = FILL_AREA_STYLE_COLOUR ( '', #134 ) ;
#111 = SURFACE_STYLE_USAGE ( .BOTH. , #86 ) ;
#112 = DIMENSIONAL_EXPONENTS ( 1.000000000000000000, 0.000000000000000000, 0.000000000000000000, 0.000000000000000000, 0.000000000000000000, 0.000000000000000000, 0.000000000000000000 ) ;
#113 = ADVANCED_FACE ( 'NONE', ( #218 ), #146, .F. ) ;
#114 = DIRECTION ( 'NONE',  ( 0.000000000000000000, 0.000000000000000000, -1.000000000000000000 ) ) ;
#115 = CARTESIAN_POINT ( 'NONE',  ( 0.000000000000000000, 0.000000000000000000, 0.000000000000000000 ) ) ;
#116 = VECTOR ( 'NONE', #178, 39.37007874015748143 ) ;
#117 = AXIS2_PLACEMENT_3D ( 'NONE', #121, #96, #289 ) ;
#118 = DIRECTION ( 'NONE',  ( -0.000000000000000000, -1.000000000000000000, -0.000000000000000000 ) ) ;
#119 = SURFACE_SIDE_STYLE ('',( #158 ) ) ;
#120 = ADVANCED_FACE ( 'NONE', ( #283 ), #66, .T. ) ;
#121 = CARTESIAN_POINT ( 'NONE',  ( 0.000000000000000000, 0.000000000000000000, 0.000000000000000000 ) ) ;
#122 = ORIENTED_EDGE ( 'NONE', *, *, #28, .F. ) ;
#123 = PLANE ( 'NONE',  #147 ) ;
#124 = EDGE_CURVE ( 'NONE', #222, #261, #58, .T. ) ;
#125 =( LENGTH_UNIT ( ) NAMED_UNIT ( * ) SI_UNIT ( $, .METRE. ) );
#126 = COLOUR_RGB ( '',1.000000000000000000, 0.000000000000000000, 0.000000000000000000 ) ;
#127 = ORIENTED_EDGE ( 'NONE', *, *, #282, .T. ) ;
#128 = COLOUR_RGB ( '',1.000000000000000000, 0.000000000000000000, 0.000000000000000000 ) ;
#129 = AXIS2_PLACEMENT_3D ( 'NONE', #245, #306, #74 ) ;
#130 = FILL_AREA_STYLE ('',( #90 ) ) ;
#131 = DIRECTION ( 'NONE',  ( -5.156407575357275299E-17, 1.000000000000000000, -0.000000000000000000 ) ) ;
#132 = LINE ( 'NONE', #307, #210 ) ;
#133 = DIRECTION ( 'NONE',  ( -0.000000000000000000, -1.000000000000000000, -0.000000000000000000 ) ) ;
#134 = COLOUR_RGB ( '',0.7921568627450980005, 0.8196078431372548767, 0.9333333333333333481 ) ;
#135 = PRODUCT_RELATED_PRODUCT_CATEGORY ( 'part', '', ( #38 ) ) ;
#136 = ORIENTED_EDGE ( 'NONE', *, *, #272, .T. ) ;
#137 = FACE_OUTER_BOUND ( 'NONE', #184, .T. ) ;
#138 =( NAMED_UNIT ( * ) PLANE_ANGLE_UNIT ( ) SI_UNIT ( $, .RADIAN. ) );
#139 = CIRCLE ( 'NONE', #39, 0.2500000000000001110 ) ;
#140 = EDGE_CURVE ( 'NONE', #261, #64, #62, .T. ) ;
#141 = DIRECTION ( 'NONE',  ( -5.156407575357275299E-17, 1.000000000000000000, -0.000000000000000000 ) ) ;
#142 = CARTESIAN_POINT ( 'NONE',  ( 3.032960542342103792E-32, 1.625000000000000000, 0.000000000000000000 ) ) ;
#143 = CLOSED_SHELL ( 'NONE', ( #120, #9, #170, #113 ) ) ;
#144 = FILL_AREA_STYLE ('',( #46 ) ) ;
#145 =( LENGTH_UNIT ( ) NAMED_UNIT ( * ) SI_UNIT ( $, .METRE. ) );
#146 = PLANE ( 'NONE',  #281 ) ;
#147 = AXIS2_PLACEMENT_3D ( 'NONE', #76, #213, #268 ) ;
#148 = VERTEX_POINT ( 'NONE', #227 ) ;
#149 = AXIS2_PLACEMENT_3D ( 'NONE', #232, #216, #182 ) ;
#150 = STYLED_ITEM ( 'NONE', ( #244 ), #291 ) ;
#151 = DIRECTION ( 'NONE',  ( -1.000000000000000000, 0.000000000000000000, 0.000000000000000000 ) ) ;
#152 = CARTESIAN_POINT ( 'NONE',  ( 3.032960542342103792E-32, 1.625000000000000000, 0.000000000000000000 ) ) ;
#153 = ORIENTED_EDGE ( 'NONE', *, *, #84, .F. ) ;
#154 = FACE_OUTER_BOUND ( 'NONE', #169, .T. ) ;
#155 = DIRECTION ( 'NONE',  ( -1.000000000000000000, -5.156407575357275916E-17, 0.000000000000000000 ) ) ;
#156 = EDGE_LOOP ( 'NONE', ( #136, #249 ) ) ;
#157 = AXIS2_PLACEMENT_3D ( 'NONE', #88, #279, #174 ) ;
#158 = SURFACE_STYLE_FILL_AREA ( #200 ) ;
#159 = UNCERTAINTY_MEASURE_WITH_UNIT (LENGTH_MEASURE( 1.000000000000000082E-05 ), #217, 'distance_accuracy_value', 'NONE');
#160 = CARTESIAN_POINT ( 'NONE',  ( 0.000000000000000000, 0.000000000000000000, -0.2500000000000000000 ) ) ;
#161 = ADVANCED_FACE ( 'NONE', ( #154 ), #233, .T. ) ;
#162 = CIRCLE ( 'NONE', #274, 0.2500000000000000000 ) ;
#163 =( GEOMETRIC_REPRESENTATION_CONTEXT ( 3 ) GLOBAL_UNCERTAINTY_ASSIGNED_CONTEXT ( ( #10 ) ) GLOBAL_UNIT_ASSIGNED_CONTEXT ( ( #23, #243, #97 ) ) REPRESENTATION_CONTEXT ( 'NONE', 'WORKASPACE' ) );
#164 =( CONVERSION_BASED_UNIT ( 'INCH', #93 ) LENGTH_UNIT ( ) NAMED_UNIT ( #11 ) );
#165 = FILL_AREA_STYLE ('',( #309 ) ) ;
#166 = SURFACE_SIDE_STYLE ('',( #266 ) ) ;
#167 = DIRECTION ( 'NONE',  ( -1.000000000000000000, 0.000000000000000000, 0.000000000000000000 ) ) ;
#168 = FILL_AREA_STYLE ('',( #80 ) ) ;
#169 = EDGE_LOOP ( 'NONE', ( #82, #226, #296, #186 ) ) ;
#170 = ADVANCED_FACE ( 'NONE', ( #92 ), #303, .T. ) ;
#171 = VERTEX_POINT ( 'NONE', #177 ) ;
#172 = PRESENTATION_LAYER_ASSIGNMENT (  '', '', ( #72 ) ) ;
#173 = PRESENTATION_STYLE_ASSIGNMENT (( #111 ) ) ;
#174 = DIRECTION ( 'NONE',  ( 0.000000000000000000, 0.000000000000000000, -1.000000000000000000 ) ) ;
#175 = CARTESIAN_POINT ( 'NONE',  ( -1.224646799147352714E-16, 4.000000000000000000, 0.000000000000000000 ) ) ;
#176 = CARTESIAN_POINT ( 'NONE',  ( 0.2499999999999999167, 4.000000000000000000, 3.061616997868383634E-17 ) ) ;
#177 = CARTESIAN_POINT ( 'NONE',  ( -0.2500000000000000000, 1.625000000000000000, 0.000000000000000000 ) ) ;
#178 = DIRECTION ( 'NONE',  ( -5.156407575357275916E-17, 1.000000000000000000, -0.000000000000000000 ) ) ;
#179 = PRODUCT_CONTEXT ( 'NONE', #61, 'mechanical' ) ;
#180 = SURFACE_STYLE_USAGE ( .BOTH. , #70 ) ;
#181 = SHAPE_DEFINITION_REPRESENTATION ( #302, #25 ) ;
#182 = DIRECTION ( 'NONE',  ( 0.000000000000000000, 0.000000000000000000, -1.000000000000000000 ) ) ;
#183 = CARTESIAN_POINT ( 'NONE',  ( 0.2500000000000000555, 4.000000000000000000, 3.061616997868384251E-17 ) ) ;
#184 = EDGE_LOOP ( 'NONE', ( #189, #153 ) ) ;
#185 =( CONVERSION_BASED_UNIT ( 'INCH', #100 ) LENGTH_UNIT ( ) NAMED_UNIT ( #112 ) );
#186 = ORIENTED_EDGE ( 'NONE', *, *, #238, .F. ) ;
#187 = ORIENTED_EDGE ( 'NONE', *, *, #2, .F. ) ;
#188 = LENGTH_MEASURE_WITH_UNIT ( LENGTH_MEASURE( 0.02539999999999999897 ), #125 );
#189 = ORIENTED_EDGE ( 'NONE', *, *, #211, .F. ) ;
#190 = PRESENTATION_LAYER_ASSIGNMENT (  '', '', ( #109 ) ) ;
#191 = DIRECTION ( 'NONE',  ( 0.000000000000000000, 1.000000000000000000, 0.000000000000000000 ) ) ;
#192 = CARTESIAN_POINT ( 'NONE',  ( -0.2500000000000002776, 4.000000000000000000, 0.000000000000000000 ) ) ;
#193 = DIRECTION ( 'NONE',  ( -1.000000000000000000, 0.000000000000000000, 0.000000000000000000 ) ) ;
#194 = EDGE_LOOP ( 'NONE', ( #30, #196 ) ) ;
#195 = CARTESIAN_POINT ( 'NONE',  ( 0.000000000000000000, 0.000000000000000000, 0.000000000000000000 ) ) ;
#196 = ORIENTED_EDGE ( 'NONE', *, *, #282, .F. ) ;
#197 = VERTEX_POINT ( 'NONE', #284 ) ;
#198 = CIRCLE ( 'NONE', #6, 0.2500000000000000000 ) ;
#199 = PRESENTATION_STYLE_ASSIGNMENT (( #87 ) ) ;
#200 = FILL_AREA_STYLE ('',( #110 ) ) ;
#201 =( CONVERSION_BASED_UNIT ( 'INCH', #65 ) LENGTH_UNIT ( ) NAMED_UNIT ( #297 ) );
#202 = EDGE_LOOP ( 'NONE', ( #275, #107 ) ) ;
#203 = FILL_AREA_STYLE ('',( #108 ) ) ;
#204 = DIRECTION ( 'NONE',  ( -1.000000000000000000, 0.000000000000000000, 0.000000000000000000 ) ) ;
#205 = STYLED_ITEM ( 'NONE', ( #285 ), #259 ) ;
#206 =( LENGTH_UNIT ( ) NAMED_UNIT ( * ) SI_UNIT ( $, .METRE. ) );
#207 = SURFACE_STYLE_USAGE ( .BOTH. , #166 ) ;
#208 = CARTESIAN_POINT ( 'NONE',  ( -1.224646799147352714E-16, 4.000000000000000000, 0.000000000000000000 ) ) ;
#209 =( NAMED_UNIT ( * ) SI_UNIT ( $, .STERADIAN. ) SOLID_ANGLE_UNIT ( ) );
#210 = VECTOR ( 'NONE', #75, 39.37007874015748143 ) ;
#211 = EDGE_CURVE ( 'NONE', #171, #148, #162, .T. ) ;
#212 = FACE_OUTER_BOUND ( 'NONE', #103, .T. ) ;
#213 = DIRECTION ( 'NONE',  ( 0.000000000000000000, -1.000000000000000000, -0.000000000000000000 ) ) ;
#214 = DIRECTION ( 'NONE',  ( 5.156407575357275916E-17, -1.000000000000000000, 0.000000000000000000 ) ) ;
#215 = MECHANICAL_DESIGN_GEOMETRIC_PRESENTATION_REPRESENTATION (  '', ( #308 ), #95 ) ;
#216 = DIRECTION ( 'NONE',  ( -0.000000000000000000, -1.000000000000000000, -0.000000000000000000 ) ) ;
#217 =( CONVERSION_BASED_UNIT ( 'INCH', #188 ) LENGTH_UNIT ( ) NAMED_UNIT ( #105 ) );
#218 = FACE_OUTER_BOUND ( 'NONE', #156, .T. ) ;
#219 = ORIENTED_EDGE ( 'NONE', *, *, #54, .F. ) ;
#220 = ORIENTED_EDGE ( 'NONE', *, *, #211, .T. ) ;
#221 = UNCERTAINTY_MEASURE_WITH_UNIT (LENGTH_MEASURE( 1.000000000000000082E-05 ), #164, 'distance_accuracy_value', 'NONE');
#222 = VERTEX_POINT ( 'NONE', #252 ) ;
#223 = AXIS2_PLACEMENT_3D ( 'NONE', #142, #31, #193 ) ;
#224 = DIMENSIONAL_EXPONENTS ( 1.000000000000000000, 0.000000000000000000, 0.000000000000000000, 0.000000000000000000, 0.000000000000000000, 0.000000000000000000, 0.000000000000000000 ) ;
#225 = LENGTH_MEASURE_WITH_UNIT ( LENGTH_MEASURE( 0.02539999999999999897 ), #145 );
#226 = ORIENTED_EDGE ( 'NONE', *, *, #140, .T. ) ;
#227 = CARTESIAN_POINT ( 'NONE',  ( 0.2500000000000000555, 1.625000000000000000, 3.061616997868384251E-17 ) ) ;
#228 = ORIENTED_EDGE ( 'NONE', *, *, #2, .T. ) ;
#229 =( NAMED_UNIT ( * ) SI_UNIT ( $, .STERADIAN. ) SOLID_ANGLE_UNIT ( ) );
#230 = DIRECTION ( 'NONE',  ( -5.156407575357275916E-17, 1.000000000000000000, 0.000000000000000000 ) ) ;
#231 = CARTESIAN_POINT ( 'NONE',  ( 3.061616997868383018E-17, 0.000000000000000000, 0.2500000000000000000 ) ) ;
#232 = CARTESIAN_POINT ( 'NONE',  ( 0.000000000000000000, 0.000000000000000000, 0.000000000000000000 ) ) ;
#233 = CYLINDRICAL_SURFACE ( 'NONE', #299, 0.2500000000000000000 ) ;
#234 = EDGE_CURVE ( 'NONE', #197, #64, #198, .T. ) ;
#235 = CYLINDRICAL_SURFACE ( 'NONE', #241, 0.2500000000000000000 ) ;
#236 = DIRECTION ( 'NONE',  ( -5.156407575357275299E-17, 1.000000000000000000, -0.000000000000000000 ) ) ;
#237 = CARTESIAN_POINT ( 'NONE',  ( -1.224646799147352714E-16, 4.000000000000000000, 0.000000000000000000 ) ) ;
#238 = EDGE_CURVE ( 'NONE', #222, #197, #264, .T. ) ;
#239 =( CONVERSION_BASED_UNIT ( 'INCH', #225 ) LENGTH_UNIT ( ) NAMED_UNIT ( #89 ) );
#240 =( LENGTH_UNIT ( ) NAMED_UNIT ( * ) SI_UNIT ( $, .METRE. ) );
#241 = AXIS2_PLACEMENT_3D ( 'NONE', #115, #45, #305 ) ;
#242 = MECHANICAL_DESIGN_GEOMETRIC_PRESENTATION_REPRESENTATION (  '', ( #150 ), #78 ) ;
#243 =( NAMED_UNIT ( * ) PLANE_ANGLE_UNIT ( ) SI_UNIT ( $, .RADIAN. ) );
#244 = PRESENTATION_STYLE_ASSIGNMENT (( #207 ) ) ;
#245 = CARTESIAN_POINT ( 'NONE',  ( 0.000000000000000000, 1.625000000000000000, 0.000000000000000000 ) ) ;
#246 = AXIS2_PLACEMENT_3D ( 'NONE', #71, #230, #155 ) ;
#247 = FACE_OUTER_BOUND ( 'NONE', #194, .T. ) ;
#248 = UNCERTAINTY_MEASURE_WITH_UNIT (LENGTH_MEASURE( 1.000000000000000082E-05 ), #201, 'distance_accuracy_value', 'NONE');
#249 = ORIENTED_EDGE ( 'NONE', *, *, #5, .T. ) ;
#250 =( GEOMETRIC_REPRESENTATION_CONTEXT ( 3 ) GLOBAL_UNCERTAINTY_ASSIGNED_CONTEXT ( ( #269 ) ) GLOBAL_UNIT_ASSIGNED_CONTEXT ( ( #185, #301, #1 ) ) REPRESENTATION_CONTEXT ( 'NONE', 'WORKASPACE' ) );
#251 = CIRCLE ( 'NONE', #276, 0.2500000000000001110 ) ;
#252 = CARTESIAN_POINT ( 'NONE',  ( 0.000000000000000000, 1.625000000000000000, -0.2500000000000000000 ) ) ;
#253 = PLANE ( 'NONE',  #293 ) ;
#254 = CARTESIAN_POINT ( 'NONE',  ( 0.000000000000000000, 1.625000000000000000, 0.000000000000000000 ) ) ;
#255 = SURFACE_STYLE_FILL_AREA ( #130 ) ;
#256 = ORIENTED_EDGE ( 'NONE', *, *, #84, .T. ) ;
#257 = MECHANICAL_DESIGN_GEOMETRIC_PRESENTATION_REPRESENTATION (  '', ( #263 ), #250 ) ;
#258 =( GEOMETRIC_REPRESENTATION_CONTEXT ( 3 ) GLOBAL_UNCERTAINTY_ASSIGNED_CONTEXT ( ( #159 ) ) GLOBAL_UNIT_ASSIGNED_CONTEXT ( ( #217, #294, #102 ) ) REPRESENTATION_CONTEXT ( 'NONE', 'WORKASPACE' ) );
#259 = MANIFOLD_SOLID_BREP ( 'Revolve - Cutting Edge', #278 ) ;
#260 = DIRECTION ( 'NONE',  ( -1.000000000000000000, 0.000000000000000000, 0.000000000000000000 ) ) ;
#261 = VERTEX_POINT ( 'NONE', #69 ) ;
#262 = SURFACE_SIDE_STYLE ('',( #40 ) ) ;
#263 = STYLED_ITEM ( 'NONE', ( #199 ), #67 ) ;
#264 = LINE ( 'NONE', #160, #35 ) ;
#265 = CIRCLE ( 'NONE', #129, 0.2500000000000000000 ) ;
#266 = SURFACE_STYLE_FILL_AREA ( #165 ) ;
#267 = APPLICATION_PROTOCOL_DEFINITION ( 'draft international standard', 'automotive_design', 1998, #61 ) ;
#268 = DIRECTION ( 'NONE',  ( 0.000000000000000000, 0.000000000000000000, -1.000000000000000000 ) ) ;
#269 = UNCERTAINTY_MEASURE_WITH_UNIT (LENGTH_MEASURE( 1.000000000000000082E-05 ), #185, 'distance_accuracy_value', 'NONE');
#270 = AXIS2_PLACEMENT_3D ( 'NONE', #175, #37, #260 ) ;
#271 =( LENGTH_UNIT ( ) NAMED_UNIT ( * ) SI_UNIT ( $, .METRE. ) );
#272 = EDGE_CURVE ( 'NONE', #50, #63, #251, .T. ) ;
#273 = SURFACE_STYLE_FILL_AREA ( #168 ) ;
#274 = AXIS2_PLACEMENT_3D ( 'NONE', #152, #131, #151 ) ;
#275 = ORIENTED_EDGE ( 'NONE', *, *, #234, .T. ) ;
#276 = AXIS2_PLACEMENT_3D ( 'NONE', #208, #141, #167 ) ;
#277 = COLOUR_RGB ( '',1.000000000000000000, 0.000000000000000000, 0.000000000000000000 ) ;
#278 = CLOSED_SHELL ( 'NONE', ( #161, #33, #67, #291 ) ) ;
#279 = DIRECTION ( 'NONE',  ( -0.000000000000000000, -1.000000000000000000, -0.000000000000000000 ) ) ;
#280 =( LENGTH_UNIT ( ) NAMED_UNIT ( * ) SI_UNIT ( $, .METRE. ) );
#281 = AXIS2_PLACEMENT_3D ( 'NONE', #34, #214, #300 ) ;
#282 = EDGE_CURVE ( 'NONE', #261, #222, #265, .T. ) ;
#283 = FACE_OUTER_BOUND ( 'NONE', #85, .T. ) ;
#284 = CARTESIAN_POINT ( 'NONE',  ( 0.000000000000000000, 0.000000000000000000, -0.2500000000000000000 ) ) ;
#285 = PRESENTATION_STYLE_ASSIGNMENT (( #180 ) ) ;
#286 = APPLICATION_PROTOCOL_DEFINITION ( 'draft international standard', 'automotive_design', 1998, #81 ) ;
#287 =( NAMED_UNIT ( * ) PLANE_ANGLE_UNIT ( ) SI_UNIT ( $, .RADIAN. ) );
#288 =( GEOMETRIC_REPRESENTATION_CONTEXT ( 3 ) GLOBAL_UNCERTAINTY_ASSIGNED_CONTEXT ( ( #56 ) ) GLOBAL_UNIT_ASSIGNED_CONTEXT ( ( #239, #138, #209 ) ) REPRESENTATION_CONTEXT ( 'NONE', 'WORKASPACE' ) );
#289 = DIRECTION ( 'NONE',  ( 1.000000000000000000, 0.000000000000000000, 0.000000000000000000 ) ) ;
#290 =( CONVERSION_BASED_UNIT ( 'INCH', #3 ) LENGTH_UNIT ( ) NAMED_UNIT ( #32 ) );
#291 = ADVANCED_FACE ( 'NONE', ( #19 ), #123, .T. ) ;
#292 = LENGTH_MEASURE_WITH_UNIT ( LENGTH_MEASURE( 0.02539999999999999897 ), #240 );
#293 = AXIS2_PLACEMENT_3D ( 'NONE', #254, #191, #55 ) ;
#294 =( NAMED_UNIT ( * ) PLANE_ANGLE_UNIT ( ) SI_UNIT ( $, .RADIAN. ) );
#295 = PRODUCT_DEFINITION_FORMATION_WITH_SPECIFIED_SOURCE ( 'ANY', '', #38, .NOT_KNOWN. ) ;
#296 = ORIENTED_EDGE ( 'NONE', *, *, #234, .F. ) ;
#297 = DIMENSIONAL_EXPONENTS ( 1.000000000000000000, 0.000000000000000000, 0.000000000000000000, 0.000000000000000000, 0.000000000000000000, 0.000000000000000000, 0.000000000000000000 ) ;
#298 = DIRECTION ( 'NONE',  ( -0.000000000000000000, -1.000000000000000000, -0.000000000000000000 ) ) ;
#299 = AXIS2_PLACEMENT_3D ( 'NONE', #15, #41, #114 ) ;
#300 = DIRECTION ( 'NONE',  ( 1.000000000000000000, 5.156407575357275916E-17, 0.000000000000000000 ) ) ;
#301 =( NAMED_UNIT ( * ) PLANE_ANGLE_UNIT ( ) SI_UNIT ( $, .RADIAN. ) );
#302 = PRODUCT_DEFINITION_SHAPE ( 'NONE', 'NONE',  #24 ) ;
#303 = CYLINDRICAL_SURFACE ( 'NONE', #22, 0.2500000000000000555 ) ;
#304 = PLANE ( 'NONE',  #246 ) ;
#305 = DIRECTION ( 'NONE',  ( 0.000000000000000000, 0.000000000000000000, -1.000000000000000000 ) ) ;
#306 = DIRECTION ( 'NONE',  ( -0.000000000000000000, -1.000000000000000000, -0.000000000000000000 ) ) ;
#307 = CARTESIAN_POINT ( 'NONE',  ( -0.2500000000000002220, 4.000000000000000000, 0.000000000000000000 ) ) ;
#308 = STYLED_ITEM ( 'NONE', ( #173 ), #161 ) ;
#309 = FILL_AREA_STYLE_COLOUR ( '', #29 ) ;
ENDSEC;
END-ISO-10303-21;
