ISO-10303-21;
HEADER;
FILE_DESCRIPTION (( 'STEP AP214' ),
    '1' );
FILE_NAME ('Micro_SFL-187-45.STEP',
    '2021-09-02T04:52:49',
    ( '' ),
    ( '' ),
    'SwSTEP 2.0',
    'SolidWorks 2020',
    '' );
FILE_SCHEMA (( 'AUTOMOTIVE_DESIGN' ));
ENDSEC;

DATA;
#1 = SURFACE_STYLE_USAGE ( .BOTH. , #50 ) ;
#2 = VERTEX_POINT ( 'NONE', #185 ) ;
#3 =( LENGTH_UNIT ( ) NAMED_UNIT ( * ) SI_UNIT ( $, .METRE. ) );
#4 = ORIENTED_EDGE ( 'NONE', *, *, #219, .F. ) ;
#5 =( GEOMETRIC_REPRESENTATION_CONTEXT ( 3 ) GLOBAL_UNCERTAINTY_ASSIGNED_CONTEXT ( ( #177 ) ) GLOBAL_UNIT_ASSIGNED_CONTEXT ( ( #47, #92, #71 ) ) REPRESENTATION_CONTEXT ( 'NONE', 'WORKASPACE' ) );
#6 = DIRECTION ( 'NONE',  ( -1.224646799147353207E-16, -0.0000000000000000000, -1.000000000000000000 ) ) ;
#7 = PRODUCT_CONTEXT ( 'NONE', #279, 'mechanical' ) ;
#8 = LINE ( 'NONE', #255, #176 ) ;
#9 = AXIS2_PLACEMENT_3D ( 'NONE', #233, #209, #150 ) ;
#10 = CONICAL_SURFACE ( 'NONE', #152, 0.09365624999999999645, 0.1745329251994338915 ) ;
#11 = CARTESIAN_POINT ( 'NONE',  ( 0.0000000000000000000, 0.0000000000000000000, 1.984999999999999432 ) ) ;
#12 = ORIENTED_EDGE ( 'NONE', *, *, #116, .T. ) ;
#13 = DIRECTION ( 'NONE',  ( -1.224646799147353207E-16, -0.0000000000000000000, -1.000000000000000000 ) ) ;
#14 = CARTESIAN_POINT ( 'NONE',  ( 1.404618771449245766E-33, 0.0000000000000000000, 1.146958267826442798E-17 ) ) ;
#15 = PRODUCT_DEFINITION_CONTEXT ( 'detailed design', #292, 'design' ) ;
#16 = CARTESIAN_POINT ( 'NONE',  ( -0.1099999999999996397, 0.0000000000000000000, 2.000000000000000000 ) ) ;
#17 = CARTESIAN_POINT ( 'NONE',  ( 7.654042494670957853E-17, 0.0000000000000000000, 0.6250000000000000000 ) ) ;
#18 = CARTESIAN_POINT ( 'NONE',  ( 9.830965331808376686E-17, 0.0000000000000000000, 0.8027592395336416997 ) ) ;
#19 = AXIS2_PLACEMENT_3D ( 'NONE', #40, #216, #132 ) ;
#20 = MECHANICAL_DESIGN_GEOMETRIC_PRESENTATION_REPRESENTATION (  '', ( #136 ), #5 ) ;
#21 =( NAMED_UNIT ( * ) PLANE_ANGLE_UNIT ( ) SI_UNIT ( $, .RADIAN. ) );
#22 = CARTESIAN_POINT ( 'NONE',  ( 0.0000000000000000000, 0.0000000000000000000, 1.984999999999999432 ) ) ;
#23 = ORIENTED_EDGE ( 'NONE', *, *, #169, .F. ) ;
#24 = EDGE_LOOP ( 'NONE', ( #204, #120, #276, #139 ) ) ;
#25 = CIRCLE ( 'NONE', #55, 0.09365624999999999645 ) ;
#26 = APPLICATION_PROTOCOL_DEFINITION ( 'draft international standard', 'automotive_design', 1998, #279 ) ;
#27 = EDGE_LOOP ( 'NONE', ( #97, #151, #118, #227 ) ) ;
#28 = FACE_OUTER_BOUND ( 'NONE', #24, .T. ) ;
#29 = CONICAL_SURFACE ( 'NONE', #253, 0.1099999999999996397, 0.7853981633974426169 ) ;
#30 = COLOUR_RGB ( '',0.7921568627450980005, 0.8196078431372548767, 0.9333333333333333481 ) ;
#31 = DIRECTION ( 'NONE',  ( -0.0000000000000000000, -0.0000000000000000000, -1.000000000000000000 ) ) ;
#32 = SHAPE_DEFINITION_REPRESENTATION ( #78, #189 ) ;
#33 = DIRECTION ( 'NONE',  ( -0.0000000000000000000, -0.0000000000000000000, -1.000000000000000000 ) ) ;
#34 = VERTEX_POINT ( 'NONE', #146 ) ;
#35 = CONICAL_SURFACE ( 'NONE', #188, 0.1099999999999996397, 0.7853981633974426169 ) ;
#36 = DIRECTION ( 'NONE',  ( 0.0000000000000000000, 0.0000000000000000000, -1.000000000000000000 ) ) ;
#37 = DIRECTION ( 'NONE',  ( 1.000000000000000000, 0.0000000000000000000, 0.0000000000000000000 ) ) ;
#38 = FACE_OUTER_BOUND ( 'NONE', #27, .T. ) ;
#39 = AXIS2_PLACEMENT_3D ( 'NONE', #90, #134, #37 ) ;
#40 = CARTESIAN_POINT ( 'NONE',  ( 0.0000000000000000000, 0.0000000000000000000, 0.0000000000000000000 ) ) ;
#41 = LINE ( 'NONE', #214, #259 ) ;
#42 = DIMENSIONAL_EXPONENTS ( 1.000000000000000000, 0.0000000000000000000, 0.0000000000000000000, 0.0000000000000000000, 0.0000000000000000000, 0.0000000000000000000, 0.0000000000000000000 ) ;
#43 = EDGE_CURVE ( 'NONE', #124, #143, #140, .T. ) ;
#44 = DIRECTION ( 'NONE',  ( -1.000000000000000000, 0.0000000000000000000, 0.0000000000000000000 ) ) ;
#45 = VECTOR ( 'NONE', #130, 39.37007874015747433 ) ;
#46 = VECTOR ( 'NONE', #296, 39.37007874015748143 ) ;
#47 =( CONVERSION_BASED_UNIT ( 'INCH', #294 ) LENGTH_UNIT ( ) NAMED_UNIT ( #70 ) );
#48 = ORIENTED_EDGE ( 'NONE', *, *, #205, .T. ) ;
#49 = VECTOR ( 'NONE', #102, 39.37007874015748143 ) ;
#50 = SURFACE_SIDE_STYLE ('',( #203 ) ) ;
#51 = ADVANCED_FACE ( 'NONE', ( #104 ), #105, .T. ) ;
#52 = DIRECTION ( 'NONE',  ( 1.000000000000000000, 0.0000000000000000000, 0.0000000000000000000 ) ) ;
#53 = ORIENTED_EDGE ( 'NONE', *, *, #205, .F. ) ;
#54 = ORIENTED_EDGE ( 'NONE', *, *, #106, .T. ) ;
#55 = AXIS2_PLACEMENT_3D ( 'NONE', #14, #68, #88 ) ;
#56 = ORIENTED_EDGE ( 'NONE', *, *, #264, .F. ) ;
#57 = ORIENTED_EDGE ( 'NONE', *, *, #158, .T. ) ;
#58 = DIRECTION ( 'NONE',  ( -1.224646799147353207E-16, -0.0000000000000000000, -1.000000000000000000 ) ) ;
#59 = AXIS2_PLACEMENT_3D ( 'NONE', #81, #58, #260 ) ;
#60 = AXIS2_PLACEMENT_3D ( 'NONE', #117, #298, #112 ) ;
#61 = ORIENTED_EDGE ( 'NONE', *, *, #164, .F. ) ;
#62 = CARTESIAN_POINT ( 'NONE',  ( -0.09365624999999992706, 1.146958267826442798E-17, 0.6250000000000000000 ) ) ;
#63 = UNCERTAINTY_MEASURE_WITH_UNIT (LENGTH_MEASURE( 1.000000000000000082E-05 ), #275, 'distance_accuracy_value', 'NONE');
#64 = DIRECTION ( 'NONE',  ( -0.7071067811865434649, 0.0000000000000000000, -0.7071067811865515695 ) ) ;
#65 = AXIS2_PLACEMENT_3D ( 'NONE', #126, #230, #52 ) ;
#66 = DIRECTION ( 'NONE',  ( 1.000000000000000000, 0.0000000000000000000, -0.0000000000000000000 ) ) ;
#67 = EDGE_CURVE ( 'NONE', #100, #297, #108, .T. ) ;
#68 = DIRECTION ( 'NONE',  ( -1.224646799147353207E-16, -0.0000000000000000000, -1.000000000000000000 ) ) ;
#69 = DIRECTION ( 'NONE',  ( -1.000000000000000000, 0.0000000000000000000, 1.224646799147352961E-16 ) ) ;
#70 = DIMENSIONAL_EXPONENTS ( 1.000000000000000000, 0.0000000000000000000, 0.0000000000000000000, 0.0000000000000000000, 0.0000000000000000000, 0.0000000000000000000, 0.0000000000000000000 ) ;
#71 =( NAMED_UNIT ( * ) SI_UNIT ( $, .STERADIAN. ) SOLID_ANGLE_UNIT ( ) );
#72 = AXIS2_PLACEMENT_3D ( 'NONE', #268, #197, #242 ) ;
#73 = ORIENTED_EDGE ( 'NONE', *, *, #133, .F. ) ;
#74 = ORIENTED_EDGE ( 'NONE', *, *, #248, .T. ) ;
#75 = STYLED_ITEM ( 'NONE', ( #144 ), #189 ) ;
#76 = ADVANCED_FACE ( 'NONE', ( #231 ), #101, .T. ) ;
#77 = ORIENTED_EDGE ( 'NONE', *, *, #95, .F. ) ;
#78 = PRODUCT_DEFINITION_SHAPE ( 'NONE', 'NONE',  #221 ) ;
#79 = EDGE_LOOP ( 'NONE', ( #187, #145, #83, #23 ) ) ;
#80 = AXIS2_PLACEMENT_3D ( 'NONE', #125, #31, #190 ) ;
#81 = CARTESIAN_POINT ( 'NONE',  ( 0.0000000000000000000, 0.0000000000000000000, 0.0000000000000000000 ) ) ;
#82 = CARTESIAN_POINT ( 'NONE',  ( 7.654042494670957853E-17, 0.0000000000000000000, 0.6250000000000000000 ) ) ;
#83 = ORIENTED_EDGE ( 'NONE', *, *, #114, .T. ) ;
#84 = ADVANCED_FACE ( 'NONE', ( #28 ), #29, .T. ) ;
#85 = CIRCLE ( 'NONE', #72, 0.1099999999999996397 ) ;
#86 = DIRECTION ( 'NONE',  ( -1.224646799147353207E-16, -0.0000000000000000000, -1.000000000000000000 ) ) ;
#87 = PLANE ( 'NONE',  #89 ) ;
#88 = DIRECTION ( 'NONE',  ( -1.000000000000000000, 0.0000000000000000000, 1.224646799147352961E-16 ) ) ;
#89 = AXIS2_PLACEMENT_3D ( 'NONE', #289, #218, #66 ) ;
#90 = CARTESIAN_POINT ( 'NONE',  ( 9.830965331808376686E-17, 0.0000000000000000000, 0.8027592395336416997 ) ) ;
#91 = CARTESIAN_POINT ( 'NONE',  ( -0.1099999999999996397, 0.0000000000000000000, 2.000000000000000000 ) ) ;
#92 =( NAMED_UNIT ( * ) PLANE_ANGLE_UNIT ( ) SI_UNIT ( $, .RADIAN. ) );
#93 = COLOUR_RGB ( '',0.7921568627450980005, 0.8196078431372548767, 0.9333333333333333481 ) ;
#94 = EDGE_LOOP ( 'NONE', ( #278, #295 ) ) ;
#95 = EDGE_CURVE ( 'NONE', #287, #224, #272, .T. ) ;
#96 = DIRECTION ( 'NONE',  ( 0.0000000000000000000, 0.0000000000000000000, -1.000000000000000000 ) ) ;
#97 = ORIENTED_EDGE ( 'NONE', *, *, #158, .F. ) ;
#98 = EDGE_LOOP ( 'NONE', ( #53, #54, #168, #299 ) ) ;
#99 = CLOSED_SHELL ( 'NONE', ( #127, #160, #215, #51, #76, #256, #84, #235, #121, #208 ) ) ;
#100 = VERTEX_POINT ( 'NONE', #128 ) ;
#101 = CYLINDRICAL_SURFACE ( 'NONE', #80, 0.1250000000000000000 ) ;
#102 = DIRECTION ( 'NONE',  ( 0.7071067811865434649, 8.659560562354883554E-17, -0.7071067811865515695 ) ) ;
#103 = AXIS2_PLACEMENT_3D ( 'NONE', #291, #13, #69 ) ;
#104 = FACE_OUTER_BOUND ( 'NONE', #149, .T. ) ;
#105 = CYLINDRICAL_SURFACE ( 'NONE', #172, 0.1250000000000000000 ) ;
#106 = EDGE_CURVE ( 'NONE', #224, #287, #180, .T. ) ;
#107 = CARTESIAN_POINT ( 'NONE',  ( 0.09365624999999999645, 1.146958267826442798E-17, -1.146958267826442798E-17 ) ) ;
#108 = CIRCLE ( 'NONE', #183, 0.1250000000000000000 ) ;
#109 = FACE_OUTER_BOUND ( 'NONE', #251, .T. ) ;
#110 = LINE ( 'NONE', #62, #45 ) ;
#111 = DIRECTION ( 'NONE',  ( 1.000000000000000000, 0.0000000000000000000, 0.0000000000000000000 ) ) ;
#112 = DIRECTION ( 'NONE',  ( 1.000000000000000000, 0.0000000000000000000, -0.0000000000000000000 ) ) ;
#113 = ORIENTED_EDGE ( 'NONE', *, *, #164, .T. ) ;
#114 = EDGE_CURVE ( 'NONE', #297, #34, #8, .T. ) ;
#115 = VERTEX_POINT ( 'NONE', #170 ) ;
#116 = EDGE_CURVE ( 'NONE', #143, #100, #191, .T. ) ;
#117 = CARTESIAN_POINT ( 'NONE',  ( 0.0000000000000000000, 0.0000000000000000000, 2.000000000000000000 ) ) ;
#118 = ORIENTED_EDGE ( 'NONE', *, *, #264, .T. ) ;
#119 = DIMENSIONAL_EXPONENTS ( 1.000000000000000000, 0.0000000000000000000, 0.0000000000000000000, 0.0000000000000000000, 0.0000000000000000000, 0.0000000000000000000, 0.0000000000000000000 ) ;
#120 = ORIENTED_EDGE ( 'NONE', *, *, #43, .F. ) ;
#121 = ADVANCED_FACE ( 'NONE', ( #258 ), #213, .T. ) ;
#122 = DIRECTION ( 'NONE',  ( -1.224646799147353207E-16, -0.0000000000000000000, -1.000000000000000000 ) ) ;
#123 = DIRECTION ( 'NONE',  ( -1.000000000000000000, 0.0000000000000000000, 0.0000000000000000000 ) ) ;
#124 = VERTEX_POINT ( 'NONE', #91 ) ;
#125 = CARTESIAN_POINT ( 'NONE',  ( 0.0000000000000000000, 0.0000000000000000000, 2.000000000000000000 ) ) ;
#126 = CARTESIAN_POINT ( 'NONE',  ( 0.0000000000000000000, 0.0000000000000000000, 0.0000000000000000000 ) ) ;
#127 = ADVANCED_FACE ( 'NONE', ( #173 ), #178, .T. ) ;
#128 = CARTESIAN_POINT ( 'NONE',  ( 0.1250000000000000000, 1.530808498934191509E-17, 1.984999999999999432 ) ) ;
#129 = PRESENTATION_STYLE_ASSIGNMENT (( #263 ) ) ;
#130 = DIRECTION ( 'NONE',  ( -0.1736481776669311916, 2.126576849575783316E-17, 0.9848077530122080203 ) ) ;
#131 = AXIS2_PLACEMENT_3D ( 'NONE', #18, #196, #236 ) ;
#132 = DIRECTION ( 'NONE',  ( -1.000000000000000000, 0.0000000000000000000, 1.224646799147352961E-16 ) ) ;
#133 = EDGE_CURVE ( 'NONE', #287, #2, #41, .T. ) ;
#134 = DIRECTION ( 'NONE',  ( -1.224646799147353207E-16, -0.0000000000000000000, -1.000000000000000000 ) ) ;
#135 = LINE ( 'NONE', #16, #212 ) ;
#136 = STYLED_ITEM ( 'NONE', ( #129 ), #241 ) ;
#137 = PLANE ( 'NONE',  #60 ) ;
#138 = LENGTH_MEASURE_WITH_UNIT ( LENGTH_MEASURE( 0.02539999999999999897 ), #244 );
#139 = ORIENTED_EDGE ( 'NONE', *, *, #67, .F. ) ;
#140 = CIRCLE ( 'NONE', #9, 0.1099999999999996397 ) ;
#141 =( NAMED_UNIT ( * ) SI_UNIT ( $, .STERADIAN. ) SOLID_ANGLE_UNIT ( ) );
#142 = PRODUCT_DEFINITION_FORMATION_WITH_SPECIFIED_SOURCE ( 'ANY', '', #229, .NOT_KNOWN. ) ;
#143 = VERTEX_POINT ( 'NONE', #288 ) ;
#144 = PRESENTATION_STYLE_ASSIGNMENT (( #1 ) ) ;
#145 = ORIENTED_EDGE ( 'NONE', *, *, #67, .T. ) ;
#146 = CARTESIAN_POINT ( 'NONE',  ( -0.1249999999999999029, 0.0000000000000000000, 0.8027592395336416997 ) ) ;
#147 = PRESENTATION_LAYER_ASSIGNMENT (  '', '', ( #136 ) ) ;
#148 = APPLICATION_PROTOCOL_DEFINITION ( 'draft international standard', 'automotive_design', 1998, #292 ) ;
#149 = EDGE_LOOP ( 'NONE', ( #182, #74, #232, #226 ) ) ;
#150 = DIRECTION ( 'NONE',  ( 1.000000000000000000, 0.0000000000000000000, 0.0000000000000000000 ) ) ;
#151 = ORIENTED_EDGE ( 'NONE', *, *, #106, .F. ) ;
#152 = AXIS2_PLACEMENT_3D ( 'NONE', #198, #194, #111 ) ;
#153 = DIRECTION ( 'NONE',  ( 1.000000000000000000, 0.0000000000000000000, 0.0000000000000000000 ) ) ;
#154 = DIRECTION ( 'NONE',  ( -1.224646799147353207E-16, -0.0000000000000000000, -1.000000000000000000 ) ) ;
#155 = CARTESIAN_POINT ( 'NONE',  ( 0.09365625000000006584, 0.0000000000000000000, 0.6250000000000000000 ) ) ;
#156 = AXIS2_PLACEMENT_3D ( 'NONE', #285, #122, #207 ) ;
#157 = LINE ( 'NONE', #107, #280 ) ;
#158 = EDGE_CURVE ( 'NONE', #287, #34, #110, .T. ) ;
#159 = FILL_AREA_STYLE ('',( #267 ) ) ;
#160 = ADVANCED_FACE ( 'NONE', ( #262 ), #193, .T. ) ;
#161 = CIRCLE ( 'NONE', #103, 0.09365624999999999645 ) ;
#162 = CARTESIAN_POINT ( 'NONE',  ( -0.1250000000000000000, 0.0000000000000000000, 1.984999999999999432 ) ) ;
#163 = FILL_AREA_STYLE ('',( #273 ) ) ;
#164 = EDGE_CURVE ( 'NONE', #143, #124, #85, .T. ) ;
#165 = LINE ( 'NONE', #277, #266 ) ;
#166 = CARTESIAN_POINT ( 'NONE',  ( 0.0000000000000000000, 0.0000000000000000000, 2.000000000000000000 ) ) ;
#167 = ORIENTED_EDGE ( 'NONE', *, *, #200, .F. ) ;
#168 = ORIENTED_EDGE ( 'NONE', *, *, #133, .T. ) ;
#169 = EDGE_CURVE ( 'NONE', #115, #34, #254, .T. ) ;
#170 = CARTESIAN_POINT ( 'NONE',  ( 0.1250000000000001110, 1.530808498934192742E-17, 0.8027592395336416997 ) ) ;
#171 = ORIENTED_EDGE ( 'NONE', *, *, #43, .T. ) ;
#172 = AXIS2_PLACEMENT_3D ( 'NONE', #166, #283, #257 ) ;
#173 = FACE_OUTER_BOUND ( 'NONE', #199, .T. ) ;
#174 = SURFACE_SIDE_STYLE ('',( #238 ) ) ;
#175 = CARTESIAN_POINT ( 'NONE',  ( 0.09365624999999999645, 1.146958267826442798E-17, 0.0000000000000000000 ) ) ;
#176 = VECTOR ( 'NONE', #33, 39.37007874015748143 ) ;
#177 = UNCERTAINTY_MEASURE_WITH_UNIT (LENGTH_MEASURE( 1.000000000000000082E-05 ), #47, 'distance_accuracy_value', 'NONE');
#178 = CYLINDRICAL_SURFACE ( 'NONE', #19, 0.09365624999999999645 ) ;
#179 = CARTESIAN_POINT ( 'NONE',  ( -0.09365624999999992706, 1.338883383380317231E-17, 0.6250000000000000000 ) ) ;
#180 = CIRCLE ( 'NONE', #249, 0.09365624999999999645 ) ;
#181 = UNCERTAINTY_MEASURE_WITH_UNIT (LENGTH_MEASURE( 1.000000000000000082E-05 ), #243, 'distance_accuracy_value', 'NONE');
#182 = ORIENTED_EDGE ( 'NONE', *, *, #270, .T. ) ;
#183 = AXIS2_PLACEMENT_3D ( 'NONE', #11, #228, #153 ) ;
#184 = ORIENTED_EDGE ( 'NONE', *, *, #95, .T. ) ;
#185 = CARTESIAN_POINT ( 'NONE',  ( -0.09365624999999999645, 0.0000000000000000000, 2.293916535652885596E-17 ) ) ;
#186 =( NAMED_UNIT ( * ) SI_UNIT ( $, .STERADIAN. ) SOLID_ANGLE_UNIT ( ) );
#187 = ORIENTED_EDGE ( 'NONE', *, *, #248, .F. ) ;
#188 = AXIS2_PLACEMENT_3D ( 'NONE', #237, #240, #44 ) ;
#189 = ADVANCED_BREP_SHAPE_REPRESENTATION ( 'Micro_SFL-187-45', ( #241, #65 ), #201 ) ;
#190 = DIRECTION ( 'NONE',  ( -1.000000000000000000, 0.0000000000000000000, 0.0000000000000000000 ) ) ;
#191 = LINE ( 'NONE', #206, #49 ) ;
#192 = DIRECTION ( 'NONE',  ( 1.000000000000000000, 0.0000000000000000000, 0.0000000000000000000 ) ) ;
#193 = CONICAL_SURFACE ( 'NONE', #217, 0.09365624999999999645, 0.1745329251994338915 ) ;
#194 = DIRECTION ( 'NONE',  ( 1.224646799147353207E-16, 0.0000000000000000000, 1.000000000000000000 ) ) ;
#195 = EDGE_CURVE ( 'NONE', #202, #2, #161, .T. ) ;
#196 = DIRECTION ( 'NONE',  ( -1.224646799147353207E-16, -0.0000000000000000000, -1.000000000000000000 ) ) ;
#197 = DIRECTION ( 'NONE',  ( 0.0000000000000000000, 0.0000000000000000000, 1.000000000000000000 ) ) ;
#198 = CARTESIAN_POINT ( 'NONE',  ( 7.654042494670957853E-17, 0.0000000000000000000, 0.6250000000000000000 ) ) ;
#199 = EDGE_LOOP ( 'NONE', ( #184, #48, #167, #73 ) ) ;
#200 = EDGE_CURVE ( 'NONE', #2, #202, #25, .T. ) ;
#201 =( GEOMETRIC_REPRESENTATION_CONTEXT ( 3 ) GLOBAL_UNCERTAINTY_ASSIGNED_CONTEXT ( ( #63 ) ) GLOBAL_UNIT_ASSIGNED_CONTEXT ( ( #275, #246, #141 ) ) REPRESENTATION_CONTEXT ( 'NONE', 'WORKASPACE' ) );
#202 = VERTEX_POINT ( 'NONE', #175 ) ;
#203 = SURFACE_STYLE_FILL_AREA ( #163 ) ;
#204 = ORIENTED_EDGE ( 'NONE', *, *, #116, .F. ) ;
#205 = EDGE_CURVE ( 'NONE', #224, #202, #157, .T. ) ;
#206 = CARTESIAN_POINT ( 'NONE',  ( 0.1099999999999996397, 1.347111479062084158E-17, 2.000000000000000000 ) ) ;
#207 = DIRECTION ( 'NONE',  ( -1.000000000000000000, 0.0000000000000000000, 0.0000000000000000000 ) ) ;
#208 = ADVANCED_FACE ( 'NONE', ( #265 ), #87, .F. ) ;
#209 = DIRECTION ( 'NONE',  ( 0.0000000000000000000, 0.0000000000000000000, 1.000000000000000000 ) ) ;
#210 = EDGE_CURVE ( 'NONE', #34, #115, #261, .T. ) ;
#211 = CARTESIAN_POINT ( 'NONE',  ( 0.0000000000000000000, 0.0000000000000000000, 2.000000000000000000 ) ) ;
#212 = VECTOR ( 'NONE', #64, 39.37007874015748143 ) ;
#213 = CYLINDRICAL_SURFACE ( 'NONE', #59, 0.09365624999999999645 ) ;
#214 = CARTESIAN_POINT ( 'NONE',  ( -0.09365624999999999645, 0.0000000000000000000, 1.146958267826442798E-17 ) ) ;
#215 = ADVANCED_FACE ( 'NONE', ( #109 ), #35, .T. ) ;
#216 = DIRECTION ( 'NONE',  ( -1.224646799147353207E-16, -0.0000000000000000000, -1.000000000000000000 ) ) ;
#217 = AXIS2_PLACEMENT_3D ( 'NONE', #17, #290, #192 ) ;
#218 = DIRECTION ( 'NONE',  ( 0.0000000000000000000, 0.0000000000000000000, 1.000000000000000000 ) ) ;
#219 = EDGE_CURVE ( 'NONE', #124, #297, #135, .T. ) ;
#220 = FACE_OUTER_BOUND ( 'NONE', #247, .T. ) ;
#221 = PRODUCT_DEFINITION ( 'UNKNOWN', '', #142, #15 ) ;
#222 =( GEOMETRIC_REPRESENTATION_CONTEXT ( 3 ) GLOBAL_UNCERTAINTY_ASSIGNED_CONTEXT ( ( #181 ) ) GLOBAL_UNIT_ASSIGNED_CONTEXT ( ( #243, #21, #186 ) ) REPRESENTATION_CONTEXT ( 'NONE', 'WORKASPACE' ) );
#223 = CARTESIAN_POINT ( 'NONE',  ( 0.09365625000000006584, 0.0000000000000000000, 0.6250000000000000000 ) ) ;
#224 = VERTEX_POINT ( 'NONE', #155 ) ;
#225 = MECHANICAL_DESIGN_GEOMETRIC_PRESENTATION_REPRESENTATION (  '', ( #75 ), #222 ) ;
#226 = ORIENTED_EDGE ( 'NONE', *, *, #114, .F. ) ;
#227 = ORIENTED_EDGE ( 'NONE', *, *, #169, .T. ) ;
#228 = DIRECTION ( 'NONE',  ( 0.0000000000000000000, 0.0000000000000000000, -1.000000000000000000 ) ) ;
#229 = PRODUCT ( 'Micro_SFL-187-45', 'Micro_SFL-187-45', '', ( #7 ) ) ;
#230 = DIRECTION ( 'NONE',  ( 0.0000000000000000000, 0.0000000000000000000, 1.000000000000000000 ) ) ;
#231 = FACE_OUTER_BOUND ( 'NONE', #79, .T. ) ;
#232 = ORIENTED_EDGE ( 'NONE', *, *, #210, .F. ) ;
#233 = CARTESIAN_POINT ( 'NONE',  ( 0.0000000000000000000, 0.0000000000000000000, 2.000000000000000000 ) ) ;
#234 = PRESENTATION_LAYER_ASSIGNMENT (  '', '', ( #75 ) ) ;
#235 = ADVANCED_FACE ( 'NONE', ( #38 ), #10, .T. ) ;
#236 = DIRECTION ( 'NONE',  ( 1.000000000000000000, 0.0000000000000000000, 0.0000000000000000000 ) ) ;
#237 = CARTESIAN_POINT ( 'NONE',  ( 0.0000000000000000000, 0.0000000000000000000, 2.000000000000000000 ) ) ;
#238 = SURFACE_STYLE_FILL_AREA ( #159 ) ;
#239 = CIRCLE ( 'NONE', #284, 0.1250000000000000000 ) ;
#240 = DIRECTION ( 'NONE',  ( 0.0000000000000000000, 0.0000000000000000000, -1.000000000000000000 ) ) ;
#241 = MANIFOLD_SOLID_BREP ( 'Cut-Revolve1', #99 ) ;
#242 = DIRECTION ( 'NONE',  ( 1.000000000000000000, 0.0000000000000000000, 0.0000000000000000000 ) ) ;
#243 =( CONVERSION_BASED_UNIT ( 'INCH', #281 ) LENGTH_UNIT ( ) NAMED_UNIT ( #42 ) );
#244 =( LENGTH_UNIT ( ) NAMED_UNIT ( * ) SI_UNIT ( $, .METRE. ) );
#245 = DIRECTION ( 'NONE',  ( 1.000000000000000000, 0.0000000000000000000, 0.0000000000000000000 ) ) ;
#246 =( NAMED_UNIT ( * ) PLANE_ANGLE_UNIT ( ) SI_UNIT ( $, .RADIAN. ) );
#247 = EDGE_LOOP ( 'NONE', ( #171, #113 ) ) ;
#248 = EDGE_CURVE ( 'NONE', #100, #115, #165, .T. ) ;
#249 = AXIS2_PLACEMENT_3D ( 'NONE', #82, #6, #286 ) ;
#250 = LINE ( 'NONE', #223, #46 ) ;
#251 = EDGE_LOOP ( 'NONE', ( #61, #12, #274, #4 ) ) ;
#252 = ORIENTED_EDGE ( 'NONE', *, *, #210, .T. ) ;
#253 = AXIS2_PLACEMENT_3D ( 'NONE', #211, #36, #123 ) ;
#254 = CIRCLE ( 'NONE', #131, 0.1250000000000000000 ) ;
#255 = CARTESIAN_POINT ( 'NONE',  ( -0.1250000000000000000, 0.0000000000000000000, 2.000000000000000000 ) ) ;
#256 = ADVANCED_FACE ( 'NONE', ( #220 ), #137, .T. ) ;
#257 = DIRECTION ( 'NONE',  ( -1.000000000000000000, 0.0000000000000000000, 0.0000000000000000000 ) ) ;
#258 = FACE_OUTER_BOUND ( 'NONE', #98, .T. ) ;
#259 = VECTOR ( 'NONE', #86, 39.37007874015748143 ) ;
#260 = DIRECTION ( 'NONE',  ( -1.000000000000000000, 0.0000000000000000000, 1.224646799147352961E-16 ) ) ;
#261 = CIRCLE ( 'NONE', #39, 0.1250000000000000000 ) ;
#262 = FACE_OUTER_BOUND ( 'NONE', #282, .T. ) ;
#263 = SURFACE_STYLE_USAGE ( .BOTH. , #174 ) ;
#264 = EDGE_CURVE ( 'NONE', #224, #115, #250, .T. ) ;
#265 = FACE_OUTER_BOUND ( 'NONE', #94, .T. ) ;
#266 = VECTOR ( 'NONE', #271, 39.37007874015748143 ) ;
#267 = FILL_AREA_STYLE_COLOUR ( '', #30 ) ;
#268 = CARTESIAN_POINT ( 'NONE',  ( 0.0000000000000000000, 0.0000000000000000000, 2.000000000000000000 ) ) ;
#269 = PRODUCT_RELATED_PRODUCT_CATEGORY ( 'part', '', ( #229 ) ) ;
#270 = EDGE_CURVE ( 'NONE', #297, #100, #239, .T. ) ;
#271 = DIRECTION ( 'NONE',  ( -0.0000000000000000000, -0.0000000000000000000, -1.000000000000000000 ) ) ;
#272 = CIRCLE ( 'NONE', #156, 0.09365624999999999645 ) ;
#273 = FILL_AREA_STYLE_COLOUR ( '', #93 ) ;
#274 = ORIENTED_EDGE ( 'NONE', *, *, #270, .F. ) ;
#275 =( CONVERSION_BASED_UNIT ( 'INCH', #138 ) LENGTH_UNIT ( ) NAMED_UNIT ( #119 ) );
#276 = ORIENTED_EDGE ( 'NONE', *, *, #219, .T. ) ;
#277 = CARTESIAN_POINT ( 'NONE',  ( 0.1250000000000000000, 1.530808498934191509E-17, 2.000000000000000000 ) ) ;
#278 = ORIENTED_EDGE ( 'NONE', *, *, #200, .T. ) ;
#279 = APPLICATION_CONTEXT ( 'automotive_design' ) ;
#280 = VECTOR ( 'NONE', #154, 39.37007874015748143 ) ;
#281 = LENGTH_MEASURE_WITH_UNIT ( LENGTH_MEASURE( 0.02539999999999999897 ), #3 );
#282 = EDGE_LOOP ( 'NONE', ( #77, #57, #252, #56 ) ) ;
#283 = DIRECTION ( 'NONE',  ( -0.0000000000000000000, -0.0000000000000000000, -1.000000000000000000 ) ) ;
#284 = AXIS2_PLACEMENT_3D ( 'NONE', #22, #96, #245 ) ;
#285 = CARTESIAN_POINT ( 'NONE',  ( 7.654042494670957853E-17, 0.0000000000000000000, 0.6250000000000000000 ) ) ;
#286 = DIRECTION ( 'NONE',  ( -1.000000000000000000, 0.0000000000000000000, 0.0000000000000000000 ) ) ;
#287 = VERTEX_POINT ( 'NONE', #179 ) ;
#288 = CARTESIAN_POINT ( 'NONE',  ( 0.1099999999999996397, 1.438959988998137757E-17, 2.000000000000000000 ) ) ;
#289 = CARTESIAN_POINT ( 'NONE',  ( 0.0000000000000000000, 0.0000000000000000000, 0.0000000000000000000 ) ) ;
#290 = DIRECTION ( 'NONE',  ( 1.224646799147353207E-16, 0.0000000000000000000, 1.000000000000000000 ) ) ;
#291 = CARTESIAN_POINT ( 'NONE',  ( 1.404618771449245766E-33, 0.0000000000000000000, 1.146958267826442798E-17 ) ) ;
#292 = APPLICATION_CONTEXT ( 'automotive_design' ) ;
#293 =( LENGTH_UNIT ( ) NAMED_UNIT ( * ) SI_UNIT ( $, .METRE. ) );
#294 = LENGTH_MEASURE_WITH_UNIT ( LENGTH_MEASURE( 0.02539999999999999897 ), #293 );
#295 = ORIENTED_EDGE ( 'NONE', *, *, #195, .T. ) ;
#296 = DIRECTION ( 'NONE',  ( 0.1736481776669313859, 0.0000000000000000000, 0.9848077530122077983 ) ) ;
#297 = VERTEX_POINT ( 'NONE', #162 ) ;
#298 = DIRECTION ( 'NONE',  ( 0.0000000000000000000, 0.0000000000000000000, 1.000000000000000000 ) ) ;
#299 = ORIENTED_EDGE ( 'NONE', *, *, #195, .F. ) ;
ENDSEC;
END-ISO-10303-21;
