ISO-10303-21;
HEADER;
FILE_DESCRIPTION (( 'STEP AP214' ),
    '1' );
FILE_NAME ('Micro_RNCM-080-1X.STEP',
    '2021-09-03T17:42:27',
    ( '' ),
    ( '' ),
    'SwSTEP 2.0',
    'SolidWorks 2020',
    '' );
FILE_SCHEMA (( 'AUTOMOTIVE_DESIGN' ));
ENDSEC;

DATA;
#1 = PRESENTATION_LAYER_ASSIGNMENT (  '', '', ( #5 ) ) ;
#2 = PRODUCT ( 'Micro_RNCM-080-1X', 'Micro_RNCM-080-1X', '', ( #73 ) ) ;
#3 =( NAMED_UNIT ( * ) PLANE_ANGLE_UNIT ( ) SI_UNIT ( $, .RADIAN. ) );
#4 = SURFACE_SIDE_STYLE ('',( #208 ) ) ;
#5 = STYLED_ITEM ( 'NONE', ( #119 ), #130 ) ;
#6 = DIRECTION ( 'NONE',  ( 0.0000000000000000000, 0.0000000000000000000, -1.000000000000000000 ) ) ;
#7 = EDGE_CURVE ( 'NONE', #118, #194, #56, .T. ) ;
#8 = DIMENSIONAL_EXPONENTS ( 1.000000000000000000, 0.0000000000000000000, 0.0000000000000000000, 0.0000000000000000000, 0.0000000000000000000, 0.0000000000000000000, 0.0000000000000000000 ) ;
#9 = CARTESIAN_POINT ( 'NONE',  ( -0.1574804999999999955, 0.0000000000000000000, 0.1535434999999993610 ) ) ;
#10 = CARTESIAN_POINT ( 'NONE',  ( 0.0000000000000000000, 0.0000000000000000000, 2.480315000000000047 ) ) ;
#11 = CIRCLE ( 'NONE', #217, 0.1574804999999999955 ) ;
#12 = ORIENTED_EDGE ( 'NONE', *, *, #26, .F. ) ;
#13 = FACE_OUTER_BOUND ( 'NONE', #176, .T. ) ;
#14 = UNCERTAINTY_MEASURE_WITH_UNIT (LENGTH_MEASURE( 1.000000000000000082E-05 ), #120, 'distance_accuracy_value', 'NONE');
#15 = PRESENTATION_STYLE_ASSIGNMENT (( #190 ) ) ;
#16 = LINE ( 'NONE', #93, #96 ) ;
#17 = ORIENTED_EDGE ( 'NONE', *, *, #237, .F. ) ;
#18 = CARTESIAN_POINT ( 'NONE',  ( 0.003936999999999995191, 0.0000000000000000000, 0.0000000000000000000 ) ) ;
#19 = ORIENTED_EDGE ( 'NONE', *, *, #160, .F. ) ;
#20 = CARTESIAN_POINT ( 'NONE',  ( 0.1424804999999990940, 1.744882882659133128E-17, 2.480315000000000047 ) ) ;
#21 = STYLED_ITEM ( 'NONE', ( #15 ), #221 ) ;
#22 = EDGE_CURVE ( 'NONE', #118, #126, #125, .T. ) ;
#23 = CARTESIAN_POINT ( 'NONE',  ( -0.1424804999999990940, 0.0000000000000000000, 2.480315000000000047 ) ) ;
#24 = EDGE_CURVE ( 'NONE', #134, #224, #127, .T. ) ;
#25 = DIRECTION ( 'NONE',  ( -0.0000000000000000000, -0.0000000000000000000, -1.000000000000000000 ) ) ;
#26 = EDGE_CURVE ( 'NONE', #126, #27, #245, .T. ) ;
#27 = VERTEX_POINT ( 'NONE', #9 ) ;
#28 = MECHANICAL_DESIGN_GEOMETRIC_PRESENTATION_REPRESENTATION (  '', ( #5 ), #85 ) ;
#29 = DIRECTION ( 'NONE',  ( 0.0000000000000000000, 0.0000000000000000000, 1.000000000000000000 ) ) ;
#30 = CARTESIAN_POINT ( 'NONE',  ( 0.0000000000000000000, 0.0000000000000000000, 2.480315000000000047 ) ) ;
#31 = FILL_AREA_STYLE ('',( #149 ) ) ;
#32 = FACE_OUTER_BOUND ( 'NONE', #79, .T. ) ;
#33 = ORIENTED_EDGE ( 'NONE', *, *, #24, .T. ) ;
#34 = DIRECTION ( 'NONE',  ( 0.7071067811865490160, 0.0000000000000000000, 0.7071067811865460184 ) ) ;
#35 = ORIENTED_EDGE ( 'NONE', *, *, #7, .T. ) ;
#36 = AXIS2_PLACEMENT_3D ( 'NONE', #74, #242, #220 ) ;
#37 = ORIENTED_EDGE ( 'NONE', *, *, #7, .F. ) ;
#38 = DIRECTION ( 'NONE',  ( 1.000000000000000000, 0.0000000000000000000, -0.0000000000000000000 ) ) ;
#39 = ORIENTED_EDGE ( 'NONE', *, *, #209, .F. ) ;
#40 = PLANE ( 'NONE',  #240 ) ;
#41 = FACE_OUTER_BOUND ( 'NONE', #192, .T. ) ;
#42 = EDGE_CURVE ( 'NONE', #150, #194, #216, .T. ) ;
#43 = LENGTH_MEASURE_WITH_UNIT ( LENGTH_MEASURE( 0.02539999999999999897 ), #60 );
#44 = DIRECTION ( 'NONE',  ( 0.0000000000000000000, 0.0000000000000000000, 1.000000000000000000 ) ) ;
#45 = CARTESIAN_POINT ( 'NONE',  ( 0.0000000000000000000, 0.0000000000000000000, 0.0000000000000000000 ) ) ;
#46 = CARTESIAN_POINT ( 'NONE',  ( 0.0000000000000000000, 0.0000000000000000000, 2.465314999999999923 ) ) ;
#47 = AXIS2_PLACEMENT_3D ( 'NONE', #115, #29, #148 ) ;
#48 = DIRECTION ( 'NONE',  ( 1.000000000000000000, 0.0000000000000000000, 0.0000000000000000000 ) ) ;
#49 = EDGE_CURVE ( 'NONE', #97, #150, #201, .T. ) ;
#50 = CIRCLE ( 'NONE', #107, 0.1424804999999990940 ) ;
#51 = CARTESIAN_POINT ( 'NONE',  ( 0.1424804999999990940, 1.836731392595189962E-17, 2.480315000000000047 ) ) ;
#52 = CYLINDRICAL_SURFACE ( 'NONE', #187, 0.1574804999999999955 ) ;
#53 = ORIENTED_EDGE ( 'NONE', *, *, #235, .F. ) ;
#54 = PRODUCT_DEFINITION_SHAPE ( 'NONE', 'NONE',  #147 ) ;
#55 = CARTESIAN_POINT ( 'NONE',  ( 0.0000000000000000000, 0.0000000000000000000, 0.1535434999999993610 ) ) ;
#56 = CIRCLE ( 'NONE', #151, 0.1574804999999999955 ) ;
#57 = ORIENTED_EDGE ( 'NONE', *, *, #111, .T. ) ;
#58 = CARTESIAN_POINT ( 'NONE',  ( 0.1574804999999999955, 1.928579902531247412E-17, 0.1535434999999993610 ) ) ;
#59 = ORIENTED_EDGE ( 'NONE', *, *, #49, .F. ) ;
#60 =( LENGTH_UNIT ( ) NAMED_UNIT ( * ) SI_UNIT ( $, .METRE. ) );
#61 = LINE ( 'NONE', #20, #105 ) ;
#62 = AXIS2_PLACEMENT_3D ( 'NONE', #68, #198, #70 ) ;
#63 =( NAMED_UNIT ( * ) PLANE_ANGLE_UNIT ( ) SI_UNIT ( $, .RADIAN. ) );
#64 = DIRECTION ( 'NONE',  ( 1.000000000000000000, 0.0000000000000000000, 0.0000000000000000000 ) ) ;
#65 = VECTOR ( 'NONE', #177, 39.37007874015748143 ) ;
#66 = ORIENTED_EDGE ( 'NONE', *, *, #67, .T. ) ;
#67 = EDGE_CURVE ( 'NONE', #194, #118, #11, .T. ) ;
#68 = CARTESIAN_POINT ( 'NONE',  ( 0.0000000000000000000, 0.0000000000000000000, 0.1535434999999993610 ) ) ;
#69 =( GEOMETRIC_REPRESENTATION_CONTEXT ( 3 ) GLOBAL_UNCERTAINTY_ASSIGNED_CONTEXT ( ( #72 ) ) GLOBAL_UNIT_ASSIGNED_CONTEXT ( ( #101, #3, #233 ) ) REPRESENTATION_CONTEXT ( 'NONE', 'WORKASPACE' ) );
#70 = DIRECTION ( 'NONE',  ( -1.000000000000000000, 0.0000000000000000000, 0.0000000000000000000 ) ) ;
#71 = AXIS2_PLACEMENT_3D ( 'NONE', #45, #167, #48 ) ;
#72 = UNCERTAINTY_MEASURE_WITH_UNIT (LENGTH_MEASURE( 1.000000000000000082E-05 ), #101, 'distance_accuracy_value', 'NONE');
#73 = PRODUCT_CONTEXT ( 'NONE', #145, 'mechanical' ) ;
#74 = CARTESIAN_POINT ( 'NONE',  ( 0.0000000000000000000, 0.0000000000000000000, 0.0000000000000000000 ) ) ;
#75 = ORIENTED_EDGE ( 'NONE', *, *, #160, .T. ) ;
#76 = CARTESIAN_POINT ( 'NONE',  ( -0.003936999999999995191, 4.821434448243123477E-19, 0.0000000000000000000 ) ) ;
#77 = ORIENTED_EDGE ( 'NONE', *, *, #22, .F. ) ;
#78 = LINE ( 'NONE', #202, #87 ) ;
#79 = EDGE_LOOP ( 'NONE', ( #227, #179, #157, #155 ) ) ;
#80 = LENGTH_MEASURE_WITH_UNIT ( LENGTH_MEASURE( 0.02539999999999999897 ), #133 );
#81 = AXIS2_PLACEMENT_3D ( 'NONE', #248, #94, #226 ) ;
#82 = PRODUCT_DEFINITION_FORMATION_WITH_SPECIFIED_SOURCE ( 'ANY', '', #2, .NOT_KNOWN. ) ;
#83 = SHAPE_DEFINITION_REPRESENTATION ( #54, #130 ) ;
#84 = DIRECTION ( 'NONE',  ( 0.0000000000000000000, 0.0000000000000000000, -1.000000000000000000 ) ) ;
#85 =( GEOMETRIC_REPRESENTATION_CONTEXT ( 3 ) GLOBAL_UNCERTAINTY_ASSIGNED_CONTEXT ( ( #14 ) ) GLOBAL_UNIT_ASSIGNED_CONTEXT ( ( #120, #63, #91 ) ) REPRESENTATION_CONTEXT ( 'NONE', 'WORKASPACE' ) );
#86 = ADVANCED_FACE ( 'NONE', ( #13 ), #203, .F. ) ;
#87 = VECTOR ( 'NONE', #34, 39.37007874015748143 ) ;
#88 = DIRECTION ( 'NONE',  ( 1.000000000000000000, 0.0000000000000000000, 0.0000000000000000000 ) ) ;
#89 = ORIENTED_EDGE ( 'NONE', *, *, #102, .F. ) ;
#90 = ADVANCED_FACE ( 'NONE', ( #186 ), #180, .T. ) ;
#91 =( NAMED_UNIT ( * ) SI_UNIT ( $, .STERADIAN. ) SOLID_ANGLE_UNIT ( ) );
#92 = DIRECTION ( 'NONE',  ( -0.0000000000000000000, -0.0000000000000000000, -1.000000000000000000 ) ) ;
#93 = CARTESIAN_POINT ( 'NONE',  ( -0.1574804999999999955, 0.0000000000000000000, 2.480315000000000047 ) ) ;
#94 = DIRECTION ( 'NONE',  ( -0.0000000000000000000, -0.0000000000000000000, -1.000000000000000000 ) ) ;
#95 = ADVANCED_FACE ( 'NONE', ( #32 ), #159, .T. ) ;
#96 = VECTOR ( 'NONE', #92, 39.37007874015748143 ) ;
#97 = VERTEX_POINT ( 'NONE', #51 ) ;
#98 = FACE_OUTER_BOUND ( 'NONE', #184, .T. ) ;
#99 =( LENGTH_UNIT ( ) NAMED_UNIT ( * ) SI_UNIT ( $, .METRE. ) );
#100 = AXIS2_PLACEMENT_3D ( 'NONE', #193, #112, #113 ) ;
#101 =( CONVERSION_BASED_UNIT ( 'INCH', #80 ) LENGTH_UNIT ( ) NAMED_UNIT ( #213 ) );
#102 = EDGE_CURVE ( 'NONE', #194, #27, #16, .T. ) ;
#103 =( CONVERSION_BASED_UNIT ( 'INCH', #43 ) LENGTH_UNIT ( ) NAMED_UNIT ( #8 ) );
#104 = PRODUCT_RELATED_PRODUCT_CATEGORY ( 'part', '', ( #2 ) ) ;
#105 = VECTOR ( 'NONE', #210, 39.37007874015748854 ) ;
#106 = DIRECTION ( 'NONE',  ( 1.000000000000000000, 0.0000000000000000000, 0.0000000000000000000 ) ) ;
#107 = AXIS2_PLACEMENT_3D ( 'NONE', #109, #204, #88 ) ;
#108 = ORIENTED_EDGE ( 'NONE', *, *, #42, .T. ) ;
#109 = CARTESIAN_POINT ( 'NONE',  ( 0.0000000000000000000, 0.0000000000000000000, 2.480315000000000047 ) ) ;
#110 = CARTESIAN_POINT ( 'NONE',  ( -0.1574804999999999955, 0.0000000000000000000, 2.465314999999999923 ) ) ;
#111 = EDGE_CURVE ( 'NONE', #224, #27, #228, .T. ) ;
#112 = DIRECTION ( 'NONE',  ( 0.0000000000000000000, 0.0000000000000000000, 1.000000000000000000 ) ) ;
#113 = DIRECTION ( 'NONE',  ( 1.000000000000000000, 0.0000000000000000000, 0.0000000000000000000 ) ) ;
#114 = EDGE_LOOP ( 'NONE', ( #19, #57, #246, #153 ) ) ;
#115 = CARTESIAN_POINT ( 'NONE',  ( 0.0000000000000000000, 0.0000000000000000000, 0.0000000000000000000 ) ) ;
#116 = PRESENTATION_LAYER_ASSIGNMENT (  '', '', ( #21 ) ) ;
#117 = COLOUR_RGB ( '',0.7921568627450980005, 0.8196078431372548767, 0.9333333333333333481 ) ;
#118 = VERTEX_POINT ( 'NONE', #205 ) ;
#119 = PRESENTATION_STYLE_ASSIGNMENT (( #232 ) ) ;
#120 =( CONVERSION_BASED_UNIT ( 'INCH', #138 ) LENGTH_UNIT ( ) NAMED_UNIT ( #234 ) );
#121 = MECHANICAL_DESIGN_GEOMETRIC_PRESENTATION_REPRESENTATION (  '', ( #21 ), #69 ) ;
#122 =( NAMED_UNIT ( * ) PLANE_ANGLE_UNIT ( ) SI_UNIT ( $, .RADIAN. ) );
#123 = DIRECTION ( 'NONE',  ( -1.000000000000000000, 0.0000000000000000000, 0.0000000000000000000 ) ) ;
#124 = CARTESIAN_POINT ( 'NONE',  ( 0.0000000000000000000, 0.0000000000000000000, 2.480315000000000047 ) ) ;
#125 = LINE ( 'NONE', #146, #173 ) ;
#126 = VERTEX_POINT ( 'NONE', #58 ) ;
#127 = CIRCLE ( 'NONE', #225, 0.003936999999999995191 ) ;
#128 = DIRECTION ( 'NONE',  ( 0.0000000000000000000, 0.0000000000000000000, -1.000000000000000000 ) ) ;
#129 = FACE_OUTER_BOUND ( 'NONE', #189, .T. ) ;
#130 = ADVANCED_BREP_SHAPE_REPRESENTATION ( 'Micro_RNCM-080-1X', ( #221, #71 ), #168 ) ;
#131 = CONICAL_SURFACE ( 'NONE', #144, 0.1424804999999990940, 0.7853981633974699283 ) ;
#132 = SURFACE_SIDE_STYLE ('',( #223 ) ) ;
#133 =( LENGTH_UNIT ( ) NAMED_UNIT ( * ) SI_UNIT ( $, .METRE. ) );
#134 = VERTEX_POINT ( 'NONE', #18 ) ;
#135 = APPLICATION_CONTEXT ( 'automotive_design' ) ;
#136 = DIRECTION ( 'NONE',  ( -1.000000000000000000, 0.0000000000000000000, 0.0000000000000000000 ) ) ;
#137 = ORIENTED_EDGE ( 'NONE', *, *, #209, .T. ) ;
#138 = LENGTH_MEASURE_WITH_UNIT ( LENGTH_MEASURE( 0.02539999999999999897 ), #99 );
#139 = COLOUR_RGB ( '',0.7921568627450980005, 0.8196078431372548767, 0.9333333333333333481 ) ;
#140 =( NAMED_UNIT ( * ) SI_UNIT ( $, .STERADIAN. ) SOLID_ANGLE_UNIT ( ) );
#141 = APPLICATION_PROTOCOL_DEFINITION ( 'draft international standard', 'automotive_design', 1998, #135 ) ;
#142 = ADVANCED_FACE ( 'NONE', ( #98 ), #52, .T. ) ;
#143 = CARTESIAN_POINT ( 'NONE',  ( 0.0000000000000000000, 0.0000000000000000000, 2.465314999999999923 ) ) ;
#144 = AXIS2_PLACEMENT_3D ( 'NONE', #188, #243, #136 ) ;
#145 = APPLICATION_CONTEXT ( 'automotive_design' ) ;
#146 = CARTESIAN_POINT ( 'NONE',  ( 0.1574804999999999955, 1.928579902531247412E-17, 2.480315000000000047 ) ) ;
#147 = PRODUCT_DEFINITION ( 'UNKNOWN', '', #82, #181 ) ;
#148 = DIRECTION ( 'NONE',  ( 1.000000000000000000, 0.0000000000000000000, -0.0000000000000000000 ) ) ;
#149 = FILL_AREA_STYLE_COLOUR ( '', #139 ) ;
#150 = VERTEX_POINT ( 'NONE', #247 ) ;
#151 = AXIS2_PLACEMENT_3D ( 'NONE', #46, #6, #215 ) ;
#152 = FACE_OUTER_BOUND ( 'NONE', #165, .T. ) ;
#153 = ORIENTED_EDGE ( 'NONE', *, *, #200, .F. ) ;
#154 = DIRECTION ( 'NONE',  ( -1.000000000000000000, 0.0000000000000000000, 0.0000000000000000000 ) ) ;
#155 = ORIENTED_EDGE ( 'NONE', *, *, #26, .T. ) ;
#156 = DIRECTION ( 'NONE',  ( -0.0000000000000000000, -0.0000000000000000000, -1.000000000000000000 ) ) ;
#157 = ORIENTED_EDGE ( 'NONE', *, *, #200, .T. ) ;
#158 = FILL_AREA_STYLE ('',( #212 ) ) ;
#159 = CONICAL_SURFACE ( 'NONE', #36, 0.003936999999999995191, 0.7853981633974503884 ) ;
#160 = EDGE_CURVE ( 'NONE', #224, #134, #236, .T. ) ;
#161 = APPLICATION_PROTOCOL_DEFINITION ( 'draft international standard', 'automotive_design', 1998, #145 ) ;
#162 = DIRECTION ( 'NONE',  ( -0.7071067811865627828, 0.0000000000000000000, -0.7071067811865321406 ) ) ;
#163 = AXIS2_PLACEMENT_3D ( 'NONE', #124, #238, #64 ) ;
#164 = DIRECTION ( 'NONE',  ( -0.0000000000000000000, -0.0000000000000000000, -1.000000000000000000 ) ) ;
#165 = EDGE_LOOP ( 'NONE', ( #17, #39, #108, #37 ) ) ;
#166 = ADVANCED_FACE ( 'NONE', ( #171 ), #195, .T. ) ;
#167 = DIRECTION ( 'NONE',  ( 0.0000000000000000000, 0.0000000000000000000, 1.000000000000000000 ) ) ;
#168 =( GEOMETRIC_REPRESENTATION_CONTEXT ( 3 ) GLOBAL_UNCERTAINTY_ASSIGNED_CONTEXT ( ( #219 ) ) GLOBAL_UNIT_ASSIGNED_CONTEXT ( ( #103, #122, #140 ) ) REPRESENTATION_CONTEXT ( 'NONE', 'WORKASPACE' ) );
#169 = DIRECTION ( 'NONE',  ( -0.0000000000000000000, -0.0000000000000000000, -1.000000000000000000 ) ) ;
#170 = ORIENTED_EDGE ( 'NONE', *, *, #102, .T. ) ;
#171 = FACE_OUTER_BOUND ( 'NONE', #178, .T. ) ;
#172 = DIRECTION ( 'NONE',  ( -0.0000000000000000000, -0.0000000000000000000, -1.000000000000000000 ) ) ;
#173 = VECTOR ( 'NONE', #164, 39.37007874015748143 ) ;
#174 = DIRECTION ( 'NONE',  ( -1.000000000000000000, 0.0000000000000000000, 0.0000000000000000000 ) ) ;
#175 = ORIENTED_EDGE ( 'NONE', *, *, #49, .T. ) ;
#176 = EDGE_LOOP ( 'NONE', ( #33, #75 ) ) ;
#177 = DIRECTION ( 'NONE',  ( -0.7071067811865490160, 8.659560562354951347E-17, 0.7071067811865460184 ) ) ;
#178 = EDGE_LOOP ( 'NONE', ( #59, #230, #229, #222 ) ) ;
#179 = ORIENTED_EDGE ( 'NONE', *, *, #24, .F. ) ;
#180 = CONICAL_SURFACE ( 'NONE', #100, 0.003936999999999995191, 0.7853981633974503884 ) ;
#181 = PRODUCT_DEFINITION_CONTEXT ( 'detailed design', #135, 'design' ) ;
#182 = CARTESIAN_POINT ( 'NONE',  ( -0.003936999999999995191, 9.883971235068392752E-18, 0.0000000000000000000 ) ) ;
#183 = VECTOR ( 'NONE', #162, 39.37007874015748854 ) ;
#184 = EDGE_LOOP ( 'NONE', ( #66, #249, #53, #89 ) ) ;
#185 = DIRECTION ( 'NONE',  ( -1.000000000000000000, 0.0000000000000000000, 0.0000000000000000000 ) ) ;
#186 = FACE_OUTER_BOUND ( 'NONE', #114, .T. ) ;
#187 = AXIS2_PLACEMENT_3D ( 'NONE', #10, #169, #174 ) ;
#188 = CARTESIAN_POINT ( 'NONE',  ( 0.0000000000000000000, 0.0000000000000000000, 2.480315000000000047 ) ) ;
#189 = EDGE_LOOP ( 'NONE', ( #77, #35, #170, #12 ) ) ;
#190 = SURFACE_STYLE_USAGE ( .BOTH. , #132 ) ;
#191 = ADVANCED_FACE ( 'NONE', ( #129 ), #218, .T. ) ;
#192 = EDGE_LOOP ( 'NONE', ( #137, #175 ) ) ;
#193 = CARTESIAN_POINT ( 'NONE',  ( 0.0000000000000000000, 0.0000000000000000000, 0.0000000000000000000 ) ) ;
#194 = VERTEX_POINT ( 'NONE', #110 ) ;
#195 = CONICAL_SURFACE ( 'NONE', #197, 0.1424804999999990940, 0.7853981633974699283 ) ;
#196 = ADVANCED_FACE ( 'NONE', ( #152 ), #131, .T. ) ;
#197 = AXIS2_PLACEMENT_3D ( 'NONE', #244, #128, #154 ) ;
#198 = DIRECTION ( 'NONE',  ( -0.0000000000000000000, -0.0000000000000000000, -1.000000000000000000 ) ) ;
#199 = CARTESIAN_POINT ( 'NONE',  ( 0.0000000000000000000, 0.0000000000000000000, 0.0000000000000000000 ) ) ;
#200 = EDGE_CURVE ( 'NONE', #134, #126, #78, .T. ) ;
#201 = CIRCLE ( 'NONE', #163, 0.1424804999999990940 ) ;
#202 = CARTESIAN_POINT ( 'NONE',  ( 0.003936999999999995191, 0.0000000000000000000, 0.0000000000000000000 ) ) ;
#203 = PLANE ( 'NONE',  #47 ) ;
#204 = DIRECTION ( 'NONE',  ( 0.0000000000000000000, 0.0000000000000000000, 1.000000000000000000 ) ) ;
#205 = CARTESIAN_POINT ( 'NONE',  ( 0.1574804999999999955, 1.928579902531247412E-17, 2.465314999999999923 ) ) ;
#206 = DIRECTION ( 'NONE',  ( -1.000000000000000000, 0.0000000000000000000, 0.0000000000000000000 ) ) ;
#207 = CIRCLE ( 'NONE', #231, 0.1574804999999999955 ) ;
#208 = SURFACE_STYLE_FILL_AREA ( #158 ) ;
#209 = EDGE_CURVE ( 'NONE', #150, #97, #50, .T. ) ;
#210 = DIRECTION ( 'NONE',  ( 0.7071067811865627828, 8.659560562355118980E-17, -0.7071067811865321406 ) ) ;
#211 = CARTESIAN_POINT ( 'NONE',  ( 0.0000000000000000000, 0.0000000000000000000, 2.480315000000000047 ) ) ;
#212 = FILL_AREA_STYLE_COLOUR ( '', #117 ) ;
#213 = DIMENSIONAL_EXPONENTS ( 1.000000000000000000, 0.0000000000000000000, 0.0000000000000000000, 0.0000000000000000000, 0.0000000000000000000, 0.0000000000000000000, 0.0000000000000000000 ) ;
#214 = CLOSED_SHELL ( 'NONE', ( #90, #166, #142, #191, #241, #196, #95, #86 ) ) ;
#215 = DIRECTION ( 'NONE',  ( 1.000000000000000000, 0.0000000000000000000, 0.0000000000000000000 ) ) ;
#216 = LINE ( 'NONE', #23, #183 ) ;
#217 = AXIS2_PLACEMENT_3D ( 'NONE', #143, #84, #106 ) ;
#218 = CYLINDRICAL_SURFACE ( 'NONE', #239, 0.1574804999999999955 ) ;
#219 = UNCERTAINTY_MEASURE_WITH_UNIT (LENGTH_MEASURE( 1.000000000000000082E-05 ), #103, 'distance_accuracy_value', 'NONE');
#220 = DIRECTION ( 'NONE',  ( 1.000000000000000000, 0.0000000000000000000, 0.0000000000000000000 ) ) ;
#221 = MANIFOLD_SOLID_BREP ( 'Cut-Revolve1', #214 ) ;
#222 = ORIENTED_EDGE ( 'NONE', *, *, #42, .F. ) ;
#223 = SURFACE_STYLE_FILL_AREA ( #31 ) ;
#224 = VERTEX_POINT ( 'NONE', #182 ) ;
#225 = AXIS2_PLACEMENT_3D ( 'NONE', #199, #25, #185 ) ;
#226 = DIRECTION ( 'NONE',  ( -1.000000000000000000, 0.0000000000000000000, 0.0000000000000000000 ) ) ;
#227 = ORIENTED_EDGE ( 'NONE', *, *, #111, .F. ) ;
#228 = LINE ( 'NONE', #76, #65 ) ;
#229 = ORIENTED_EDGE ( 'NONE', *, *, #67, .F. ) ;
#230 = ORIENTED_EDGE ( 'NONE', *, *, #237, .T. ) ;
#231 = AXIS2_PLACEMENT_3D ( 'NONE', #55, #156, #123 ) ;
#232 = SURFACE_STYLE_USAGE ( .BOTH. , #4 ) ;
#233 =( NAMED_UNIT ( * ) SI_UNIT ( $, .STERADIAN. ) SOLID_ANGLE_UNIT ( ) );
#234 = DIMENSIONAL_EXPONENTS ( 1.000000000000000000, 0.0000000000000000000, 0.0000000000000000000, 0.0000000000000000000, 0.0000000000000000000, 0.0000000000000000000, 0.0000000000000000000 ) ;
#235 = EDGE_CURVE ( 'NONE', #27, #126, #207, .T. ) ;
#236 = CIRCLE ( 'NONE', #81, 0.003936999999999995191 ) ;
#237 = EDGE_CURVE ( 'NONE', #97, #118, #61, .T. ) ;
#238 = DIRECTION ( 'NONE',  ( 0.0000000000000000000, 0.0000000000000000000, 1.000000000000000000 ) ) ;
#239 = AXIS2_PLACEMENT_3D ( 'NONE', #30, #172, #206 ) ;
#240 = AXIS2_PLACEMENT_3D ( 'NONE', #211, #44, #38 ) ;
#241 = ADVANCED_FACE ( 'NONE', ( #41 ), #40, .T. ) ;
#242 = DIRECTION ( 'NONE',  ( 0.0000000000000000000, 0.0000000000000000000, 1.000000000000000000 ) ) ;
#243 = DIRECTION ( 'NONE',  ( 0.0000000000000000000, 0.0000000000000000000, -1.000000000000000000 ) ) ;
#244 = CARTESIAN_POINT ( 'NONE',  ( 0.0000000000000000000, 0.0000000000000000000, 2.480315000000000047 ) ) ;
#245 = CIRCLE ( 'NONE', #62, 0.1574804999999999955 ) ;
#246 = ORIENTED_EDGE ( 'NONE', *, *, #235, .T. ) ;
#247 = CARTESIAN_POINT ( 'NONE',  ( -0.1424804999999990940, 0.0000000000000000000, 2.480315000000000047 ) ) ;
#248 = CARTESIAN_POINT ( 'NONE',  ( 0.0000000000000000000, 0.0000000000000000000, 0.0000000000000000000 ) ) ;
#249 = ORIENTED_EDGE ( 'NONE', *, *, #22, .T. ) ;
ENDSEC;
END-ISO-10303-21;
