ISO-10303-21;
HEADER;
FILE_DESCRIPTION (( 'STEP AP214' ),
    '1' );
FILE_NAME ('Micro_SHR-625-4X.STEP',
    '2021-09-02T09:00:23',
    ( '' ),
    ( '' ),
    'SwSTEP 2.0',
    'SolidWorks 2020',
    '' );
FILE_SCHEMA (( 'AUTOMOTIVE_DESIGN' ));
ENDSEC;

DATA;
#1 = CYLINDRICAL_SURFACE ( 'NONE', #85, 0.3121874999999998956 ) ;
#2 = DIRECTION ( 'NONE',  ( -1.224646799147353207E-16, -0.0000000000000000000, -1.000000000000000000 ) ) ;
#3 = ORIENTED_EDGE ( 'NONE', *, *, #42, .T. ) ;
#4 = DIRECTION ( 'NONE',  ( -1.000000000000000000, 0.0000000000000000000, 0.0000000000000000000 ) ) ;
#5 = CIRCLE ( 'NONE', #277, 0.3125000000000000000 ) ;
#6 = COLOUR_RGB ( '',0.7921568627450980005, 0.8196078431372548767, 0.9333333333333333481 ) ;
#7 = ORIENTED_EDGE ( 'NONE', *, *, #45, .F. ) ;
#8 = DIRECTION ( 'NONE',  ( -1.224646799147353207E-16, -0.0000000000000000000, -1.000000000000000000 ) ) ;
#9 = LINE ( 'NONE', #105, #99 ) ;
#10 = UNCERTAINTY_MEASURE_WITH_UNIT (LENGTH_MEASURE( 1.000000000000000082E-05 ), #150, 'distance_accuracy_value', 'NONE');
#11 = VERTEX_POINT ( 'NONE', #22 ) ;
#12 =( LENGTH_UNIT ( ) NAMED_UNIT ( * ) SI_UNIT ( $, .METRE. ) );
#13 = CARTESIAN_POINT ( 'NONE',  ( 0.0000000000000000000, 0.0000000000000000000, 3.500000000000000000 ) ) ;
#14 = EDGE_CURVE ( 'NONE', #17, #34, #63, .T. ) ;
#15 = DIRECTION ( 'NONE',  ( 0.0000000000000000000, 0.0000000000000000000, -1.000000000000000000 ) ) ;
#16 = ORIENTED_EDGE ( 'NONE', *, *, #42, .F. ) ;
#17 = VERTEX_POINT ( 'NONE', #123 ) ;
#18 = DIRECTION ( 'NONE',  ( -0.0000000000000000000, -0.0000000000000000000, -1.000000000000000000 ) ) ;
#19 = EDGE_LOOP ( 'NONE', ( #208, #119, #175, #250 ) ) ;
#20 = CONICAL_SURFACE ( 'NONE', #167, 0.2975000000000003197, 0.7853981633974300713 ) ;
#21 = CARTESIAN_POINT ( 'NONE',  ( -0.3121874999999997846, 3.823194226088142147E-17, 1.250000000000000000 ) ) ;
#22 = CARTESIAN_POINT ( 'NONE',  ( -0.2975000000000003197, 0.0000000000000000000, 3.500000000000000000 ) ) ;
#23 =( LENGTH_UNIT ( ) NAMED_UNIT ( * ) SI_UNIT ( $, .METRE. ) );
#24 = DIRECTION ( 'NONE',  ( 0.0000000000000000000, 0.0000000000000000000, 1.000000000000000000 ) ) ;
#25 = DIRECTION ( 'NONE',  ( -1.224646799147353207E-16, -0.0000000000000000000, -1.000000000000000000 ) ) ;
#26 = DIRECTION ( 'NONE',  ( -1.224646799147353207E-16, -0.0000000000000000000, -1.000000000000000000 ) ) ;
#27 = UNCERTAINTY_MEASURE_WITH_UNIT (LENGTH_MEASURE( 1.000000000000000082E-05 ), #126, 'distance_accuracy_value', 'NONE');
#28 = ORIENTED_EDGE ( 'NONE', *, *, #56, .T. ) ;
#29 = CONICAL_SURFACE ( 'NONE', #206, 0.3121874999999998956, 0.1745329251994340303 ) ;
#30 = AXIS2_PLACEMENT_3D ( 'NONE', #252, #188, #297 ) ;
#31 = EDGE_LOOP ( 'NONE', ( #114, #197, #7, #120 ) ) ;
#32 = DIRECTION ( 'NONE',  ( 1.000000000000000000, 0.0000000000000000000, 0.0000000000000000000 ) ) ;
#33 = CARTESIAN_POINT ( 'NONE',  ( -0.3121874999999998956, 0.0000000000000000000, 7.646388452176284293E-17 ) ) ;
#34 = VERTEX_POINT ( 'NONE', #104 ) ;
#35 = SURFACE_STYLE_FILL_AREA ( #113 ) ;
#36 = FACE_OUTER_BOUND ( 'NONE', #293, .T. ) ;
#37 = FACE_OUTER_BOUND ( 'NONE', #31, .T. ) ;
#38 = ADVANCED_FACE ( 'NONE', ( #234 ), #20, .T. ) ;
#39 = DIRECTION ( 'NONE',  ( -1.224646799147353207E-16, -0.0000000000000000000, -1.000000000000000000 ) ) ;
#40 =( NAMED_UNIT ( * ) SI_UNIT ( $, .STERADIAN. ) SOLID_ANGLE_UNIT ( ) );
#41 = DIRECTION ( 'NONE',  ( 1.000000000000000000, 0.0000000000000000000, 0.0000000000000000000 ) ) ;
#42 = EDGE_CURVE ( 'NONE', #156, #176, #48, .T. ) ;
#43 = AXIS2_PLACEMENT_3D ( 'NONE', #107, #202, #182 ) ;
#44 = DIRECTION ( 'NONE',  ( 0.0000000000000000000, 0.0000000000000000000, -1.000000000000000000 ) ) ;
#45 = EDGE_CURVE ( 'NONE', #176, #156, #5, .T. ) ;
#46 = VECTOR ( 'NONE', #25, 39.37007874015748143 ) ;
#47 = FILL_AREA_STYLE_COLOUR ( '', #6 ) ;
#48 = CIRCLE ( 'NONE', #294, 0.3125000000000000000 ) ;
#49 = FACE_OUTER_BOUND ( 'NONE', #172, .T. ) ;
#50 = DIRECTION ( 'NONE',  ( 1.000000000000000000, 0.0000000000000000000, 0.0000000000000000000 ) ) ;
#51 = VECTOR ( 'NONE', #117, 39.37007874015748143 ) ;
#52 = SURFACE_STYLE_USAGE ( .BOTH. , #270 ) ;
#53 = PRODUCT_CONTEXT ( 'NONE', #211, 'mechanical' ) ;
#54 = DIRECTION ( 'NONE',  ( -1.224646799147353207E-16, -0.0000000000000000000, -1.000000000000000000 ) ) ;
#55 = VECTOR ( 'NONE', #296, 39.37007874015748143 ) ;
#56 = EDGE_CURVE ( 'NONE', #11, #220, #210, .T. ) ;
#57 = LINE ( 'NONE', #155, #68 ) ;
#58 = EDGE_LOOP ( 'NONE', ( #98, #279 ) ) ;
#59 =( NAMED_UNIT ( * ) PLANE_ANGLE_UNIT ( ) SI_UNIT ( $, .RADIAN. ) );
#60 =( CONVERSION_BASED_UNIT ( 'INCH', #161 ) LENGTH_UNIT ( ) NAMED_UNIT ( #268 ) );
#61 =( GEOMETRIC_REPRESENTATION_CONTEXT ( 3 ) GLOBAL_UNCERTAINTY_ASSIGNED_CONTEXT ( ( #10 ) ) GLOBAL_UNIT_ASSIGNED_CONTEXT ( ( #150, #79, #76 ) ) REPRESENTATION_CONTEXT ( 'NONE', 'WORKASPACE' ) );
#62 = DIRECTION ( 'NONE',  ( 0.7071067811865346942, 8.659560562354773853E-17, -0.7071067811865603403 ) ) ;
#63 = CIRCLE ( 'NONE', #75, 0.3125000000000000000 ) ;
#64 = STYLED_ITEM ( 'NONE', ( #230 ), #154 ) ;
#65 = EDGE_CURVE ( 'NONE', #144, #176, #198, .T. ) ;
#66 = CARTESIAN_POINT ( 'NONE',  ( 1.530808498934191571E-16, 0.0000000000000000000, 1.250000000000000000 ) ) ;
#67 = ORIENTED_EDGE ( 'NONE', *, *, #241, .F. ) ;
#68 = VECTOR ( 'NONE', #62, 39.37007874015748143 ) ;
#69 = CARTESIAN_POINT ( 'NONE',  ( -0.3125000000000000000, 0.0000000000000000000, 3.500000000000000000 ) ) ;
#70 = DIRECTION ( 'NONE',  ( 1.000000000000000000, 0.0000000000000000000, -0.0000000000000000000 ) ) ;
#71 = FILL_AREA_STYLE_COLOUR ( '', #200 ) ;
#72 = ADVANCED_FACE ( 'NONE', ( #89 ), #251, .F. ) ;
#73 = CARTESIAN_POINT ( 'NONE',  ( 0.0000000000000000000, 0.0000000000000000000, 0.0000000000000000000 ) ) ;
#74 = DIRECTION ( 'NONE',  ( 0.0000000000000000000, 0.0000000000000000000, 1.000000000000000000 ) ) ;
#75 = AXIS2_PLACEMENT_3D ( 'NONE', #186, #102, #173 ) ;
#76 =( NAMED_UNIT ( * ) SI_UNIT ( $, .STERADIAN. ) SOLID_ANGLE_UNIT ( ) );
#77 = CIRCLE ( 'NONE', #106, 0.3125000000000000000 ) ;
#78 = FACE_OUTER_BOUND ( 'NONE', #219, .T. ) ;
#79 =( NAMED_UNIT ( * ) PLANE_ANGLE_UNIT ( ) SI_UNIT ( $, .RADIAN. ) );
#80 = DIRECTION ( 'NONE',  ( -1.224646799147353207E-16, -0.0000000000000000000, -1.000000000000000000 ) ) ;
#81 = CARTESIAN_POINT ( 'NONE',  ( 0.0000000000000000000, 0.0000000000000000000, 3.484999999999999432 ) ) ;
#82 = SHAPE_DEFINITION_REPRESENTATION ( #169, #154 ) ;
#83 = DIRECTION ( 'NONE',  ( -1.000000000000000000, 0.0000000000000000000, 1.224646799147353207E-16 ) ) ;
#84 = LENGTH_MEASURE_WITH_UNIT ( LENGTH_MEASURE( 0.02539999999999999897 ), #12 );
#85 = AXIS2_PLACEMENT_3D ( 'NONE', #95, #2, #94 ) ;
#86 = VECTOR ( 'NONE', #170, 39.37007874015748143 ) ;
#87 = ORIENTED_EDGE ( 'NONE', *, *, #122, .F. ) ;
#88 = DIRECTION ( 'NONE',  ( 0.0000000000000000000, 0.0000000000000000000, 1.000000000000000000 ) ) ;
#89 = FACE_OUTER_BOUND ( 'NONE', #58, .T. ) ;
#90 = ORIENTED_EDGE ( 'NONE', *, *, #209, .F. ) ;
#91 = MECHANICAL_DESIGN_GEOMETRIC_PRESENTATION_REPRESENTATION (  '', ( #140 ), #181 ) ;
#92 = APPLICATION_PROTOCOL_DEFINITION ( 'draft international standard', 'automotive_design', 1998, #211 ) ;
#93 = ADVANCED_FACE ( 'NONE', ( #36 ), #131, .T. ) ;
#94 = DIRECTION ( 'NONE',  ( -1.000000000000000000, 0.0000000000000000000, 1.224646799147353207E-16 ) ) ;
#95 = CARTESIAN_POINT ( 'NONE',  ( 0.0000000000000000000, 0.0000000000000000000, 0.0000000000000000000 ) ) ;
#96 = CARTESIAN_POINT ( 'NONE',  ( 0.3125000000000001665, 3.827021247335480159E-17, 1.251772275568631132 ) ) ;
#97 = UNCERTAINTY_MEASURE_WITH_UNIT (LENGTH_MEASURE( 1.000000000000000082E-05 ), #60, 'distance_accuracy_value', 'NONE');
#98 = ORIENTED_EDGE ( 'NONE', *, *, #241, .T. ) ;
#99 = VECTOR ( 'NONE', #174, 39.37007874015748143 ) ;
#100 = ADVANCED_FACE ( 'NONE', ( #78 ), #227, .T. ) ;
#101 = CARTESIAN_POINT ( 'NONE',  ( 0.3121875000000000622, 0.0000000000000000000, 1.250000000000000000 ) ) ;
#102 = DIRECTION ( 'NONE',  ( 0.0000000000000000000, 0.0000000000000000000, -1.000000000000000000 ) ) ;
#103 = CARTESIAN_POINT ( 'NONE',  ( 0.3121874999999998956, 3.823194226088142147E-17, 0.0000000000000000000 ) ) ;
#104 = CARTESIAN_POINT ( 'NONE',  ( -0.3125000000000000000, 0.0000000000000000000, 3.484999999999999432 ) ) ;
#105 = CARTESIAN_POINT ( 'NONE',  ( 0.3121874999999998956, 3.823194226088142147E-17, -3.823194226088142147E-17 ) ) ;
#106 = AXIS2_PLACEMENT_3D ( 'NONE', #81, #15, #205 ) ;
#107 = CARTESIAN_POINT ( 'NONE',  ( 0.0000000000000000000, 0.0000000000000000000, 3.500000000000000000 ) ) ;
#108 = DIMENSIONAL_EXPONENTS ( 1.000000000000000000, 0.0000000000000000000, 0.0000000000000000000, 0.0000000000000000000, 0.0000000000000000000, 0.0000000000000000000, 0.0000000000000000000 ) ;
#109 = DIRECTION ( 'NONE',  ( -0.0000000000000000000, -0.0000000000000000000, -1.000000000000000000 ) ) ;
#110 = EDGE_LOOP ( 'NONE', ( #90, #257, #285, #201 ) ) ;
#111 = CARTESIAN_POINT ( 'NONE',  ( 0.0000000000000000000, 0.0000000000000000000, 3.500000000000000000 ) ) ;
#112 =( LENGTH_UNIT ( ) NAMED_UNIT ( * ) SI_UNIT ( $, .METRE. ) );
#113 = FILL_AREA_STYLE ('',( #71 ) ) ;
#114 = ORIENTED_EDGE ( 'NONE', *, *, #263, .T. ) ;
#115 = AXIS2_PLACEMENT_3D ( 'NONE', #246, #54, #295 ) ;
#116 =( NAMED_UNIT ( * ) SI_UNIT ( $, .STERADIAN. ) SOLID_ANGLE_UNIT ( ) );
#117 = DIRECTION ( 'NONE',  ( 0.1736481776669315247, 0.0000000000000000000, 0.9848077530122077983 ) ) ;
#118 = CARTESIAN_POINT ( 'NONE',  ( -0.2975000000000003197, 0.0000000000000000000, 3.500000000000000000 ) ) ;
#119 = ORIENTED_EDGE ( 'NONE', *, *, #65, .T. ) ;
#120 = ORIENTED_EDGE ( 'NONE', *, *, #229, .F. ) ;
#121 = AXIS2_PLACEMENT_3D ( 'NONE', #143, #26, #4 ) ;
#122 = EDGE_CURVE ( 'NONE', #288, #139, #9, .T. ) ;
#123 = CARTESIAN_POINT ( 'NONE',  ( 0.3125000000000000000, 3.827021247335478926E-17, 3.484999999999999432 ) ) ;
#124 = EDGE_CURVE ( 'NONE', #144, #146, #138, .T. ) ;
#125 = DIRECTION ( 'NONE',  ( 1.000000000000000000, 0.0000000000000000000, 0.0000000000000000000 ) ) ;
#126 =( CONVERSION_BASED_UNIT ( 'INCH', #84 ) LENGTH_UNIT ( ) NAMED_UNIT ( #108 ) );
#127 = ORIENTED_EDGE ( 'NONE', *, *, #122, .T. ) ;
#128 = DIMENSIONAL_EXPONENTS ( 1.000000000000000000, 0.0000000000000000000, 0.0000000000000000000, 0.0000000000000000000, 0.0000000000000000000, 0.0000000000000000000, 0.0000000000000000000 ) ;
#129 = PRESENTATION_LAYER_ASSIGNMENT (  '', '', ( #64 ) ) ;
#130 = CYLINDRICAL_SURFACE ( 'NONE', #43, 0.3125000000000000000 ) ;
#131 = PLANE ( 'NONE',  #236 ) ;
#132 = EDGE_CURVE ( 'NONE', #11, #34, #239, .T. ) ;
#133 = CARTESIAN_POINT ( 'NONE',  ( 4.682062571497486343E-33, 0.0000000000000000000, 3.823194226088142147E-17 ) ) ;
#134 = ORIENTED_EDGE ( 'NONE', *, *, #56, .F. ) ;
#135 = DIRECTION ( 'NONE',  ( -1.000000000000000000, 0.0000000000000000000, 0.0000000000000000000 ) ) ;
#136 = AXIS2_PLACEMENT_3D ( 'NONE', #13, #109, #203 ) ;
#137 = CARTESIAN_POINT ( 'NONE',  ( 1.532978910536522803E-16, 0.0000000000000000000, 1.251772275568631132 ) ) ;
#138 = LINE ( 'NONE', #191, #46 ) ;
#139 = VERTEX_POINT ( 'NONE', #103 ) ;
#140 = STYLED_ITEM ( 'NONE', ( #183 ), #233 ) ;
#141 = CARTESIAN_POINT ( 'NONE',  ( 1.530808498934191571E-16, 0.0000000000000000000, 1.250000000000000000 ) ) ;
#142 = EDGE_CURVE ( 'NONE', #288, #156, #164, .T. ) ;
#143 = CARTESIAN_POINT ( 'NONE',  ( 1.530808498934191571E-16, 0.0000000000000000000, 1.250000000000000000 ) ) ;
#144 = VERTEX_POINT ( 'NONE', #216 ) ;
#145 = CIRCLE ( 'NONE', #30, 0.3121874999999998956 ) ;
#146 = VERTEX_POINT ( 'NONE', #33 ) ;
#147 = PRODUCT_RELATED_PRODUCT_CATEGORY ( 'part', '', ( #218 ) ) ;
#148 = LINE ( 'NONE', #149, #163 ) ;
#149 = CARTESIAN_POINT ( 'NONE',  ( 0.3125000000000000000, 3.827021247335478926E-17, 3.500000000000000000 ) ) ;
#150 =( CONVERSION_BASED_UNIT ( 'INCH', #260 ) LENGTH_UNIT ( ) NAMED_UNIT ( #128 ) );
#151 = MECHANICAL_DESIGN_GEOMETRIC_PRESENTATION_REPRESENTATION (  '', ( #64 ), #61 ) ;
#152 = FACE_OUTER_BOUND ( 'NONE', #204, .T. ) ;
#153 = ORIENTED_EDGE ( 'NONE', *, *, #289, .F. ) ;
#154 = ADVANCED_BREP_SHAPE_REPRESENTATION ( 'Micro_SHR-625-4X', ( #233, #238 ), #207 ) ;
#155 = CARTESIAN_POINT ( 'NONE',  ( 0.2975000000000003197, 3.643324227463378817E-17, 3.500000000000000000 ) ) ;
#156 = VERTEX_POINT ( 'NONE', #96 ) ;
#157 = CARTESIAN_POINT ( 'NONE',  ( 0.0000000000000000000, 0.0000000000000000000, 3.500000000000000000 ) ) ;
#158 =( NAMED_UNIT ( * ) PLANE_ANGLE_UNIT ( ) SI_UNIT ( $, .RADIAN. ) );
#159 = ADVANCED_FACE ( 'NONE', ( #284 ), #1, .T. ) ;
#160 = CLOSED_SHELL ( 'NONE', ( #100, #184, #38, #276, #258, #93, #237, #212, #159, #72 ) ) ;
#161 = LENGTH_MEASURE_WITH_UNIT ( LENGTH_MEASURE( 0.02539999999999999897 ), #23 );
#162 = CIRCLE ( 'NONE', #231, 0.2975000000000003197 ) ;
#163 = VECTOR ( 'NONE', #18, 39.37007874015748143 ) ;
#164 = LINE ( 'NONE', #101, #51 ) ;
#165 = EDGE_LOOP ( 'NONE', ( #87, #168, #180, #275 ) ) ;
#166 = DIRECTION ( 'NONE',  ( 1.000000000000000000, 0.0000000000000000000, 0.0000000000000000000 ) ) ;
#167 = AXIS2_PLACEMENT_3D ( 'NONE', #111, #44, #135 ) ;
#168 = ORIENTED_EDGE ( 'NONE', *, *, #292, .T. ) ;
#169 = PRODUCT_DEFINITION_SHAPE ( 'NONE', 'NONE',  #221 ) ;
#170 = DIRECTION ( 'NONE',  ( -0.0000000000000000000, -0.0000000000000000000, -1.000000000000000000 ) ) ;
#171 = ORIENTED_EDGE ( 'NONE', *, *, #292, .F. ) ;
#172 = EDGE_LOOP ( 'NONE', ( #194, #171, #282, #3 ) ) ;
#173 = DIRECTION ( 'NONE',  ( 1.000000000000000000, 0.0000000000000000000, 0.0000000000000000000 ) ) ;
#174 = DIRECTION ( 'NONE',  ( -1.224646799147353207E-16, -0.0000000000000000000, -1.000000000000000000 ) ) ;
#175 = ORIENTED_EDGE ( 'NONE', *, *, #45, .T. ) ;
#176 = VERTEX_POINT ( 'NONE', #190 ) ;
#177 = DIRECTION ( 'NONE',  ( 1.000000000000000000, 0.0000000000000000000, 0.0000000000000000000 ) ) ;
#178 = DIRECTION ( 'NONE',  ( 1.000000000000000000, 0.0000000000000000000, -0.0000000000000000000 ) ) ;
#179 = AXIS2_PLACEMENT_3D ( 'NONE', #73, #88, #178 ) ;
#180 = ORIENTED_EDGE ( 'NONE', *, *, #124, .T. ) ;
#181 =( GEOMETRIC_REPRESENTATION_CONTEXT ( 3 ) GLOBAL_UNCERTAINTY_ASSIGNED_CONTEXT ( ( #27 ) ) GLOBAL_UNIT_ASSIGNED_CONTEXT ( ( #126, #59, #40 ) ) REPRESENTATION_CONTEXT ( 'NONE', 'WORKASPACE' ) );
#182 = DIRECTION ( 'NONE',  ( -1.000000000000000000, 0.0000000000000000000, 0.0000000000000000000 ) ) ;
#183 = PRESENTATION_STYLE_ASSIGNMENT (( #267 ) ) ;
#184 = ADVANCED_FACE ( 'NONE', ( #274 ), #29, .T. ) ;
#185 = ORIENTED_EDGE ( 'NONE', *, *, #229, .T. ) ;
#186 = CARTESIAN_POINT ( 'NONE',  ( 0.0000000000000000000, 0.0000000000000000000, 3.484999999999999432 ) ) ;
#187 = CONICAL_SURFACE ( 'NONE', #286, 0.2975000000000003197, 0.7853981633974300713 ) ;
#188 = DIRECTION ( 'NONE',  ( -1.224646799147353207E-16, -0.0000000000000000000, -1.000000000000000000 ) ) ;
#189 = AXIS2_PLACEMENT_3D ( 'NONE', #266, #80, #83 ) ;
#190 = CARTESIAN_POINT ( 'NONE',  ( -0.3124999999999998890, 0.0000000000000000000, 1.251772275568631132 ) ) ;
#191 = CARTESIAN_POINT ( 'NONE',  ( -0.3121874999999998956, 0.0000000000000000000, 3.823194226088142147E-17 ) ) ;
#192 = CARTESIAN_POINT ( 'NONE',  ( 0.2975000000000003197, 3.735172737399428256E-17, 3.500000000000000000 ) ) ;
#193 = AXIS2_PLACEMENT_3D ( 'NONE', #244, #74, #125 ) ;
#194 = ORIENTED_EDGE ( 'NONE', *, *, #65, .F. ) ;
#195 = CARTESIAN_POINT ( 'NONE',  ( 0.0000000000000000000, 0.0000000000000000000, 3.500000000000000000 ) ) ;
#196 = ORIENTED_EDGE ( 'NONE', *, *, #14, .F. ) ;
#197 = ORIENTED_EDGE ( 'NONE', *, *, #243, .T. ) ;
#198 = LINE ( 'NONE', #21, #55 ) ;
#199 = PRODUCT_DEFINITION_CONTEXT ( 'detailed design', #280, 'design' ) ;
#200 = COLOUR_RGB ( '',0.7921568627450980005, 0.8196078431372548767, 0.9333333333333333481 ) ;
#201 = ORIENTED_EDGE ( 'NONE', *, *, #132, .F. ) ;
#202 = DIRECTION ( 'NONE',  ( -0.0000000000000000000, -0.0000000000000000000, -1.000000000000000000 ) ) ;
#203 = DIRECTION ( 'NONE',  ( -1.000000000000000000, 0.0000000000000000000, 0.0000000000000000000 ) ) ;
#204 = EDGE_LOOP ( 'NONE', ( #153, #134, #253, #196 ) ) ;
#205 = DIRECTION ( 'NONE',  ( 1.000000000000000000, 0.0000000000000000000, 0.0000000000000000000 ) ) ;
#206 = AXIS2_PLACEMENT_3D ( 'NONE', #66, #256, #50 ) ;
#207 =( GEOMETRIC_REPRESENTATION_CONTEXT ( 3 ) GLOBAL_UNCERTAINTY_ASSIGNED_CONTEXT ( ( #97 ) ) GLOBAL_UNIT_ASSIGNED_CONTEXT ( ( #60, #158, #116 ) ) REPRESENTATION_CONTEXT ( 'NONE', 'WORKASPACE' ) );
#208 = ORIENTED_EDGE ( 'NONE', *, *, #214, .F. ) ;
#209 = EDGE_CURVE ( 'NONE', #220, #11, #162, .T. ) ;
#210 = CIRCLE ( 'NONE', #193, 0.2975000000000003197 ) ;
#211 = APPLICATION_CONTEXT ( 'automotive_design' ) ;
#212 = ADVANCED_FACE ( 'NONE', ( #49 ), #269, .T. ) ;
#213 = FILL_AREA_STYLE ('',( #47 ) ) ;
#214 = EDGE_CURVE ( 'NONE', #144, #288, #261, .T. ) ;
#215 = PRESENTATION_LAYER_ASSIGNMENT (  '', '', ( #140 ) ) ;
#216 = CARTESIAN_POINT ( 'NONE',  ( -0.3121874999999997846, 3.825107736711810845E-17, 1.250000000000000000 ) ) ;
#217 = DIRECTION ( 'NONE',  ( 1.000000000000000000, 0.0000000000000000000, 0.0000000000000000000 ) ) ;
#218 = PRODUCT ( 'Micro_SHR-625-4X', 'Micro_SHR-625-4X', '', ( #53 ) ) ;
#219 = EDGE_LOOP ( 'NONE', ( #271, #127, #67, #248 ) ) ;
#220 = VERTEX_POINT ( 'NONE', #192 ) ;
#221 = PRODUCT_DEFINITION ( 'UNKNOWN', '', #255, #199 ) ;
#222 = FACE_OUTER_BOUND ( 'NONE', #226, .T. ) ;
#223 = CIRCLE ( 'NONE', #115, 0.3121874999999998956 ) ;
#224 = APPLICATION_PROTOCOL_DEFINITION ( 'draft international standard', 'automotive_design', 1998, #280 ) ;
#225 = CYLINDRICAL_SURFACE ( 'NONE', #136, 0.3125000000000000000 ) ;
#226 = EDGE_LOOP ( 'NONE', ( #249, #235, #185, #16 ) ) ;
#227 = CYLINDRICAL_SURFACE ( 'NONE', #189, 0.3121874999999998956 ) ;
#228 = SURFACE_SIDE_STYLE ('',( #35 ) ) ;
#229 = EDGE_CURVE ( 'NONE', #34, #176, #278, .T. ) ;
#230 = PRESENTATION_STYLE_ASSIGNMENT (( #52 ) ) ;
#231 = AXIS2_PLACEMENT_3D ( 'NONE', #195, #281, #166 ) ;
#232 = CARTESIAN_POINT ( 'NONE',  ( 1.532978910536522803E-16, 0.0000000000000000000, 1.251772275568631132 ) ) ;
#233 = MANIFOLD_SOLID_BREP ( 'Cut-Revolve1', #160 ) ;
#234 = FACE_OUTER_BOUND ( 'NONE', #110, .T. ) ;
#235 = ORIENTED_EDGE ( 'NONE', *, *, #14, .T. ) ;
#236 = AXIS2_PLACEMENT_3D ( 'NONE', #157, #24, #70 ) ;
#237 = ADVANCED_FACE ( 'NONE', ( #152 ), #187, .T. ) ;
#238 = AXIS2_PLACEMENT_3D ( 'NONE', #290, #264, #177 ) ;
#239 = LINE ( 'NONE', #118, #272 ) ;
#240 = DIRECTION ( 'NONE',  ( 1.224646799147353207E-16, 0.0000000000000000000, 1.000000000000000000 ) ) ;
#241 = EDGE_CURVE ( 'NONE', #146, #139, #298, .T. ) ;
#242 = CARTESIAN_POINT ( 'NONE',  ( 0.0000000000000000000, 0.0000000000000000000, 3.500000000000000000 ) ) ;
#243 = EDGE_CURVE ( 'NONE', #17, #156, #148, .T. ) ;
#244 = CARTESIAN_POINT ( 'NONE',  ( 0.0000000000000000000, 0.0000000000000000000, 3.500000000000000000 ) ) ;
#245 = ORIENTED_EDGE ( 'NONE', *, *, #209, .T. ) ;
#246 = CARTESIAN_POINT ( 'NONE',  ( 4.682062571497486343E-33, 0.0000000000000000000, 3.823194226088142147E-17 ) ) ;
#247 = DIRECTION ( 'NONE',  ( -1.000000000000000000, 0.0000000000000000000, 0.0000000000000000000 ) ) ;
#248 = ORIENTED_EDGE ( 'NONE', *, *, #124, .F. ) ;
#249 = ORIENTED_EDGE ( 'NONE', *, *, #243, .F. ) ;
#250 = ORIENTED_EDGE ( 'NONE', *, *, #142, .F. ) ;
#251 = PLANE ( 'NONE',  #179 ) ;
#252 = CARTESIAN_POINT ( 'NONE',  ( 1.530808498934191571E-16, 0.0000000000000000000, 1.250000000000000000 ) ) ;
#253 = ORIENTED_EDGE ( 'NONE', *, *, #132, .T. ) ;
#254 = AXIS2_PLACEMENT_3D ( 'NONE', #133, #39, #287 ) ;
#255 = PRODUCT_DEFINITION_FORMATION_WITH_SPECIFIED_SOURCE ( 'ANY', '', #218, .NOT_KNOWN. ) ;
#256 = DIRECTION ( 'NONE',  ( 1.224646799147353207E-16, 0.0000000000000000000, 1.000000000000000000 ) ) ;
#257 = ORIENTED_EDGE ( 'NONE', *, *, #289, .T. ) ;
#258 = ADVANCED_FACE ( 'NONE', ( #222 ), #130, .T. ) ;
#259 = DIRECTION ( 'NONE',  ( -0.7071067811865346942, 0.0000000000000000000, -0.7071067811865603403 ) ) ;
#260 = LENGTH_MEASURE_WITH_UNIT ( LENGTH_MEASURE( 0.02539999999999999897 ), #112 );
#261 = CIRCLE ( 'NONE', #121, 0.3121874999999998956 ) ;
#262 = AXIS2_PLACEMENT_3D ( 'NONE', #141, #240, #217 ) ;
#263 = EDGE_CURVE ( 'NONE', #34, #17, #77, .T. ) ;
#264 = DIRECTION ( 'NONE',  ( 0.0000000000000000000, 0.0000000000000000000, 1.000000000000000000 ) ) ;
#265 = DIRECTION ( 'NONE',  ( 0.0000000000000000000, 0.0000000000000000000, -1.000000000000000000 ) ) ;
#266 = CARTESIAN_POINT ( 'NONE',  ( 0.0000000000000000000, 0.0000000000000000000, 0.0000000000000000000 ) ) ;
#267 = SURFACE_STYLE_USAGE ( .BOTH. , #228 ) ;
#268 = DIMENSIONAL_EXPONENTS ( 1.000000000000000000, 0.0000000000000000000, 0.0000000000000000000, 0.0000000000000000000, 0.0000000000000000000, 0.0000000000000000000, 0.0000000000000000000 ) ;
#269 = CONICAL_SURFACE ( 'NONE', #262, 0.3121874999999998956, 0.1745329251994340303 ) ;
#270 = SURFACE_SIDE_STYLE ('',( #299 ) ) ;
#271 = ORIENTED_EDGE ( 'NONE', *, *, #214, .T. ) ;
#272 = VECTOR ( 'NONE', #259, 39.37007874015748143 ) ;
#273 = EDGE_CURVE ( 'NONE', #139, #146, #223, .T. ) ;
#274 = FACE_OUTER_BOUND ( 'NONE', #19, .T. ) ;
#275 = ORIENTED_EDGE ( 'NONE', *, *, #273, .F. ) ;
#276 = ADVANCED_FACE ( 'NONE', ( #37 ), #225, .T. ) ;
#277 = AXIS2_PLACEMENT_3D ( 'NONE', #137, #283, #32 ) ;
#278 = LINE ( 'NONE', #69, #86 ) ;
#279 = ORIENTED_EDGE ( 'NONE', *, *, #273, .T. ) ;
#280 = APPLICATION_CONTEXT ( 'automotive_design' ) ;
#281 = DIRECTION ( 'NONE',  ( 0.0000000000000000000, 0.0000000000000000000, 1.000000000000000000 ) ) ;
#282 = ORIENTED_EDGE ( 'NONE', *, *, #142, .T. ) ;
#283 = DIRECTION ( 'NONE',  ( -1.224646799147353207E-16, -0.0000000000000000000, -1.000000000000000000 ) ) ;
#284 = FACE_OUTER_BOUND ( 'NONE', #165, .T. ) ;
#285 = ORIENTED_EDGE ( 'NONE', *, *, #263, .F. ) ;
#286 = AXIS2_PLACEMENT_3D ( 'NONE', #242, #265, #247 ) ;
#287 = DIRECTION ( 'NONE',  ( -1.000000000000000000, 0.0000000000000000000, 1.224646799147353207E-16 ) ) ;
#288 = VERTEX_POINT ( 'NONE', #291 ) ;
#289 = EDGE_CURVE ( 'NONE', #220, #17, #57, .T. ) ;
#290 = CARTESIAN_POINT ( 'NONE',  ( 0.0000000000000000000, 0.0000000000000000000, 0.0000000000000000000 ) ) ;
#291 = CARTESIAN_POINT ( 'NONE',  ( 0.3121875000000000622, 0.0000000000000000000, 1.250000000000000000 ) ) ;
#292 = EDGE_CURVE ( 'NONE', #288, #144, #145, .T. ) ;
#293 = EDGE_LOOP ( 'NONE', ( #28, #245 ) ) ;
#294 = AXIS2_PLACEMENT_3D ( 'NONE', #232, #8, #41 ) ;
#295 = DIRECTION ( 'NONE',  ( -1.000000000000000000, 0.0000000000000000000, 1.224646799147353207E-16 ) ) ;
#296 = DIRECTION ( 'NONE',  ( -0.1736481776669313026, 2.126576849575784549E-17, 0.9848077530122077983 ) ) ;
#297 = DIRECTION ( 'NONE',  ( -1.000000000000000000, 0.0000000000000000000, 0.0000000000000000000 ) ) ;
#298 = CIRCLE ( 'NONE', #254, 0.3121874999999998956 ) ;
#299 = SURFACE_STYLE_FILL_AREA ( #213 ) ;
ENDSEC;
END-ISO-10303-21;
