ISO-10303-21;
HEADER;
FILE_DESCRIPTION (( 'STEP AP214' ),
    '1' );
FILE_NAME ('81936.STEP',
    '2023-06-30T22:37:13',
    ( '' ),
    ( '' ),
    'SwSTEP 2.0',
    'SolidWorks 2023',
    '' );
FILE_SCHEMA (( 'AUTOMOTIVE_DESIGN' ));
ENDSEC;

DATA;
#1 = SPHERICAL_SURFACE ( 'NONE', #99, 0.3750000000000001110 ) ;
#2 = MECHANICAL_DESIGN_GEOMETRIC_PRESENTATION_REPRESENTATION (  '', ( #371 ), #64 ) ;
#3 = AXIS2_PLACEMENT_3D ( 'NONE', #186, #52, #219 ) ;
#4 = ADVANCED_FACE ( 'NONE', ( #300 ), #90, .F. ) ;
#5 = FILL_AREA_STYLE_COLOUR ( '', #272 ) ;
#6 = SURFACE_SIDE_STYLE ('',( #313 ) ) ;
#7 = EDGE_CURVE ( 'NONE', #102, #80, #22, .T. ) ;
#8 = PRESENTATION_LAYER_ASSIGNMENT (  '', '', ( #371 ) ) ;
#9 = DIRECTION ( 'NONE',  ( -1.000000000000000000, 0.000000000000000000, 0.000000000000000000 ) ) ;
#10 = ORIENTED_EDGE ( 'NONE', *, *, #336, .F. ) ;
#11 = PRODUCT ( '81936', '81936', '', ( #346 ) ) ;
#12 = CARTESIAN_POINT ( 'NONE',  ( 4.592425496802573602E-17, 1.000000000000000000, 0.3749999999999999445 ) ) ;
#13 = ORIENTED_EDGE ( 'NONE', *, *, #148, .T. ) ;
#14 = COLOUR_RGB ( '',0.7921568627450980005, 0.8196078431372548767, 0.9333333333333333481 ) ;
#15 = CYLINDRICAL_SURFACE ( 'NONE', #232, 0.3749999999999999445 ) ;
#16 = EDGE_CURVE ( 'NONE', #240, #329, #230, .T. ) ;
#17 = STYLED_ITEM ( 'NONE', ( #359 ), #259 ) ;
#18 = ORIENTED_EDGE ( 'NONE', *, *, #126, .F. ) ;
#19 = EDGE_CURVE ( 'NONE', #295, #102, #145, .T. ) ;
#20 = CARTESIAN_POINT ( 'NONE',  ( 0.000000000000000000, 0.000000000000000000, 0.000000000000000000 ) ) ;
#21 = SURFACE_STYLE_FILL_AREA ( #365 ) ;
#22 = CIRCLE ( 'NONE', #69, 0.3750000000000001110 ) ;
#23 = UNCERTAINTY_MEASURE_WITH_UNIT (LENGTH_MEASURE( 1.000000000000000082E-05 ), #55, 'distance_accuracy_value', 'NONE');
#24 = COLOUR_RGB ( '',1.000000000000000000, 0.000000000000000000, 0.000000000000000000 ) ;
#25 = SURFACE_STYLE_FILL_AREA ( #246 ) ;
#26 = PRESENTATION_STYLE_ASSIGNMENT (( #369 ) ) ;
#27 = SURFACE_STYLE_USAGE ( .BOTH. , #306 ) ;
#28 = CARTESIAN_POINT ( 'NONE',  ( -0.3749999999999991673, 1.000000000000000000, 0.000000000000000000 ) ) ;
#29 = DIRECTION ( 'NONE',  ( 0.000000000000000000, 0.000000000000000000, -1.000000000000000000 ) ) ;
#30 = SURFACE_SIDE_STYLE ('',( #196 ) ) ;
#31 = FILL_AREA_STYLE_COLOUR ( '', #75 ) ;
#32 = DIMENSIONAL_EXPONENTS ( 1.000000000000000000, 0.000000000000000000, 0.000000000000000000, 0.000000000000000000, 0.000000000000000000, 0.000000000000000000, 0.000000000000000000 ) ;
#33 = EDGE_CURVE ( 'NONE', #329, #240, #54, .T. ) ;
#34 = CARTESIAN_POINT ( 'NONE',  ( 0.3749999999999999445, 1.000000000000000000, 4.592425496802571754E-17 ) ) ;
#35 = CIRCLE ( 'NONE', #183, 0.3749999999999999445 ) ;
#36 = AXIS2_PLACEMENT_3D ( 'NONE', #203, #127, #39 ) ;
#37 = PRESENTATION_STYLE_ASSIGNMENT (( #281 ) ) ;
#38 = MANIFOLD_SOLID_BREP ( 'Revolve - Cutting Edge', #322 ) ;
#39 = DIRECTION ( 'NONE',  ( -1.000000000000000000, 0.000000000000000000, 0.000000000000000000 ) ) ;
#40 = PRESENTATION_LAYER_ASSIGNMENT (  '', '', ( #17 ) ) ;
#41 = CARTESIAN_POINT ( 'NONE',  ( 0.000000000000000000, 1.000000000000000000, -0.3749999999999999445 ) ) ;
#42 = ORIENTED_EDGE ( 'NONE', *, *, #98, .F. ) ;
#43 = PRODUCT_DEFINITION_SHAPE ( 'NONE', 'NONE',  #358 ) ;
#44 = MANIFOLD_SOLID_BREP ( 'Revolve - Tool Body (Straight Shanked)', #370 ) ;
#45 = FILL_AREA_STYLE_COLOUR ( '', #24 ) ;
#46 = FACE_OUTER_BOUND ( 'NONE', #325, .T. ) ;
#47 = ORIENTED_EDGE ( 'NONE', *, *, #221, .F. ) ;
#48 = PRESENTATION_STYLE_ASSIGNMENT (( #212 ) ) ;
#49 = CARTESIAN_POINT ( 'NONE',  ( 0.000000000000000000, 0.3750000000000001665, 0.000000000000000000 ) ) ;
#50 = EDGE_LOOP ( 'NONE', ( #202, #293, #244, #205 ) ) ;
#51 = UNCERTAINTY_MEASURE_WITH_UNIT (LENGTH_MEASURE( 1.000000000000000082E-05 ), #120, 'distance_accuracy_value', 'NONE');
#52 = DIRECTION ( 'NONE',  ( -1.295285397989742778E-16, 1.000000000000000000, -0.000000000000000000 ) ) ;
#53 =( NAMED_UNIT ( * ) SI_UNIT ( $, .STERADIAN. ) SOLID_ANGLE_UNIT ( ) );
#54 = CIRCLE ( 'NONE', #339, 0.3749999999999995559 ) ;
#55 =( CONVERSION_BASED_UNIT ( 'INCH', #114 ) LENGTH_UNIT ( ) NAMED_UNIT ( #163 ) );
#56 = PRESENTATION_LAYER_ASSIGNMENT (  '', '', ( #256 ) ) ;
#57 = VECTOR ( 'NONE', #112, 39.37007874015748143 ) ;
#58 = DIRECTION ( 'NONE',  ( 0.000000000000000000, 0.000000000000000000, -1.000000000000000000 ) ) ;
#59 = EDGE_CURVE ( 'NONE', #182, #217, #315, .T. ) ;
#60 =( LENGTH_UNIT ( ) NAMED_UNIT ( * ) SI_UNIT ( $, .METRE. ) );
#61 = ORIENTED_EDGE ( 'NONE', *, *, #180, .F. ) ;
#62 = APPLICATION_CONTEXT ( 'automotive_design' ) ;
#63 = DIRECTION ( 'NONE',  ( 0.000000000000000000, 0.000000000000000000, -1.000000000000000000 ) ) ;
#64 =( GEOMETRIC_REPRESENTATION_CONTEXT ( 3 ) GLOBAL_UNCERTAINTY_ASSIGNED_CONTEXT ( ( #241 ) ) GLOBAL_UNIT_ASSIGNED_CONTEXT ( ( #328, #320, #72 ) ) REPRESENTATION_CONTEXT ( 'NONE', 'WORKASPACE' ) );
#65 = PRESENTATION_STYLE_ASSIGNMENT (( #143 ) ) ;
#66 = EDGE_CURVE ( 'NONE', #329, #344, #254, .T. ) ;
#67 = DIRECTION ( 'NONE',  ( -1.000000000000000000, 0.000000000000000000, 0.000000000000000000 ) ) ;
#68 = CARTESIAN_POINT ( 'NONE',  ( -0.3750000000000001110, 0.3750000000000001665, 4.592425496802576068E-17 ) ) ;
#69 = AXIS2_PLACEMENT_3D ( 'NONE', #277, #307, #86 ) ;
#70 = MECHANICAL_DESIGN_GEOMETRIC_PRESENTATION_REPRESENTATION (  '', ( #304 ), #355 ) ;
#71 = AXIS2_PLACEMENT_3D ( 'NONE', #227, #193, #165 ) ;
#72 =( NAMED_UNIT ( * ) SI_UNIT ( $, .STERADIAN. ) SOLID_ANGLE_UNIT ( ) );
#73 = EDGE_LOOP ( 'NONE', ( #353, #263 ) ) ;
#74 = SHAPE_DEFINITION_REPRESENTATION ( #43, #268 ) ;
#75 = COLOUR_RGB ( '',1.000000000000000000, 0.000000000000000000, 0.000000000000000000 ) ;
#76 = DIRECTION ( 'NONE',  ( 0.000000000000000000, 0.000000000000000000, 1.000000000000000000 ) ) ;
#77 = APPLICATION_CONTEXT ( 'automotive_design' ) ;
#78 = ORIENTED_EDGE ( 'NONE', *, *, #239, .F. ) ;
#79 = DIRECTION ( 'NONE',  ( 0.000000000000000000, 0.000000000000000000, -1.000000000000000000 ) ) ;
#80 = VERTEX_POINT ( 'NONE', #146 ) ;
#81 = CARTESIAN_POINT ( 'NONE',  ( 0.000000000000000000, 0.3750000000000001665, 0.000000000000000000 ) ) ;
#82 = ORIENTED_EDGE ( 'NONE', *, *, #239, .T. ) ;
#83 = CARTESIAN_POINT ( 'NONE',  ( 4.592425496802574219E-17, 0.3750000000000001665, 0.3750000000000000555 ) ) ;
#84 = PRESENTATION_LAYER_ASSIGNMENT (  '', '', ( #304 ) ) ;
#85 = CYLINDRICAL_SURFACE ( 'NONE', #3, 0.3749999999999996669 ) ;
#86 = DIRECTION ( 'NONE',  ( 1.000000000000000000, 0.000000000000000000, -1.224646799147353207E-16 ) ) ;
#87 =( NAMED_UNIT ( * ) SI_UNIT ( $, .STERADIAN. ) SOLID_ANGLE_UNIT ( ) );
#88 = ORIENTED_EDGE ( 'NONE', *, *, #7, .F. ) ;
#89 =( NAMED_UNIT ( * ) PLANE_ANGLE_UNIT ( ) SI_UNIT ( $, .RADIAN. ) );
#90 = PLANE ( 'NONE',  #286 ) ;
#91 =( GEOMETRIC_REPRESENTATION_CONTEXT ( 3 ) GLOBAL_UNCERTAINTY_ASSIGNED_CONTEXT ( ( #156 ) ) GLOBAL_UNIT_ASSIGNED_CONTEXT ( ( #260, #168, #257 ) ) REPRESENTATION_CONTEXT ( 'NONE', 'WORKASPACE' ) );
#92 =( CONVERSION_BASED_UNIT ( 'INCH', #343 ) LENGTH_UNIT ( ) NAMED_UNIT ( #140 ) );
#93 = DIMENSIONAL_EXPONENTS ( 1.000000000000000000, 0.000000000000000000, 0.000000000000000000, 0.000000000000000000, 0.000000000000000000, 0.000000000000000000, 0.000000000000000000 ) ;
#94 = FILL_AREA_STYLE_COLOUR ( '', #303 ) ;
#95 = CARTESIAN_POINT ( 'NONE',  ( 0.3749999999999998335, 3.000000000000000444, 4.592425496802570521E-17 ) ) ;
#96 = DIRECTION ( 'NONE',  ( -1.295285397989742778E-16, 1.000000000000000000, -0.000000000000000000 ) ) ;
#97 = CARTESIAN_POINT ( 'NONE',  ( -0.3749999999999995559, 3.000000000000000444, 0.000000000000000000 ) ) ;
#98 = EDGE_CURVE ( 'NONE', #360, #295, #278, .T. ) ;
#99 = AXIS2_PLACEMENT_3D ( 'NONE', #124, #170, #231 ) ;
#100 = CARTESIAN_POINT ( 'NONE',  ( 0.000000000000000000, 0.000000000000000000, -0.3749999999999999445 ) ) ;
#101 =( CONVERSION_BASED_UNIT ( 'INCH', #173 ) LENGTH_UNIT ( ) NAMED_UNIT ( #229 ) );
#102 = VERTEX_POINT ( 'NONE', #68 ) ;
#103 =( GEOMETRIC_REPRESENTATION_CONTEXT ( 3 ) GLOBAL_UNCERTAINTY_ASSIGNED_CONTEXT ( ( #23 ) ) GLOBAL_UNIT_ASSIGNED_CONTEXT ( ( #55, #333, #274 ) ) REPRESENTATION_CONTEXT ( 'NONE', 'WORKASPACE' ) );
#104 = CARTESIAN_POINT ( 'NONE',  ( 0.000000000000000000, 0.000000000000000000, 0.000000000000000000 ) ) ;
#105 = ORIENTED_EDGE ( 'NONE', *, *, #106, .F. ) ;
#106 = EDGE_CURVE ( 'NONE', #217, #182, #35, .T. ) ;
#107 = SURFACE_STYLE_FILL_AREA ( #292 ) ;
#108 = ORIENTED_EDGE ( 'NONE', *, *, #106, .T. ) ;
#109 = ADVANCED_FACE ( 'NONE', ( #279 ), #1, .T. ) ;
#110 = EDGE_LOOP ( 'NONE', ( #305, #108, #13, #78, #238 ) ) ;
#111 = UNCERTAINTY_MEASURE_WITH_UNIT (LENGTH_MEASURE( 1.000000000000000082E-05 ), #184, 'distance_accuracy_value', 'NONE');
#112 = DIRECTION ( 'NONE',  ( -0.000000000000000000, -1.000000000000000000, -0.000000000000000000 ) ) ;
#113 = STYLED_ITEM ( 'NONE', ( #48 ), #234 ) ;
#114 = LENGTH_MEASURE_WITH_UNIT ( LENGTH_MEASURE( 0.02539999999999999897 ), #189 );
#115 = SURFACE_SIDE_STYLE ('',( #21 ) ) ;
#116 = CARTESIAN_POINT ( 'NONE',  ( 0.000000000000000000, 1.000000000000000000, 0.000000000000000000 ) ) ;
#117 = MECHANICAL_DESIGN_GEOMETRIC_PRESENTATION_REPRESENTATION (  '', ( #222 ), #103 ) ;
#118 = ORIENTED_EDGE ( 'NONE', *, *, #66, .F. ) ;
#119 = MECHANICAL_DESIGN_GEOMETRIC_PRESENTATION_REPRESENTATION (  '', ( #17 ), #258 ) ;
#120 =( CONVERSION_BASED_UNIT ( 'INCH', #122 ) LENGTH_UNIT ( ) NAMED_UNIT ( #93 ) );
#121 = DIRECTION ( 'NONE',  ( -1.295285397989742778E-16, 1.000000000000000000, -0.000000000000000000 ) ) ;
#122 = LENGTH_MEASURE_WITH_UNIT ( LENGTH_MEASURE( 0.02539999999999999897 ), #200 );
#123 =( NAMED_UNIT ( * ) PLANE_ANGLE_UNIT ( ) SI_UNIT ( $, .RADIAN. ) );
#124 = CARTESIAN_POINT ( 'NONE',  ( -4.592425496802576068E-17, 0.3750000000000001110, 0.000000000000000000 ) ) ;
#125 = FILL_AREA_STYLE ('',( #5 ) ) ;
#126 = EDGE_CURVE ( 'NONE', #240, #288, #347, .T. ) ;
#127 = DIRECTION ( 'NONE',  ( -1.295285397989742778E-16, 1.000000000000000000, -0.000000000000000000 ) ) ;
#128 = SURFACE_SIDE_STYLE ('',( #323 ) ) ;
#129 = EDGE_LOOP ( 'NONE', ( #132, #290 ) ) ;
#130 = EDGE_LOOP ( 'NONE', ( #175, #105 ) ) ;
#131 = CIRCLE ( 'NONE', #262, 0.3749999999999998335 ) ;
#132 = ORIENTED_EDGE ( 'NONE', *, *, #221, .T. ) ;
#133 = ORIENTED_EDGE ( 'NONE', *, *, #33, .T. ) ;
#134 = PRESENTATION_STYLE_ASSIGNMENT (( #220 ) ) ;
#135 = PRODUCT_DEFINITION_CONTEXT ( 'detailed design', #62, 'design' ) ;
#136 = VECTOR ( 'NONE', #96, 39.37007874015748143 ) ;
#137 =( LENGTH_UNIT ( ) NAMED_UNIT ( * ) SI_UNIT ( $, .METRE. ) );
#138 = DIRECTION ( 'NONE',  ( -1.295285397989742778E-16, 1.000000000000000000, -0.000000000000000000 ) ) ;
#139 =( GEOMETRIC_REPRESENTATION_CONTEXT ( 3 ) GLOBAL_UNCERTAINTY_ASSIGNED_CONTEXT ( ( #111 ) ) GLOBAL_UNIT_ASSIGNED_CONTEXT ( ( #184, #89, #53 ) ) REPRESENTATION_CONTEXT ( 'NONE', 'WORKASPACE' ) );
#140 = DIMENSIONAL_EXPONENTS ( 1.000000000000000000, 0.000000000000000000, 0.000000000000000000, 0.000000000000000000, 0.000000000000000000, 0.000000000000000000, 0.000000000000000000 ) ;
#141 = ADVANCED_FACE ( 'NONE', ( #280 ), #204, .T. ) ;
#142 = CARTESIAN_POINT ( 'NONE',  ( 0.3749999999999999445, 3.000000000000000444, 4.592425496802571754E-17 ) ) ;
#143 = SURFACE_STYLE_USAGE ( .BOTH. , #30 ) ;
#144 = LINE ( 'NONE', #100, #332 ) ;
#145 = CIRCLE ( 'NONE', #349, 0.3750000000000000555 ) ;
#146 = CARTESIAN_POINT ( 'NONE',  ( -2.296212748401288034E-17, 0.000000000000000000, 0.000000000000000000 ) ) ;
#147 = DIRECTION ( 'NONE',  ( 0.000000000000000000, 0.000000000000000000, -1.000000000000000000 ) ) ;
#148 = EDGE_CURVE ( 'NONE', #182, #326, #144, .T. ) ;
#149 = AXIS2_PLACEMENT_3D ( 'NONE', #197, #194, #147 ) ;
#150 = DIRECTION ( 'NONE',  ( -1.295285397989742778E-16, 1.000000000000000000, -0.000000000000000000 ) ) ;
#151 = EDGE_CURVE ( 'NONE', #360, #80, #167, .T. ) ;
#152 = PLANE ( 'NONE',  #324 ) ;
#153 = ORIENTED_EDGE ( 'NONE', *, *, #148, .F. ) ;
#154 = AXIS2_PLACEMENT_3D ( 'NONE', #251, #270, #63 ) ;
#155 = SURFACE_STYLE_USAGE ( .BOTH. , #128 ) ;
#156 = UNCERTAINTY_MEASURE_WITH_UNIT (LENGTH_MEASURE( 1.000000000000000082E-05 ), #260, 'distance_accuracy_value', 'NONE');
#157 = FACE_OUTER_BOUND ( 'NONE', #211, .T. ) ;
#158 = EDGE_LOOP ( 'NONE', ( #88, #82, #177, #215 ) ) ;
#159 = CIRCLE ( 'NONE', #223, 0.3750000000000000555 ) ;
#160 = DIRECTION ( 'NONE',  ( -0.000000000000000000, -1.000000000000000000, -0.000000000000000000 ) ) ;
#161 = AXIS2_PLACEMENT_3D ( 'NONE', #20, #334, #58 ) ;
#162 = ADVANCED_FACE ( 'NONE', ( #46 ), #15, .T. ) ;
#163 = DIMENSIONAL_EXPONENTS ( 1.000000000000000000, 0.000000000000000000, 0.000000000000000000, 0.000000000000000000, 0.000000000000000000, 0.000000000000000000, 0.000000000000000000 ) ;
#164 = DIRECTION ( 'NONE',  ( -1.295285397989742778E-16, 1.000000000000000000, 0.000000000000000000 ) ) ;
#165 = DIRECTION ( 'NONE',  ( 1.000000000000000000, 0.000000000000000000, 0.000000000000000000 ) ) ;
#166 = PRESENTATION_LAYER_ASSIGNMENT (  '', '', ( #222 ) ) ;
#167 = CIRCLE ( 'NONE', #287, 0.3750000000000001110 ) ;
#168 =( NAMED_UNIT ( * ) PLANE_ANGLE_UNIT ( ) SI_UNIT ( $, .RADIAN. ) );
#169 = DIRECTION ( 'NONE',  ( -1.295285397989742778E-16, 1.000000000000000000, -0.000000000000000000 ) ) ;
#170 = DIRECTION ( 'NONE',  ( 0.000000000000000000, 0.000000000000000000, 1.000000000000000000 ) ) ;
#171 = AXIS2_PLACEMENT_3D ( 'NONE', #298, #138, #362 ) ;
#172 = AXIS2_PLACEMENT_3D ( 'NONE', #81, #285, #79 ) ;
#173 = LENGTH_MEASURE_WITH_UNIT ( LENGTH_MEASURE( 0.02539999999999999897 ), #348 );
#174 = PRODUCT_RELATED_PRODUCT_CATEGORY ( 'part', '', ( #11 ) ) ;
#175 = ORIENTED_EDGE ( 'NONE', *, *, #59, .F. ) ;
#176 = MECHANICAL_DESIGN_GEOMETRIC_PRESENTATION_REPRESENTATION (  '', ( #314 ), #310 ) ;
#177 = ORIENTED_EDGE ( 'NONE', *, *, #180, .T. ) ;
#178 = CARTESIAN_POINT ( 'NONE',  ( 1.224646799147352714E-16, 3.000000000000000444, 0.000000000000000000 ) ) ;
#179 = ORIENTED_EDGE ( 'NONE', *, *, #66, .T. ) ;
#180 = EDGE_CURVE ( 'NONE', #326, #360, #345, .T. ) ;
#181 = FILL_AREA_STYLE_COLOUR ( '', #207 ) ;
#182 = VERTEX_POINT ( 'NONE', #41 ) ;
#183 = AXIS2_PLACEMENT_3D ( 'NONE', #198, #309, #312 ) ;
#184 =( CONVERSION_BASED_UNIT ( 'INCH', #368 ) LENGTH_UNIT ( ) NAMED_UNIT ( #32 ) );
#185 = UNCERTAINTY_MEASURE_WITH_UNIT (LENGTH_MEASURE( 1.000000000000000082E-05 ), #366, 'distance_accuracy_value', 'NONE');
#186 = CARTESIAN_POINT ( 'NONE',  ( 1.224646799147352714E-16, 3.000000000000000444, 0.000000000000000000 ) ) ;
#187 = SURFACE_STYLE_FILL_AREA ( #271 ) ;
#188 = CYLINDRICAL_SURFACE ( 'NONE', #296, 0.3749999999999996669 ) ;
#189 =( LENGTH_UNIT ( ) NAMED_UNIT ( * ) SI_UNIT ( $, .METRE. ) );
#190 = PRESENTATION_LAYER_ASSIGNMENT (  '', '', ( #113 ) ) ;
#191 = CARTESIAN_POINT ( 'NONE',  ( 0.000000000000000000, 0.3750000000000001665, 0.000000000000000000 ) ) ;
#192 = DIMENSIONAL_EXPONENTS ( 1.000000000000000000, 0.000000000000000000, 0.000000000000000000, 0.000000000000000000, 0.000000000000000000, 0.000000000000000000, 0.000000000000000000 ) ;
#193 = DIRECTION ( 'NONE',  ( 0.000000000000000000, 0.000000000000000000, 1.000000000000000000 ) ) ;
#194 = DIRECTION ( 'NONE',  ( -0.000000000000000000, -1.000000000000000000, -0.000000000000000000 ) ) ;
#195 = FACE_OUTER_BOUND ( 'NONE', #129, .T. ) ;
#196 = SURFACE_STYLE_FILL_AREA ( #316 ) ;
#197 = CARTESIAN_POINT ( 'NONE',  ( 0.000000000000000000, 0.3750000000000001665, 0.000000000000000000 ) ) ;
#198 = CARTESIAN_POINT ( 'NONE',  ( 0.000000000000000000, 1.000000000000000000, 0.000000000000000000 ) ) ;
#199 = SURFACE_SIDE_STYLE ('',( #107 ) ) ;
#200 =( LENGTH_UNIT ( ) NAMED_UNIT ( * ) SI_UNIT ( $, .METRE. ) );
#201 = DIRECTION ( 'NONE',  ( -0.000000000000000000, -1.000000000000000000, -0.000000000000000000 ) ) ;
#202 = ORIENTED_EDGE ( 'NONE', *, *, #19, .T. ) ;
#203 = CARTESIAN_POINT ( 'NONE',  ( 1.224646799147352714E-16, 3.000000000000000444, 0.000000000000000000 ) ) ;
#204 = SPHERICAL_SURFACE ( 'NONE', #249, 0.3750000000000001110 ) ;
#205 = ORIENTED_EDGE ( 'NONE', *, *, #98, .T. ) ;
#206 = UNCERTAINTY_MEASURE_WITH_UNIT (LENGTH_MEASURE( 1.000000000000000082E-05 ), #101, 'distance_accuracy_value', 'NONE');
#207 = COLOUR_RGB ( '',1.000000000000000000, 0.000000000000000000, 0.000000000000000000 ) ;
#208 =( GEOMETRIC_REPRESENTATION_CONTEXT ( 3 ) GLOBAL_UNCERTAINTY_ASSIGNED_CONTEXT ( ( #51 ) ) GLOBAL_UNIT_ASSIGNED_CONTEXT ( ( #120, #235, #319 ) ) REPRESENTATION_CONTEXT ( 'NONE', 'WORKASPACE' ) );
#209 = CIRCLE ( 'NONE', #36, 0.3749999999999998335 ) ;
#210 = DIRECTION ( 'NONE',  ( 0.000000000000000000, 0.000000000000000000, -1.000000000000000000 ) ) ;
#211 = EDGE_LOOP ( 'NONE', ( #331, #179, #47, #18 ) ) ;
#212 = SURFACE_STYLE_USAGE ( .BOTH. , #199 ) ;
#213 = EDGE_LOOP ( 'NONE', ( #118, #133, #356, #10 ) ) ;
#214 = CYLINDRICAL_SURFACE ( 'NONE', #161, 0.3749999999999999445 ) ;
#215 = ORIENTED_EDGE ( 'NONE', *, *, #151, .T. ) ;
#216 = FACE_OUTER_BOUND ( 'NONE', #213, .T. ) ;
#217 = VERTEX_POINT ( 'NONE', #12 ) ;
#218 = CARTESIAN_POINT ( 'NONE',  ( 3.815217595126838024E-16, 1.000000000000000000, 0.000000000000000000 ) ) ;
#219 = DIRECTION ( 'NONE',  ( -1.000000000000000000, 0.000000000000000000, 0.000000000000000000 ) ) ;
#220 = SURFACE_STYLE_USAGE ( .BOTH. , #115 ) ;
#221 = EDGE_CURVE ( 'NONE', #288, #344, #131, .T. ) ;
#222 = STYLED_ITEM ( 'NONE', ( #26 ), #38 ) ;
#223 = AXIS2_PLACEMENT_3D ( 'NONE', #49, #160, #297 ) ;
#224 = DIRECTION ( 'NONE',  ( 0.000000000000000000, -0.000000000000000000, 1.000000000000000000 ) ) ;
#225 = CARTESIAN_POINT ( 'NONE',  ( 0.3750000000000000555, 0.3750000000000001665, 0.000000000000000000 ) ) ;
#226 = DIRECTION ( 'NONE',  ( -1.000000000000000000, -1.295285397989742778E-16, 0.000000000000000000 ) ) ;
#227 = CARTESIAN_POINT ( 'NONE',  ( 0.000000000000000000, 0.000000000000000000, 0.000000000000000000 ) ) ;
#228 = LENGTH_MEASURE_WITH_UNIT ( LENGTH_MEASURE( 0.02539999999999999897 ), #282 );
#229 = DIMENSIONAL_EXPONENTS ( 1.000000000000000000, 0.000000000000000000, 0.000000000000000000, 0.000000000000000000, 0.000000000000000000, 0.000000000000000000, 0.000000000000000000 ) ;
#230 = CIRCLE ( 'NONE', #171, 0.3749999999999995559 ) ;
#231 = DIRECTION ( 'NONE',  ( 1.000000000000000000, 0.000000000000000000, 0.000000000000000000 ) ) ;
#232 = AXIS2_PLACEMENT_3D ( 'NONE', #104, #201, #210 ) ;
#233 =( NAMED_UNIT ( * ) SI_UNIT ( $, .STERADIAN. ) SOLID_ANGLE_UNIT ( ) );
#234 = ADVANCED_FACE ( 'NONE', ( #243 ), #152, .T. ) ;
#235 =( NAMED_UNIT ( * ) PLANE_ANGLE_UNIT ( ) SI_UNIT ( $, .RADIAN. ) );
#236 = DIRECTION ( 'NONE',  ( 1.000000000000000000, 0.000000000000000000, 0.000000000000000000 ) ) ;
#237 =( NAMED_UNIT ( * ) SI_UNIT ( $, .STERADIAN. ) SOLID_ANGLE_UNIT ( ) );
#238 = ORIENTED_EDGE ( 'NONE', *, *, #19, .F. ) ;
#239 = EDGE_CURVE ( 'NONE', #102, #326, #159, .T. ) ;
#240 = VERTEX_POINT ( 'NONE', #28 ) ;
#241 = UNCERTAINTY_MEASURE_WITH_UNIT (LENGTH_MEASURE( 1.000000000000000082E-05 ), #328, 'distance_accuracy_value', 'NONE');
#242 = MECHANICAL_DESIGN_GEOMETRIC_PRESENTATION_REPRESENTATION (  '', ( #256 ), #91 ) ;
#243 = FACE_OUTER_BOUND ( 'NONE', #130, .T. ) ;
#244 = ORIENTED_EDGE ( 'NONE', *, *, #151, .F. ) ;
#245 =( NAMED_UNIT ( * ) PLANE_ANGLE_UNIT ( ) SI_UNIT ( $, .RADIAN. ) );
#246 = FILL_AREA_STYLE ('',( #342 ) ) ;
#247 = FACE_OUTER_BOUND ( 'NONE', #110, .T. ) ;
#248 = DIRECTION ( 'NONE',  ( -1.000000000000000000, 0.000000000000000000, 0.000000000000000000 ) ) ;
#249 = AXIS2_PLACEMENT_3D ( 'NONE', #283, #76, #236 ) ;
#250 = PRODUCT_DEFINITION_FORMATION_WITH_SPECIFIED_SOURCE ( 'ANY', '', #11, .NOT_KNOWN. ) ;
#251 = CARTESIAN_POINT ( 'NONE',  ( 0.000000000000000000, 1.000000000000000000, 0.000000000000000000 ) ) ;
#252 = DIMENSIONAL_EXPONENTS ( 1.000000000000000000, 0.000000000000000000, 0.000000000000000000, 0.000000000000000000, 0.000000000000000000, 0.000000000000000000, 0.000000000000000000 ) ;
#253 = DIRECTION ( 'NONE',  ( 1.295285397989742778E-16, -1.000000000000000000, 0.000000000000000000 ) ) ;
#254 = LINE ( 'NONE', #95, #340 ) ;
#255 = APPLICATION_PROTOCOL_DEFINITION ( 'draft international standard', 'automotive_design', 1998, #62 ) ;
#256 = STYLED_ITEM ( 'NONE', ( #65 ), #109 ) ;
#257 =( NAMED_UNIT ( * ) SI_UNIT ( $, .STERADIAN. ) SOLID_ANGLE_UNIT ( ) );
#258 =( GEOMETRIC_REPRESENTATION_CONTEXT ( 3 ) GLOBAL_UNCERTAINTY_ASSIGNED_CONTEXT ( ( #185 ) ) GLOBAL_UNIT_ASSIGNED_CONTEXT ( ( #366, #299, #87 ) ) REPRESENTATION_CONTEXT ( 'NONE', 'WORKASPACE' ) );
#259 = ADVANCED_FACE ( 'NONE', ( #247 ), #214, .T. ) ;
#260 =( CONVERSION_BASED_UNIT ( 'INCH', #228 ) LENGTH_UNIT ( ) NAMED_UNIT ( #311 ) );
#261 = DIRECTION ( 'NONE',  ( -0.000000000000000000, -1.000000000000000000, -0.000000000000000000 ) ) ;
#262 = AXIS2_PLACEMENT_3D ( 'NONE', #178, #150, #265 ) ;
#263 = ORIENTED_EDGE ( 'NONE', *, *, #33, .F. ) ;
#264 = CARTESIAN_POINT ( 'NONE',  ( 0.3749999999999999445, 3.000000000000000444, 0.000000000000000000 ) ) ;
#265 = DIRECTION ( 'NONE',  ( -1.000000000000000000, 0.000000000000000000, 0.000000000000000000 ) ) ;
#266 = ORIENTED_EDGE ( 'NONE', *, *, #291, .T. ) ;
#267 = FILL_AREA_STYLE ('',( #45 ) ) ;
#268 = ADVANCED_BREP_SHAPE_REPRESENTATION ( '81936', ( #38, #44, #71 ), #208 ) ;
#269 = MECHANICAL_DESIGN_GEOMETRIC_PRESENTATION_REPRESENTATION (  '', ( #113 ), #139 ) ;
#270 = DIRECTION ( 'NONE',  ( -0.000000000000000000, -1.000000000000000000, -0.000000000000000000 ) ) ;
#271 = FILL_AREA_STYLE ('',( #335 ) ) ;
#272 = COLOUR_RGB ( '',1.000000000000000000, 0.000000000000000000, 0.000000000000000000 ) ;
#273 = LINE ( 'NONE', #330, #57 ) ;
#274 =( NAMED_UNIT ( * ) SI_UNIT ( $, .STERADIAN. ) SOLID_ANGLE_UNIT ( ) );
#275 = UNCERTAINTY_MEASURE_WITH_UNIT (LENGTH_MEASURE( 1.000000000000000082E-05 ), #92, 'distance_accuracy_value', 'NONE');
#276 = CARTESIAN_POINT ( 'NONE',  ( -0.3749999999999996669, 3.000000000000000444, 0.000000000000000000 ) ) ;
#277 = CARTESIAN_POINT ( 'NONE',  ( -4.592425496802576068E-17, 0.3750000000000001110, 0.000000000000000000 ) ) ;
#278 = CIRCLE ( 'NONE', #149, 0.3750000000000000555 ) ;
#279 = FACE_OUTER_BOUND ( 'NONE', #50, .T. ) ;
#280 = FACE_OUTER_BOUND ( 'NONE', #158, .T. ) ;
#281 = SURFACE_STYLE_USAGE ( .BOTH. , #6 ) ;
#282 =( LENGTH_UNIT ( ) NAMED_UNIT ( * ) SI_UNIT ( $, .METRE. ) );
#283 = CARTESIAN_POINT ( 'NONE',  ( -4.592425496802576068E-17, 0.3750000000000001110, 0.000000000000000000 ) ) ;
#284 = CARTESIAN_POINT ( 'NONE',  ( 0.000000000000000000, 0.3750000000000001665, -0.3750000000000000555 ) ) ;
#285 = DIRECTION ( 'NONE',  ( -0.000000000000000000, -1.000000000000000000, -0.000000000000000000 ) ) ;
#286 = AXIS2_PLACEMENT_3D ( 'NONE', #218, #164, #226 ) ;
#287 = AXIS2_PLACEMENT_3D ( 'NONE', #357, #294, #9 ) ;
#288 = VERTEX_POINT ( 'NONE', #276 ) ;
#289 = DIRECTION ( 'NONE',  ( 1.000000000000000000, 1.295285397989742778E-16, 0.000000000000000000 ) ) ;
#290 = ORIENTED_EDGE ( 'NONE', *, *, #336, .T. ) ;
#291 = EDGE_CURVE ( 'NONE', #217, #295, #273, .T. ) ;
#292 = FILL_AREA_STYLE ('',( #181 ) ) ;
#293 = ORIENTED_EDGE ( 'NONE', *, *, #7, .T. ) ;
#294 = DIRECTION ( 'NONE',  ( 0.000000000000000000, 0.000000000000000000, -1.000000000000000000 ) ) ;
#295 = VERTEX_POINT ( 'NONE', #83 ) ;
#296 = AXIS2_PLACEMENT_3D ( 'NONE', #301, #337, #67 ) ;
#297 = DIRECTION ( 'NONE',  ( 0.000000000000000000, 0.000000000000000000, -1.000000000000000000 ) ) ;
#298 = CARTESIAN_POINT ( 'NONE',  ( 3.815217595126838517E-16, 1.000000000000000000, 0.000000000000000000 ) ) ;
#299 =( NAMED_UNIT ( * ) PLANE_ANGLE_UNIT ( ) SI_UNIT ( $, .RADIAN. ) );
#300 = FACE_OUTER_BOUND ( 'NONE', #73, .T. ) ;
#301 = CARTESIAN_POINT ( 'NONE',  ( 1.224646799147352714E-16, 3.000000000000000444, 0.000000000000000000 ) ) ;
#302 = SURFACE_SIDE_STYLE ('',( #187 ) ) ;
#303 = COLOUR_RGB ( '',0.7921568627450980005, 0.8196078431372548767, 0.9333333333333333481 ) ;
#304 = STYLED_ITEM ( 'NONE', ( #37 ), #141 ) ;
#305 = ORIENTED_EDGE ( 'NONE', *, *, #291, .F. ) ;
#306 = SURFACE_SIDE_STYLE ('',( #25 ) ) ;
#307 = DIRECTION ( 'NONE',  ( 1.224646799147353207E-16, -0.000000000000000000, 1.000000000000000000 ) ) ;
#308 = ADVANCED_FACE ( 'NONE', ( #216 ), #85, .T. ) ;
#309 = DIRECTION ( 'NONE',  ( -0.000000000000000000, -1.000000000000000000, -0.000000000000000000 ) ) ;
#310 =( GEOMETRIC_REPRESENTATION_CONTEXT ( 3 ) GLOBAL_UNCERTAINTY_ASSIGNED_CONTEXT ( ( #275 ) ) GLOBAL_UNIT_ASSIGNED_CONTEXT ( ( #92, #123, #233 ) ) REPRESENTATION_CONTEXT ( 'NONE', 'WORKASPACE' ) );
#311 = DIMENSIONAL_EXPONENTS ( 1.000000000000000000, 0.000000000000000000, 0.000000000000000000, 0.000000000000000000, 0.000000000000000000, 0.000000000000000000, 0.000000000000000000 ) ;
#312 = DIRECTION ( 'NONE',  ( 0.000000000000000000, 0.000000000000000000, -1.000000000000000000 ) ) ;
#313 = SURFACE_STYLE_FILL_AREA ( #125 ) ;
#314 = STYLED_ITEM ( 'NONE', ( #134 ), #44 ) ;
#315 = CIRCLE ( 'NONE', #154, 0.3749999999999999445 ) ;
#316 = FILL_AREA_STYLE ('',( #31 ) ) ;
#317 = ADVANCED_FACE ( 'NONE', ( #157 ), #188, .T. ) ;
#318 =( LENGTH_UNIT ( ) NAMED_UNIT ( * ) SI_UNIT ( $, .METRE. ) );
#319 =( NAMED_UNIT ( * ) SI_UNIT ( $, .STERADIAN. ) SOLID_ANGLE_UNIT ( ) );
#320 =( NAMED_UNIT ( * ) PLANE_ANGLE_UNIT ( ) SI_UNIT ( $, .RADIAN. ) );
#321 = ORIENTED_EDGE ( 'NONE', *, *, #59, .T. ) ;
#322 = CLOSED_SHELL ( 'NONE', ( #109, #162, #234, #259, #141 ) ) ;
#323 = SURFACE_STYLE_FILL_AREA ( #267 ) ;
#324 = AXIS2_PLACEMENT_3D ( 'NONE', #116, #361, #224 ) ;
#325 = EDGE_LOOP ( 'NONE', ( #321, #266, #42, #61, #153 ) ) ;
#326 = VERTEX_POINT ( 'NONE', #284 ) ;
#327 = ADVANCED_FACE ( 'NONE', ( #195 ), #373, .F. ) ;
#328 =( CONVERSION_BASED_UNIT ( 'INCH', #350 ) LENGTH_UNIT ( ) NAMED_UNIT ( #192 ) );
#329 = VERTEX_POINT ( 'NONE', #34 ) ;
#330 = CARTESIAN_POINT ( 'NONE',  ( 4.592425496802573602E-17, 0.000000000000000000, 0.3749999999999999445 ) ) ;
#331 = ORIENTED_EDGE ( 'NONE', *, *, #16, .T. ) ;
#332 = VECTOR ( 'NONE', #261, 39.37007874015748143 ) ;
#333 =( NAMED_UNIT ( * ) PLANE_ANGLE_UNIT ( ) SI_UNIT ( $, .RADIAN. ) );
#334 = DIRECTION ( 'NONE',  ( -0.000000000000000000, -1.000000000000000000, -0.000000000000000000 ) ) ;
#335 = FILL_AREA_STYLE_COLOUR ( '', #14 ) ;
#336 = EDGE_CURVE ( 'NONE', #344, #288, #209, .T. ) ;
#337 = DIRECTION ( 'NONE',  ( -1.295285397989742778E-16, 1.000000000000000000, -0.000000000000000000 ) ) ;
#338 =( LENGTH_UNIT ( ) NAMED_UNIT ( * ) SI_UNIT ( $, .METRE. ) );
#339 = AXIS2_PLACEMENT_3D ( 'NONE', #372, #121, #248 ) ;
#340 = VECTOR ( 'NONE', #169, 39.37007874015748143 ) ;
#341 = AXIS2_PLACEMENT_3D ( 'NONE', #264, #253, #289 ) ;
#342 = FILL_AREA_STYLE_COLOUR ( '', #363 ) ;
#343 = LENGTH_MEASURE_WITH_UNIT ( LENGTH_MEASURE( 0.02539999999999999897 ), #338 );
#344 = VERTEX_POINT ( 'NONE', #142 ) ;
#345 = CIRCLE ( 'NONE', #172, 0.3750000000000000555 ) ;
#346 = PRODUCT_CONTEXT ( 'NONE', #77, 'mechanical' ) ;
#347 = LINE ( 'NONE', #97, #136 ) ;
#348 =( LENGTH_UNIT ( ) NAMED_UNIT ( * ) SI_UNIT ( $, .METRE. ) );
#349 = AXIS2_PLACEMENT_3D ( 'NONE', #191, #367, #29 ) ;
#350 = LENGTH_MEASURE_WITH_UNIT ( LENGTH_MEASURE( 0.02539999999999999897 ), #318 );
#351 = APPLICATION_PROTOCOL_DEFINITION ( 'draft international standard', 'automotive_design', 1998, #77 ) ;
#352 = PRESENTATION_STYLE_ASSIGNMENT (( #155 ) ) ;
#353 = ORIENTED_EDGE ( 'NONE', *, *, #16, .F. ) ;
#354 = PRESENTATION_LAYER_ASSIGNMENT (  '', '', ( #314 ) ) ;
#355 =( GEOMETRIC_REPRESENTATION_CONTEXT ( 3 ) GLOBAL_UNCERTAINTY_ASSIGNED_CONTEXT ( ( #206 ) ) GLOBAL_UNIT_ASSIGNED_CONTEXT ( ( #101, #245, #237 ) ) REPRESENTATION_CONTEXT ( 'NONE', 'WORKASPACE' ) );
#356 = ORIENTED_EDGE ( 'NONE', *, *, #126, .T. ) ;
#357 = CARTESIAN_POINT ( 'NONE',  ( -4.592425496802576068E-17, 0.3750000000000001110, 0.000000000000000000 ) ) ;
#358 = PRODUCT_DEFINITION ( 'UNKNOWN', '', #250, #135 ) ;
#359 = PRESENTATION_STYLE_ASSIGNMENT (( #27 ) ) ;
#360 = VERTEX_POINT ( 'NONE', #225 ) ;
#361 = DIRECTION ( 'NONE',  ( 0.000000000000000000, 1.000000000000000000, 0.000000000000000000 ) ) ;
#362 = DIRECTION ( 'NONE',  ( -1.000000000000000000, 0.000000000000000000, 0.000000000000000000 ) ) ;
#363 = COLOUR_RGB ( '',1.000000000000000000, 0.000000000000000000, 0.000000000000000000 ) ;
#364 = LENGTH_MEASURE_WITH_UNIT ( LENGTH_MEASURE( 0.02539999999999999897 ), #60 );
#365 = FILL_AREA_STYLE ('',( #94 ) ) ;
#366 =( CONVERSION_BASED_UNIT ( 'INCH', #364 ) LENGTH_UNIT ( ) NAMED_UNIT ( #252 ) );
#367 = DIRECTION ( 'NONE',  ( -0.000000000000000000, -1.000000000000000000, -0.000000000000000000 ) ) ;
#368 = LENGTH_MEASURE_WITH_UNIT ( LENGTH_MEASURE( 0.02539999999999999897 ), #137 );
#369 = SURFACE_STYLE_USAGE ( .BOTH. , #302 ) ;
#370 = CLOSED_SHELL ( 'NONE', ( #317, #4, #308, #327 ) ) ;
#371 = STYLED_ITEM ( 'NONE', ( #352 ), #162 ) ;
#372 = CARTESIAN_POINT ( 'NONE',  ( 3.815217595126838517E-16, 1.000000000000000000, 0.000000000000000000 ) ) ;
#373 = PLANE ( 'NONE',  #341 ) ;
ENDSEC;
END-ISO-10303-21;
