ISO-10303-21;
HEADER;
FILE_DESCRIPTION (( 'STEP AP214' ),
    '1' );
FILE_NAME ('Micro_SME-020-2.STEP',
    '2021-09-02T10:47:36',
    ( '' ),
    ( '' ),
    'SwSTEP 2.0',
    'SolidWorks 2020',
    '' );
FILE_SCHEMA (( 'AUTOMOTIVE_DESIGN' ));
ENDSEC;

DATA;
#1 = VERTEX_POINT ( 'NONE', #93 ) ;
#2 = EDGE_LOOP ( 'NONE', ( #230, #188, #147, #43 ) ) ;
#3 = EDGE_LOOP ( 'NONE', ( #48, #255, #259, #251 ) ) ;
#4 = DIRECTION ( 'NONE',  ( -1.000000000000000000, 0.0000000000000000000, 1.224646799147353700E-16 ) ) ;
#5 = CARTESIAN_POINT ( 'NONE',  ( -0.04750000000000064587, 0.0000000000000000000, 1.500000000000000222 ) ) ;
#6 = APPLICATION_CONTEXT ( 'automotive_design' ) ;
#7 = DIRECTION ( 'NONE',  ( -0.0000000000000000000, -0.0000000000000000000, -1.000000000000000000 ) ) ;
#8 = CARTESIAN_POINT ( 'NONE',  ( -0.06249999999999997918, 0.0000000000000000000, 0.3277990083481244765 ) ) ;
#9 = CIRCLE ( 'NONE', #181, 0.04750000000000064587 ) ;
#10 = DIRECTION ( 'NONE',  ( -1.000000000000000000, 0.0000000000000000000, 0.0000000000000000000 ) ) ;
#11 = DIRECTION ( 'NONE',  ( -0.0000000000000000000, -0.0000000000000000000, -1.000000000000000000 ) ) ;
#12 = CARTESIAN_POINT ( 'NONE',  ( 0.0000000000000000000, 0.0000000000000000000, 1.500000000000000222 ) ) ;
#13 = CIRCLE ( 'NONE', #34, 0.009990000000000000616 ) ;
#14 = DIRECTION ( 'NONE',  ( -1.224646799147353700E-16, -0.0000000000000000000, -1.000000000000000000 ) ) ;
#15 = DIMENSIONAL_EXPONENTS ( 1.000000000000000000, 0.0000000000000000000, 0.0000000000000000000, 0.0000000000000000000, 0.0000000000000000000, 0.0000000000000000000, 0.0000000000000000000 ) ;
#16 = CARTESIAN_POINT ( 'NONE',  ( -0.009989999999999998881, 4.438732323509583765E-18, 0.02999999999999999889 ) ) ;
#17 = CARTESIAN_POINT ( 'NONE',  ( 1.498260022879197012E-34, 0.0000000000000000000, 1.223422152348206327E-18 ) ) ;
#18 = COLOUR_RGB ( '',0.7921568627450980005, 0.8196078431372548767, 0.9333333333333333481 ) ;
#19 = ORIENTED_EDGE ( 'NONE', *, *, #278, .T. ) ;
#20 = VERTEX_POINT ( 'NONE', #189 ) ;
#21 = AXIS2_PLACEMENT_3D ( 'NONE', #99, #78, #176 ) ;
#22 =( NAMED_UNIT ( * ) SI_UNIT ( $, .STERADIAN. ) SOLID_ANGLE_UNIT ( ) );
#23 = EDGE_LOOP ( 'NONE', ( #232, #299 ) ) ;
#24 = VERTEX_POINT ( 'NONE', #214 ) ;
#25 = EDGE_LOOP ( 'NONE', ( #19, #212 ) ) ;
#26 = DIRECTION ( 'NONE',  ( -1.000000000000000000, 0.0000000000000000000, 0.0000000000000000000 ) ) ;
#27 = CARTESIAN_POINT ( 'NONE',  ( 3.673940397442060731E-18, 0.0000000000000000000, 0.02999999999999999889 ) ) ;
#28 = AXIS2_PLACEMENT_3D ( 'NONE', #77, #98, #124 ) ;
#29 = COLOUR_RGB ( '',0.7921568627450980005, 0.8196078431372548767, 0.9333333333333333481 ) ;
#30 = CYLINDRICAL_SURFACE ( 'NONE', #288, 0.06250000000000002776 ) ;
#31 = ADVANCED_FACE ( 'NONE', ( #281 ), #140, .T. ) ;
#32 = FACE_OUTER_BOUND ( 'NONE', #256, .T. ) ;
#33 = DIRECTION ( 'NONE',  ( -1.224646799147353700E-16, -0.0000000000000000000, -1.000000000000000000 ) ) ;
#34 = AXIS2_PLACEMENT_3D ( 'NONE', #224, #37, #35 ) ;
#35 = DIRECTION ( 'NONE',  ( -1.000000000000000000, 0.0000000000000000000, 1.224646799147353700E-16 ) ) ;
#36 = DIRECTION ( 'NONE',  ( -0.1736481776669311639, 2.126576849575783008E-17, 0.9848077530122080203 ) ) ;
#37 = DIRECTION ( 'NONE',  ( -1.224646799147353700E-16, -0.0000000000000000000, -1.000000000000000000 ) ) ;
#38 = STYLED_ITEM ( 'NONE', ( #282 ), #111 ) ;
#39 = AXIS2_PLACEMENT_3D ( 'NONE', #17, #110, #287 ) ;
#40 =( NAMED_UNIT ( * ) PLANE_ANGLE_UNIT ( ) SI_UNIT ( $, .RADIAN. ) );
#41 = DIRECTION ( 'NONE',  ( 1.000000000000000000, 0.0000000000000000000, 0.0000000000000000000 ) ) ;
#42 =( CONVERSION_BASED_UNIT ( 'INCH', #206 ) LENGTH_UNIT ( ) NAMED_UNIT ( #15 ) );
#43 = ORIENTED_EDGE ( 'NONE', *, *, #107, .F. ) ;
#44 = ORIENTED_EDGE ( 'NONE', *, *, #165, .T. ) ;
#45 = AXIS2_PLACEMENT_3D ( 'NONE', #12, #102, #138 ) ;
#46 = SURFACE_STYLE_FILL_AREA ( #209 ) ;
#47 = ORIENTED_EDGE ( 'NONE', *, *, #220, .F. ) ;
#48 = ORIENTED_EDGE ( 'NONE', *, *, #119, .F. ) ;
#49 = ADVANCED_FACE ( 'NONE', ( #94 ), #284, .T. ) ;
#50 = PLANE ( 'NONE',  #203 ) ;
#51 = VECTOR ( 'NONE', #294, 39.37007874015748143 ) ;
#52 = CARTESIAN_POINT ( 'NONE',  ( 0.0000000000000000000, 0.0000000000000000000, 1.500000000000000222 ) ) ;
#53 = CARTESIAN_POINT ( 'NONE',  ( 0.06250000000000002776, 7.654042494670959086E-18, 1.500000000000000222 ) ) ;
#54 = CARTESIAN_POINT ( 'NONE',  ( 4.014380063372072520E-17, 0.0000000000000000000, 0.3277990083481244765 ) ) ;
#55 = DIRECTION ( 'NONE',  ( -1.000000000000000000, 0.0000000000000000000, 0.0000000000000000000 ) ) ;
#56 = PLANE ( 'NONE',  #75 ) ;
#57 = CARTESIAN_POINT ( 'NONE',  ( -0.06250000000000002776, 0.0000000000000000000, 1.500000000000000222 ) ) ;
#58 = CIRCLE ( 'NONE', #28, 0.06250000000000002776 ) ;
#59 = PRODUCT ( 'Micro_SME-020-2', 'Micro_SME-020-2', '', ( #295 ) ) ;
#60 = CARTESIAN_POINT ( 'NONE',  ( 0.0000000000000000000, 0.0000000000000000000, 1.500000000000000222 ) ) ;
#61 = ADVANCED_FACE ( 'NONE', ( #95 ), #194, .T. ) ;
#62 = CARTESIAN_POINT ( 'NONE',  ( 3.673940397442060731E-18, 0.0000000000000000000, 0.02999999999999999889 ) ) ;
#63 =( GEOMETRIC_REPRESENTATION_CONTEXT ( 3 ) GLOBAL_UNCERTAINTY_ASSIGNED_CONTEXT ( ( #208 ) ) GLOBAL_UNIT_ASSIGNED_CONTEXT ( ( #196, #171, #101 ) ) REPRESENTATION_CONTEXT ( 'NONE', 'WORKASPACE' ) );
#64 = AXIS2_PLACEMENT_3D ( 'NONE', #221, #157, #55 ) ;
#65 = CARTESIAN_POINT ( 'NONE',  ( 0.0000000000000000000, 0.0000000000000000000, 0.0000000000000000000 ) ) ;
#66 = ORIENTED_EDGE ( 'NONE', *, *, #278, .F. ) ;
#67 = ORIENTED_EDGE ( 'NONE', *, *, #263, .F. ) ;
#68 =( NAMED_UNIT ( * ) SI_UNIT ( $, .STERADIAN. ) SOLID_ANGLE_UNIT ( ) );
#69 = VERTEX_POINT ( 'NONE', #76 ) ;
#70 = AXIS2_PLACEMENT_3D ( 'NONE', #82, #14, #106 ) ;
#71 = AXIS2_PLACEMENT_3D ( 'NONE', #65, #161, #163 ) ;
#72 = EDGE_LOOP ( 'NONE', ( #234, #44, #66, #187 ) ) ;
#73 = FILL_AREA_STYLE_COLOUR ( '', #18 ) ;
#74 = SURFACE_SIDE_STYLE ('',( #238 ) ) ;
#75 = AXIS2_PLACEMENT_3D ( 'NONE', #222, #153, #108 ) ;
#76 = CARTESIAN_POINT ( 'NONE',  ( 0.009990000000000000616, 1.223422152348205941E-18, 0.0000000000000000000 ) ) ;
#77 = CARTESIAN_POINT ( 'NONE',  ( 0.0000000000000000000, 0.0000000000000000000, 1.485000000000000764 ) ) ;
#78 = DIRECTION ( 'NONE',  ( 0.0000000000000000000, 0.0000000000000000000, -1.000000000000000000 ) ) ;
#79 = EDGE_CURVE ( 'NONE', #1, #115, #58, .T. ) ;
#80 = CARTESIAN_POINT ( 'NONE',  ( -0.009990000000000000616, 0.0000000000000000000, 1.223422152348206327E-18 ) ) ;
#81 = CIRCLE ( 'NONE', #225, 0.06250000000000002776 ) ;
#82 = CARTESIAN_POINT ( 'NONE',  ( 0.0000000000000000000, 0.0000000000000000000, 0.0000000000000000000 ) ) ;
#83 = LINE ( 'NONE', #204, #128 ) ;
#84 = DIRECTION ( 'NONE',  ( -1.000000000000000000, 0.0000000000000000000, 0.0000000000000000000 ) ) ;
#85 = VERTEX_POINT ( 'NONE', #195 ) ;
#86 = PRODUCT_DEFINITION_FORMATION_WITH_SPECIFIED_SOURCE ( 'ANY', '', #59, .NOT_KNOWN. ) ;
#87 =( NAMED_UNIT ( * ) PLANE_ANGLE_UNIT ( ) SI_UNIT ( $, .RADIAN. ) );
#88 = ORIENTED_EDGE ( 'NONE', *, *, #247, .F. ) ;
#89 =( LENGTH_UNIT ( ) NAMED_UNIT ( * ) SI_UNIT ( $, .METRE. ) );
#90 = ORIENTED_EDGE ( 'NONE', *, *, #291, .T. ) ;
#91 = ORIENTED_EDGE ( 'NONE', *, *, #220, .T. ) ;
#92 = APPLICATION_PROTOCOL_DEFINITION ( 'draft international standard', 'automotive_design', 1998, #184 ) ;
#93 = CARTESIAN_POINT ( 'NONE',  ( -0.06250000000000002776, 0.0000000000000000000, 1.485000000000000764 ) ) ;
#94 = FACE_OUTER_BOUND ( 'NONE', #276, .T. ) ;
#95 = FACE_OUTER_BOUND ( 'NONE', #2, .T. ) ;
#96 = CARTESIAN_POINT ( 'NONE',  ( 0.04750000000000064587, 5.817072295950006528E-18, 1.500000000000000222 ) ) ;
#97 = AXIS2_PLACEMENT_3D ( 'NONE', #268, #132, #273 ) ;
#98 = DIRECTION ( 'NONE',  ( 0.0000000000000000000, 0.0000000000000000000, -1.000000000000000000 ) ) ;
#99 = CARTESIAN_POINT ( 'NONE',  ( 0.0000000000000000000, 0.0000000000000000000, 1.485000000000000764 ) ) ;
#100 = ADVANCED_BREP_SHAPE_REPRESENTATION ( 'Micro_SME-020-2', ( #111, #71 ), #272 ) ;
#101 =( NAMED_UNIT ( * ) SI_UNIT ( $, .STERADIAN. ) SOLID_ANGLE_UNIT ( ) );
#102 = DIRECTION ( 'NONE',  ( 0.0000000000000000000, 0.0000000000000000000, 1.000000000000000000 ) ) ;
#103 = VECTOR ( 'NONE', #285, 39.37007874015748854 ) ;
#104 = MECHANICAL_DESIGN_GEOMETRIC_PRESENTATION_REPRESENTATION (  '', ( #117 ), #205 ) ;
#105 = PRODUCT_DEFINITION_SHAPE ( 'NONE', 'NONE',  #139 ) ;
#106 = DIRECTION ( 'NONE',  ( -1.000000000000000000, 0.0000000000000000000, 1.224646799147353700E-16 ) ) ;
#107 = EDGE_CURVE ( 'NONE', #85, #1, #149, .T. ) ;
#108 = DIRECTION ( 'NONE',  ( 1.000000000000000000, 0.0000000000000000000, -0.0000000000000000000 ) ) ;
#109 = ORIENTED_EDGE ( 'NONE', *, *, #263, .T. ) ;
#110 = DIRECTION ( 'NONE',  ( -1.224646799147353700E-16, -0.0000000000000000000, -1.000000000000000000 ) ) ;
#111 = MANIFOLD_SOLID_BREP ( 'Cut-Revolve1', #125 ) ;
#112 = EDGE_CURVE ( 'NONE', #115, #24, #150, .T. ) ;
#113 = FILL_AREA_STYLE_COLOUR ( '', #29 ) ;
#114 = ORIENTED_EDGE ( 'NONE', *, *, #297, .T. ) ;
#115 = VERTEX_POINT ( 'NONE', #286 ) ;
#116 = VECTOR ( 'NONE', #199, 39.37007874015748143 ) ;
#117 = STYLED_ITEM ( 'NONE', ( #142 ), #100 ) ;
#118 = EDGE_LOOP ( 'NONE', ( #143, #228, #90, #109 ) ) ;
#119 = EDGE_CURVE ( 'NONE', #185, #115, #152, .T. ) ;
#120 = ADVANCED_FACE ( 'NONE', ( #260 ), #50, .T. ) ;
#121 = ORIENTED_EDGE ( 'NONE', *, *, #112, .F. ) ;
#122 = DIRECTION ( 'NONE',  ( -1.224646799147353700E-16, -0.0000000000000000000, -1.000000000000000000 ) ) ;
#123 = AXIS2_PLACEMENT_3D ( 'NONE', #27, #130, #10 ) ;
#124 = DIRECTION ( 'NONE',  ( 1.000000000000000000, 0.0000000000000000000, 0.0000000000000000000 ) ) ;
#125 = CLOSED_SHELL ( 'NONE', ( #31, #49, #61, #186, #200, #120, #237, #233, #239, #249 ) ) ;
#126 = PRODUCT_RELATED_PRODUCT_CATEGORY ( 'part', '', ( #59 ) ) ;
#127 = PRESENTATION_LAYER_ASSIGNMENT (  '', '', ( #38 ) ) ;
#128 = VECTOR ( 'NONE', #226, 39.37007874015748143 ) ;
#129 = AXIS2_PLACEMENT_3D ( 'NONE', #168, #122, #4 ) ;
#130 = DIRECTION ( 'NONE',  ( -1.224646799147353700E-16, -0.0000000000000000000, -1.000000000000000000 ) ) ;
#131 = CARTESIAN_POINT ( 'NONE',  ( 0.0000000000000000000, 0.0000000000000000000, 1.500000000000000222 ) ) ;
#132 = DIRECTION ( 'NONE',  ( -0.0000000000000000000, -0.0000000000000000000, -1.000000000000000000 ) ) ;
#133 = VECTOR ( 'NONE', #173, 39.37007874015748143 ) ;
#134 = DIRECTION ( 'NONE',  ( 0.0000000000000000000, 0.0000000000000000000, -1.000000000000000000 ) ) ;
#135 = EDGE_CURVE ( 'NONE', #162, #24, #81, .T. ) ;
#136 = DIRECTION ( 'NONE',  ( 0.0000000000000000000, 0.0000000000000000000, 1.000000000000000000 ) ) ;
#137 = LINE ( 'NONE', #57, #116 ) ;
#138 = DIRECTION ( 'NONE',  ( 1.000000000000000000, 0.0000000000000000000, 0.0000000000000000000 ) ) ;
#139 = PRODUCT_DEFINITION ( 'UNKNOWN', '', #86, #298 ) ;
#140 = CYLINDRICAL_SURFACE ( 'NONE', #129, 0.009990000000000000616 ) ;
#141 = ORIENTED_EDGE ( 'NONE', *, *, #242, .T. ) ;
#142 = PRESENTATION_STYLE_ASSIGNMENT (( #231 ) ) ;
#143 = ORIENTED_EDGE ( 'NONE', *, *, #242, .F. ) ;
#144 = VECTOR ( 'NONE', #36, 39.37007874015747433 ) ;
#145 = SURFACE_SIDE_STYLE ('',( #46 ) ) ;
#146 = EDGE_LOOP ( 'NONE', ( #121, #164, #91, #67 ) ) ;
#147 = ORIENTED_EDGE ( 'NONE', *, *, #79, .F. ) ;
#148 = CARTESIAN_POINT ( 'NONE',  ( 0.009990000000000000616, 1.223422152348205941E-18, -1.223422152348206327E-18 ) ) ;
#149 = LINE ( 'NONE', #5, #103 ) ;
#150 = LINE ( 'NONE', #53, #167 ) ;
#151 = PRESENTATION_LAYER_ASSIGNMENT (  '', '', ( #117 ) ) ;
#152 = LINE ( 'NONE', #96, #190 ) ;
#153 = DIRECTION ( 'NONE',  ( 0.0000000000000000000, 0.0000000000000000000, 1.000000000000000000 ) ) ;
#154 = CONICAL_SURFACE ( 'NONE', #271, 0.04750000000000064587, 0.7853981633974466137 ) ;
#155 = CARTESIAN_POINT ( 'NONE',  ( 3.673940397442060731E-18, 0.0000000000000000000, 0.02999999999999999889 ) ) ;
#156 = DIMENSIONAL_EXPONENTS ( 1.000000000000000000, 0.0000000000000000000, 0.0000000000000000000, 0.0000000000000000000, 0.0000000000000000000, 0.0000000000000000000, 0.0000000000000000000 ) ;
#157 = DIRECTION ( 'NONE',  ( -1.224646799147353700E-16, -0.0000000000000000000, -1.000000000000000000 ) ) ;
#158 =( LENGTH_UNIT ( ) NAMED_UNIT ( * ) SI_UNIT ( $, .METRE. ) );
#159 = CIRCLE ( 'NONE', #45, 0.04750000000000064587 ) ;
#160 = DIRECTION ( 'NONE',  ( 1.224646799147353700E-16, 0.0000000000000000000, 1.000000000000000000 ) ) ;
#161 = DIRECTION ( 'NONE',  ( 0.0000000000000000000, 0.0000000000000000000, 1.000000000000000000 ) ) ;
#162 = VERTEX_POINT ( 'NONE', #8 ) ;
#163 = DIRECTION ( 'NONE',  ( 1.000000000000000000, 0.0000000000000000000, 0.0000000000000000000 ) ) ;
#164 = ORIENTED_EDGE ( 'NONE', *, *, #175, .T. ) ;
#165 = EDGE_CURVE ( 'NONE', #20, #69, #240, .T. ) ;
#166 = ORIENTED_EDGE ( 'NONE', *, *, #135, .F. ) ;
#167 = VECTOR ( 'NONE', #7, 39.37007874015748143 ) ;
#168 = CARTESIAN_POINT ( 'NONE',  ( 0.0000000000000000000, 0.0000000000000000000, 0.0000000000000000000 ) ) ;
#169 = EDGE_CURVE ( 'NONE', #20, #296, #172, .T. ) ;
#170 = DIRECTION ( 'NONE',  ( -1.224646799147353700E-16, -0.0000000000000000000, -1.000000000000000000 ) ) ;
#171 =( NAMED_UNIT ( * ) PLANE_ANGLE_UNIT ( ) SI_UNIT ( $, .RADIAN. ) );
#172 = CIRCLE ( 'NONE', #123, 0.009990000000000002350 ) ;
#173 = DIRECTION ( 'NONE',  ( -1.224646799147353700E-16, -0.0000000000000000000, -1.000000000000000000 ) ) ;
#174 = DIRECTION ( 'NONE',  ( 0.0000000000000000000, 0.0000000000000000000, 1.000000000000000000 ) ) ;
#175 = EDGE_CURVE ( 'NONE', #115, #1, #229, .T. ) ;
#176 = DIRECTION ( 'NONE',  ( 1.000000000000000000, 0.0000000000000000000, 0.0000000000000000000 ) ) ;
#177 =( CONVERSION_BASED_UNIT ( 'INCH', #198 ) LENGTH_UNIT ( ) NAMED_UNIT ( #197 ) );
#178 = FACE_OUTER_BOUND ( 'NONE', #118, .T. ) ;
#179 = UNCERTAINTY_MEASURE_WITH_UNIT (LENGTH_MEASURE( 1.000000000000000082E-05 ), #42, 'distance_accuracy_value', 'NONE');
#180 = FACE_OUTER_BOUND ( 'NONE', #25, .T. ) ;
#181 = AXIS2_PLACEMENT_3D ( 'NONE', #270, #136, #244 ) ;
#182 = CYLINDRICAL_SURFACE ( 'NONE', #70, 0.009990000000000000616 ) ;
#183 = CYLINDRICAL_SURFACE ( 'NONE', #97, 0.06250000000000002776 ) ;
#184 = APPLICATION_CONTEXT ( 'automotive_design' ) ;
#185 = VERTEX_POINT ( 'NONE', #241 ) ;
#186 = ADVANCED_FACE ( 'NONE', ( #265 ), #30, .T. ) ;
#187 = ORIENTED_EDGE ( 'NONE', *, *, #297, .F. ) ;
#188 = ORIENTED_EDGE ( 'NONE', *, *, #119, .T. ) ;
#189 = CARTESIAN_POINT ( 'NONE',  ( 0.009990000000000007555, 0.0000000000000000000, 0.02999999999999999889 ) ) ;
#190 = VECTOR ( 'NONE', #215, 39.37007874015748854 ) ;
#191 = AXIS2_PLACEMENT_3D ( 'NONE', #248, #33, #201 ) ;
#192 = ORIENTED_EDGE ( 'NONE', *, *, #135, .T. ) ;
#193 = CARTESIAN_POINT ( 'NONE',  ( 0.0000000000000000000, 0.0000000000000000000, 1.500000000000000222 ) ) ;
#194 = CONICAL_SURFACE ( 'NONE', #250, 0.04750000000000064587, 0.7853981633974466137 ) ;
#195 = CARTESIAN_POINT ( 'NONE',  ( -0.04750000000000064587, 0.0000000000000000000, 1.500000000000000222 ) ) ;
#196 =( CONVERSION_BASED_UNIT ( 'INCH', #236 ) LENGTH_UNIT ( ) NAMED_UNIT ( #156 ) );
#197 = DIMENSIONAL_EXPONENTS ( 1.000000000000000000, 0.0000000000000000000, 0.0000000000000000000, 0.0000000000000000000, 0.0000000000000000000, 0.0000000000000000000, 0.0000000000000000000 ) ;
#198 = LENGTH_MEASURE_WITH_UNIT ( LENGTH_MEASURE( 0.02539999999999999897 ), #158 );
#199 = DIRECTION ( 'NONE',  ( -0.0000000000000000000, -0.0000000000000000000, -1.000000000000000000 ) ) ;
#200 = ADVANCED_FACE ( 'NONE', ( #219 ), #183, .T. ) ;
#201 = DIRECTION ( 'NONE',  ( 1.000000000000000000, 0.0000000000000000000, 0.0000000000000000000 ) ) ;
#202 = CARTESIAN_POINT ( 'NONE',  ( -0.009990000000000000616, 0.0000000000000000000, 2.446844304696412653E-18 ) ) ;
#203 = AXIS2_PLACEMENT_3D ( 'NONE', #193, #174, #283 ) ;
#204 = CARTESIAN_POINT ( 'NONE',  ( 0.009990000000000007555, 0.0000000000000000000, 0.02999999999999999889 ) ) ;
#205 =( GEOMETRIC_REPRESENTATION_CONTEXT ( 3 ) GLOBAL_UNCERTAINTY_ASSIGNED_CONTEXT ( ( #179 ) ) GLOBAL_UNIT_ASSIGNED_CONTEXT ( ( #42, #87, #68 ) ) REPRESENTATION_CONTEXT ( 'NONE', 'WORKASPACE' ) );
#206 = LENGTH_MEASURE_WITH_UNIT ( LENGTH_MEASURE( 0.02539999999999999897 ), #89 );
#207 = ORIENTED_EDGE ( 'NONE', *, *, #169, .T. ) ;
#208 = UNCERTAINTY_MEASURE_WITH_UNIT (LENGTH_MEASURE( 1.000000000000000082E-05 ), #196, 'distance_accuracy_value', 'NONE');
#209 = FILL_AREA_STYLE ('',( #113 ) ) ;
#210 = CIRCLE ( 'NONE', #39, 0.009990000000000000616 ) ;
#211 = ORIENTED_EDGE ( 'NONE', *, *, #291, .F. ) ;
#212 = ORIENTED_EDGE ( 'NONE', *, *, #247, .T. ) ;
#213 = ORIENTED_EDGE ( 'NONE', *, *, #258, .F. ) ;
#214 = CARTESIAN_POINT ( 'NONE',  ( 0.06250000000000006939, 7.654042494670963708E-18, 0.3277990083481244765 ) ) ;
#215 = DIRECTION ( 'NONE',  ( 0.7071067811865462405, 8.659560562354916834E-17, -0.7071067811865486830 ) ) ;
#216 = EDGE_CURVE ( 'NONE', #85, #185, #159, .T. ) ;
#217 = DIRECTION ( 'NONE',  ( 1.000000000000000000, 0.0000000000000000000, 0.0000000000000000000 ) ) ;
#218 =( LENGTH_UNIT ( ) NAMED_UNIT ( * ) SI_UNIT ( $, .METRE. ) );
#219 = FACE_OUTER_BOUND ( 'NONE', #146, .T. ) ;
#220 = EDGE_CURVE ( 'NONE', #1, #162, #137, .T. ) ;
#221 = CARTESIAN_POINT ( 'NONE',  ( 3.673940397442060731E-18, 0.0000000000000000000, 0.02999999999999999889 ) ) ;
#222 = CARTESIAN_POINT ( 'NONE',  ( 0.0000000000000000000, 0.0000000000000000000, 0.0000000000000000000 ) ) ;
#223 = ORIENTED_EDGE ( 'NONE', *, *, #112, .T. ) ;
#224 = CARTESIAN_POINT ( 'NONE',  ( 1.498260022879197012E-34, 0.0000000000000000000, 1.223422152348206327E-18 ) ) ;
#225 = AXIS2_PLACEMENT_3D ( 'NONE', #54, #170, #217 ) ;
#226 = DIRECTION ( 'NONE',  ( 0.1736481776669313581, 0.0000000000000000000, 0.9848077530122077983 ) ) ;
#227 = ORIENTED_EDGE ( 'NONE', *, *, #79, .T. ) ;
#228 = ORIENTED_EDGE ( 'NONE', *, *, #169, .F. ) ;
#229 = CIRCLE ( 'NONE', #21, 0.06250000000000002776 ) ;
#230 = ORIENTED_EDGE ( 'NONE', *, *, #257, .F. ) ;
#231 = SURFACE_STYLE_USAGE ( .BOTH. , #145 ) ;
#232 = ORIENTED_EDGE ( 'NONE', *, *, #216, .T. ) ;
#233 = ADVANCED_FACE ( 'NONE', ( #178 ), #262, .T. ) ;
#234 = ORIENTED_EDGE ( 'NONE', *, *, #258, .T. ) ;
#235 = DIRECTION ( 'NONE',  ( 0.0000000000000000000, 0.0000000000000000000, -1.000000000000000000 ) ) ;
#236 = LENGTH_MEASURE_WITH_UNIT ( LENGTH_MEASURE( 0.02539999999999999897 ), #218 );
#237 = ADVANCED_FACE ( 'NONE', ( #269 ), #154, .T. ) ;
#238 = SURFACE_STYLE_FILL_AREA ( #264 ) ;
#239 = ADVANCED_FACE ( 'NONE', ( #32 ), #182, .T. ) ;
#240 = LINE ( 'NONE', #148, #133 ) ;
#241 = CARTESIAN_POINT ( 'NONE',  ( 0.04750000000000064587, 6.735557395310483192E-18, 1.500000000000000222 ) ) ;
#242 = EDGE_CURVE ( 'NONE', #296, #162, #292, .T. ) ;
#243 = DIRECTION ( 'NONE',  ( -1.000000000000000000, 0.0000000000000000000, 0.0000000000000000000 ) ) ;
#244 = DIRECTION ( 'NONE',  ( 1.000000000000000000, 0.0000000000000000000, 0.0000000000000000000 ) ) ;
#245 = AXIS2_PLACEMENT_3D ( 'NONE', #62, #160, #41 ) ;
#246 = CARTESIAN_POINT ( 'NONE',  ( -0.009989999999999998881, 1.223422152348206134E-18, 0.02999999999999999889 ) ) ;
#247 = EDGE_CURVE ( 'NONE', #69, #253, #13, .T. ) ;
#248 = CARTESIAN_POINT ( 'NONE',  ( 4.014380063372072520E-17, 0.0000000000000000000, 0.3277990083481244765 ) ) ;
#249 = ADVANCED_FACE ( 'NONE', ( #180 ), #56, .F. ) ;
#250 = AXIS2_PLACEMENT_3D ( 'NONE', #52, #235, #26 ) ;
#251 = ORIENTED_EDGE ( 'NONE', *, *, #175, .F. ) ;
#252 = SHAPE_DEFINITION_REPRESENTATION ( #105, #100 ) ;
#253 = VERTEX_POINT ( 'NONE', #202 ) ;
#254 = APPLICATION_PROTOCOL_DEFINITION ( 'draft international standard', 'automotive_design', 1998, #6 ) ;
#255 = ORIENTED_EDGE ( 'NONE', *, *, #216, .F. ) ;
#256 = EDGE_LOOP ( 'NONE', ( #279, #207, #114, #88 ) ) ;
#257 = EDGE_CURVE ( 'NONE', #185, #85, #9, .T. ) ;
#258 = EDGE_CURVE ( 'NONE', #296, #20, #267, .T. ) ;
#259 = ORIENTED_EDGE ( 'NONE', *, *, #107, .T. ) ;
#260 = FACE_OUTER_BOUND ( 'NONE', #23, .T. ) ;
#261 = SURFACE_STYLE_USAGE ( .BOTH. , #74 ) ;
#262 = CONICAL_SURFACE ( 'NONE', #275, 0.009990000000000002350, 0.1745329251994338637 ) ;
#263 = EDGE_CURVE ( 'NONE', #24, #162, #280, .T. ) ;
#264 = FILL_AREA_STYLE ('',( #73 ) ) ;
#265 = FACE_OUTER_BOUND ( 'NONE', #277, .T. ) ;
#266 = MECHANICAL_DESIGN_GEOMETRIC_PRESENTATION_REPRESENTATION (  '', ( #38 ), #63 ) ;
#267 = CIRCLE ( 'NONE', #64, 0.009990000000000002350 ) ;
#268 = CARTESIAN_POINT ( 'NONE',  ( 0.0000000000000000000, 0.0000000000000000000, 1.500000000000000222 ) ) ;
#269 = FACE_OUTER_BOUND ( 'NONE', #3, .T. ) ;
#270 = CARTESIAN_POINT ( 'NONE',  ( 0.0000000000000000000, 0.0000000000000000000, 1.500000000000000222 ) ) ;
#271 = AXIS2_PLACEMENT_3D ( 'NONE', #60, #134, #84 ) ;
#272 =( GEOMETRIC_REPRESENTATION_CONTEXT ( 3 ) GLOBAL_UNCERTAINTY_ASSIGNED_CONTEXT ( ( #290 ) ) GLOBAL_UNIT_ASSIGNED_CONTEXT ( ( #177, #40, #22 ) ) REPRESENTATION_CONTEXT ( 'NONE', 'WORKASPACE' ) );
#273 = DIRECTION ( 'NONE',  ( -1.000000000000000000, 0.0000000000000000000, 0.0000000000000000000 ) ) ;
#274 = DIRECTION ( 'NONE',  ( 1.224646799147353700E-16, 0.0000000000000000000, 1.000000000000000000 ) ) ;
#275 = AXIS2_PLACEMENT_3D ( 'NONE', #155, #274, #289 ) ;
#276 = EDGE_LOOP ( 'NONE', ( #213, #141, #192, #211 ) ) ;
#277 = EDGE_LOOP ( 'NONE', ( #227, #223, #166, #47 ) ) ;
#278 = EDGE_CURVE ( 'NONE', #253, #69, #210, .T. ) ;
#279 = ORIENTED_EDGE ( 'NONE', *, *, #165, .F. ) ;
#280 = CIRCLE ( 'NONE', #191, 0.06250000000000002776 ) ;
#281 = FACE_OUTER_BOUND ( 'NONE', #72, .T. ) ;
#282 = PRESENTATION_STYLE_ASSIGNMENT (( #261 ) ) ;
#283 = DIRECTION ( 'NONE',  ( 1.000000000000000000, 0.0000000000000000000, -0.0000000000000000000 ) ) ;
#284 = CONICAL_SURFACE ( 'NONE', #245, 0.009990000000000002350, 0.1745329251994338637 ) ;
#285 = DIRECTION ( 'NONE',  ( -0.7071067811865462405, 0.0000000000000000000, -0.7071067811865486830 ) ) ;
#286 = CARTESIAN_POINT ( 'NONE',  ( 0.06250000000000002776, 7.654042494670959086E-18, 1.485000000000000764 ) ) ;
#287 = DIRECTION ( 'NONE',  ( -1.000000000000000000, 0.0000000000000000000, 1.224646799147353700E-16 ) ) ;
#288 = AXIS2_PLACEMENT_3D ( 'NONE', #131, #11, #243 ) ;
#289 = DIRECTION ( 'NONE',  ( 1.000000000000000000, 0.0000000000000000000, 0.0000000000000000000 ) ) ;
#290 = UNCERTAINTY_MEASURE_WITH_UNIT (LENGTH_MEASURE( 1.000000000000000082E-05 ), #177, 'distance_accuracy_value', 'NONE');
#291 = EDGE_CURVE ( 'NONE', #20, #24, #83, .T. ) ;
#292 = LINE ( 'NONE', #246, #144 ) ;
#293 = LINE ( 'NONE', #80, #51 ) ;
#294 = DIRECTION ( 'NONE',  ( -1.224646799147353700E-16, -0.0000000000000000000, -1.000000000000000000 ) ) ;
#295 = PRODUCT_CONTEXT ( 'NONE', #6, 'mechanical' ) ;
#296 = VERTEX_POINT ( 'NONE', #16 ) ;
#297 = EDGE_CURVE ( 'NONE', #296, #253, #293, .T. ) ;
#298 = PRODUCT_DEFINITION_CONTEXT ( 'detailed design', #184, 'design' ) ;
#299 = ORIENTED_EDGE ( 'NONE', *, *, #257, .T. ) ;
ENDSEC;
END-ISO-10303-21;
