ISO-10303-21;
HEADER;
FILE_DESCRIPTION (( 'STEP AP214' ),
    '1' );
FILE_NAME ('56527.STEP',
    '2023-06-30T22:09:52',
    ( '' ),
    ( '' ),
    'SwSTEP 2.0',
    'SolidWorks 2023',
    '' );
FILE_SCHEMA (( 'AUTOMOTIVE_DESIGN' ));
ENDSEC;

DATA;
#1 = EDGE_CURVE ( 'NONE', #119, #201, #126, .T. ) ;
#2 = ADVANCED_FACE ( 'NONE', ( #217 ), #45, .T. ) ;
#3 = FILL_AREA_STYLE ('',( #161 ) ) ;
#4 = LENGTH_MEASURE_WITH_UNIT ( LENGTH_MEASURE( 0.02539999999999999897 ), #43 );
#5 =( LENGTH_UNIT ( ) NAMED_UNIT ( * ) SI_UNIT ( $, .METRE. ) );
#6 = DIMENSIONAL_EXPONENTS ( 1.000000000000000000, 0.000000000000000000, 0.000000000000000000, 0.000000000000000000, 0.000000000000000000, 0.000000000000000000, 0.000000000000000000 ) ;
#7 = FACE_OUTER_BOUND ( 'NONE', #33, .T. ) ;
#8 = COLOUR_RGB ( '',0.7921568627450980005, 0.8196078431372548767, 0.9333333333333333481 ) ;
#9 =( NAMED_UNIT ( * ) SI_UNIT ( $, .STERADIAN. ) SOLID_ANGLE_UNIT ( ) );
#10 = VERTEX_POINT ( 'NONE', #79 ) ;
#11 = SHAPE_DEFINITION_REPRESENTATION ( #255, #243 ) ;
#12 = DIRECTION ( 'NONE',  ( -1.574545884618025728E-16, 1.000000000000000000, -0.000000000000000000 ) ) ;
#13 = ORIENTED_EDGE ( 'NONE', *, *, #362, .F. ) ;
#14 = DIRECTION ( 'NONE',  ( 0.000000000000000000, 1.000000000000000000, 0.000000000000000000 ) ) ;
#15 = CIRCLE ( 'NONE', #164, 0.2499999999999998335 ) ;
#16 = DIRECTION ( 'NONE',  ( 1.224646799147353207E-16, -0.000000000000000000, 1.000000000000000000 ) ) ;
#17 = AXIS2_PLACEMENT_3D ( 'NONE', #59, #113, #257 ) ;
#18 = CARTESIAN_POINT ( 'NONE',  ( 0.000000000000000000, 0.000000000000000000, 0.000000000000000000 ) ) ;
#19 = DIRECTION ( 'NONE',  ( 1.000000000000000000, 0.000000000000000000, 0.000000000000000000 ) ) ;
#20 = FILL_AREA_STYLE ('',( #183 ) ) ;
#21 = CIRCLE ( 'NONE', #121, 0.2500000000000000000 ) ;
#22 = FILL_AREA_STYLE_COLOUR ( '', #122 ) ;
#23 = CARTESIAN_POINT ( 'NONE',  ( 0.000000000000000000, 0.000000000000000000, 0.000000000000000000 ) ) ;
#24 = CIRCLE ( 'NONE', #103, 0.2499999999999996114 ) ;
#25 = ORIENTED_EDGE ( 'NONE', *, *, #340, .T. ) ;
#26 = CYLINDRICAL_SURFACE ( 'NONE', #138, 0.2499999999999999167 ) ;
#27 = ORIENTED_EDGE ( 'NONE', *, *, #1, .T. ) ;
#28 = DIRECTION ( 'NONE',  ( 0.000000000000000000, 0.000000000000000000, -1.000000000000000000 ) ) ;
#29 = PRESENTATION_LAYER_ASSIGNMENT (  '', '', ( #219 ) ) ;
#30 = DIMENSIONAL_EXPONENTS ( 1.000000000000000000, 0.000000000000000000, 0.000000000000000000, 0.000000000000000000, 0.000000000000000000, 0.000000000000000000, 0.000000000000000000 ) ;
#31 =( LENGTH_UNIT ( ) NAMED_UNIT ( * ) SI_UNIT ( $, .METRE. ) );
#32 = CARTESIAN_POINT ( 'NONE',  ( -6.123233995736772199E-17, 3.000000000000000444, 0.000000000000000000 ) ) ;
#33 = EDGE_LOOP ( 'NONE', ( #143, #25, #178, #350 ) ) ;
#34 = DIRECTION ( 'NONE',  ( 1.000000000000000000, 0.000000000000000000, 0.000000000000000000 ) ) ;
#35 = DIRECTION ( 'NONE',  ( 0.000000000000000000, 0.000000000000000000, -1.000000000000000000 ) ) ;
#36 =( LENGTH_UNIT ( ) NAMED_UNIT ( * ) SI_UNIT ( $, .METRE. ) );
#37 = ORIENTED_EDGE ( 'NONE', *, *, #362, .T. ) ;
#38 = AXIS2_PLACEMENT_3D ( 'NONE', #277, #236, #371 ) ;
#39 = DIRECTION ( 'NONE',  ( -1.000000000000000000, 0.000000000000000000, 0.000000000000000000 ) ) ;
#40 =( LENGTH_UNIT ( ) NAMED_UNIT ( * ) SI_UNIT ( $, .METRE. ) );
#41 =( CONVERSION_BASED_UNIT ( 'INCH', #149 ) LENGTH_UNIT ( ) NAMED_UNIT ( #288 ) );
#42 = EDGE_CURVE ( 'NONE', #158, #10, #24, .T. ) ;
#43 =( LENGTH_UNIT ( ) NAMED_UNIT ( * ) SI_UNIT ( $, .METRE. ) );
#44 =( LENGTH_UNIT ( ) NAMED_UNIT ( * ) SI_UNIT ( $, .METRE. ) );
#45 = SPHERICAL_SURFACE ( 'NONE', #94, 0.2500000000000000000 ) ;
#46 = AXIS2_PLACEMENT_3D ( 'NONE', #363, #269, #100 ) ;
#47 =( GEOMETRIC_REPRESENTATION_CONTEXT ( 3 ) GLOBAL_UNCERTAINTY_ASSIGNED_CONTEXT ( ( #127 ) ) GLOBAL_UNIT_ASSIGNED_CONTEXT ( ( #276, #182, #241 ) ) REPRESENTATION_CONTEXT ( 'NONE', 'WORKASPACE' ) );
#48 = SURFACE_SIDE_STYLE ('',( #69 ) ) ;
#49 = ADVANCED_FACE ( 'NONE', ( #131 ), #310, .F. ) ;
#50 = SURFACE_STYLE_USAGE ( .BOTH. , #187 ) ;
#51 = MECHANICAL_DESIGN_GEOMETRIC_PRESENTATION_REPRESENTATION (  '', ( #209 ), #300 ) ;
#52 = STYLED_ITEM ( 'NONE', ( #128 ), #294 ) ;
#53 = VERTEX_POINT ( 'NONE', #342 ) ;
#54 = ORIENTED_EDGE ( 'NONE', *, *, #287, .T. ) ;
#55 = DIRECTION ( 'NONE',  ( -1.574545884618025728E-16, 1.000000000000000000, -0.000000000000000000 ) ) ;
#56 = CLOSED_SHELL ( 'NONE', ( #2, #237, #294, #357, #212 ) ) ;
#57 = FACE_OUTER_BOUND ( 'NONE', #146, .T. ) ;
#58 = SURFACE_STYLE_FILL_AREA ( #228 ) ;
#59 = CARTESIAN_POINT ( 'NONE',  ( 0.000000000000000000, 0.000000000000000000, 0.000000000000000000 ) ) ;
#60 = ORIENTED_EDGE ( 'NONE', *, *, #111, .T. ) ;
#61 = STYLED_ITEM ( 'NONE', ( #366 ), #319 ) ;
#62 = FILL_AREA_STYLE ('',( #296 ) ) ;
#63 = ORIENTED_EDGE ( 'NONE', *, *, #221, .T. ) ;
#64 = CYLINDRICAL_SURFACE ( 'NONE', #368, 0.2499999999999998057 ) ;
#65 = ORIENTED_EDGE ( 'NONE', *, *, #226, .F. ) ;
#66 = FILL_AREA_STYLE ('',( #72 ) ) ;
#67 = CARTESIAN_POINT ( 'NONE',  ( -6.123233995736770966E-17, 3.000000000000000444, 0.000000000000000000 ) ) ;
#68 = AXIS2_PLACEMENT_3D ( 'NONE', #32, #12, #328 ) ;
#69 = SURFACE_STYLE_FILL_AREA ( #184 ) ;
#70 = PRESENTATION_STYLE_ASSIGNMENT (( #93 ) ) ;
#71 = CARTESIAN_POINT ( 'NONE',  ( 0.000000000000000000, 0.2500000000000000000, -0.2500000000000000000 ) ) ;
#72 = FILL_AREA_STYLE_COLOUR ( '', #210 ) ;
#73 = DIRECTION ( 'NONE',  ( 0.000000000000000000, 0.000000000000000000, -1.000000000000000000 ) ) ;
#74 = DIRECTION ( 'NONE',  ( -0.000000000000000000, -1.000000000000000000, -0.000000000000000000 ) ) ;
#75 = CARTESIAN_POINT ( 'NONE',  ( 0.000000000000000000, 1.250000000000000000, 0.000000000000000000 ) ) ;
#76 = UNCERTAINTY_MEASURE_WITH_UNIT (LENGTH_MEASURE( 1.000000000000000082E-05 ), #261, 'distance_accuracy_value', 'NONE');
#77 =( LENGTH_UNIT ( ) NAMED_UNIT ( * ) SI_UNIT ( $, .METRE. ) );
#78 = VECTOR ( 'NONE', #74, 39.37007874015748143 ) ;
#79 = CARTESIAN_POINT ( 'NONE',  ( -0.2499999999999994171, 1.250000000000000000, 0.000000000000000000 ) ) ;
#80 = EDGE_LOOP ( 'NONE', ( #293, #256, #139, #265 ) ) ;
#81 =( NAMED_UNIT ( * ) PLANE_ANGLE_UNIT ( ) SI_UNIT ( $, .RADIAN. ) );
#82 = SURFACE_SIDE_STYLE ('',( #193 ) ) ;
#83 = AXIS2_PLACEMENT_3D ( 'NONE', #333, #14, #186 ) ;
#84 = SURFACE_STYLE_USAGE ( .BOTH. , #141 ) ;
#85 = LENGTH_MEASURE_WITH_UNIT ( LENGTH_MEASURE( 0.02539999999999999897 ), #31 );
#86 = DIRECTION ( 'NONE',  ( -0.000000000000000000, -1.000000000000000000, -0.000000000000000000 ) ) ;
#87 = ORIENTED_EDGE ( 'NONE', *, *, #169, .T. ) ;
#88 = CIRCLE ( 'NONE', #338, 0.2499999999999998335 ) ;
#89 = CARTESIAN_POINT ( 'NONE',  ( -3.061616997868383018E-17, 0.2500000000000000000, 0.000000000000000000 ) ) ;
#90 = VERTEX_POINT ( 'NONE', #208 ) ;
#91 =( CONVERSION_BASED_UNIT ( 'INCH', #85 ) LENGTH_UNIT ( ) NAMED_UNIT ( #30 ) );
#92 = CARTESIAN_POINT ( 'NONE',  ( -3.061616997868383018E-17, 0.2500000000000000000, 0.000000000000000000 ) ) ;
#93 = SURFACE_STYLE_USAGE ( .BOTH. , #234 ) ;
#94 = AXIS2_PLACEMENT_3D ( 'NONE', #92, #151, #19 ) ;
#95 = PRODUCT_DEFINITION_CONTEXT ( 'detailed design', #248, 'design' ) ;
#96 = SURFACE_STYLE_USAGE ( .BOTH. , #48 ) ;
#97 = CIRCLE ( 'NONE', #142, 0.2499999999999996114 ) ;
#98 = LINE ( 'NONE', #130, #266 ) ;
#99 = LINE ( 'NONE', #268, #78 ) ;
#100 = DIRECTION ( 'NONE',  ( 1.000000000000000000, 1.574545884618025728E-16, 0.000000000000000000 ) ) ;
#101 =( NAMED_UNIT ( * ) PLANE_ANGLE_UNIT ( ) SI_UNIT ( $, .RADIAN. ) );
#102 =( CONVERSION_BASED_UNIT ( 'INCH', #279 ) LENGTH_UNIT ( ) NAMED_UNIT ( #6 ) );
#103 = AXIS2_PLACEMENT_3D ( 'NONE', #271, #242, #154 ) ;
#104 = AXIS2_PLACEMENT_3D ( 'NONE', #309, #123, #39 ) ;
#105 = DIRECTION ( 'NONE',  ( 0.000000000000000000, 0.000000000000000000, -1.000000000000000000 ) ) ;
#106 = EDGE_LOOP ( 'NONE', ( #251, #87 ) ) ;
#107 =( NAMED_UNIT ( * ) PLANE_ANGLE_UNIT ( ) SI_UNIT ( $, .RADIAN. ) );
#108 = VECTOR ( 'NONE', #272, 39.37007874015748143 ) ;
#109 = VERTEX_POINT ( 'NONE', #365 ) ;
#110 = CARTESIAN_POINT ( 'NONE',  ( 0.2499999999999998890, 3.000000000000000444, 3.061616997868381785E-17 ) ) ;
#111 = EDGE_CURVE ( 'NONE', #90, #109, #15, .T. ) ;
#112 = ORIENTED_EDGE ( 'NONE', *, *, #1, .F. ) ;
#113 = DIRECTION ( 'NONE',  ( 0.000000000000000000, 0.000000000000000000, 1.000000000000000000 ) ) ;
#114 = DIRECTION ( 'NONE',  ( 0.000000000000000000, 0.000000000000000000, 1.000000000000000000 ) ) ;
#115 = LENGTH_MEASURE_WITH_UNIT ( LENGTH_MEASURE( 0.02539999999999999897 ), #36 );
#116 = CARTESIAN_POINT ( 'NONE',  ( -3.061616997868383018E-17, 0.2500000000000000000, 0.000000000000000000 ) ) ;
#117 = ORIENTED_EDGE ( 'NONE', *, *, #176, .T. ) ;
#118 = DIMENSIONAL_EXPONENTS ( 1.000000000000000000, 0.000000000000000000, 0.000000000000000000, 0.000000000000000000, 0.000000000000000000, 0.000000000000000000, 0.000000000000000000 ) ;
#119 = VERTEX_POINT ( 'NONE', #336 ) ;
#120 = PRODUCT_RELATED_PRODUCT_CATEGORY ( 'part', '', ( #140 ) ) ;
#121 = AXIS2_PLACEMENT_3D ( 'NONE', #116, #231, #292 ) ;
#122 = COLOUR_RGB ( '',1.000000000000000000, 0.000000000000000000, 0.000000000000000000 ) ;
#123 = DIRECTION ( 'NONE',  ( -1.574545884618025728E-16, 1.000000000000000000, -0.000000000000000000 ) ) ;
#124 = DIRECTION ( 'NONE',  ( 1.000000000000000000, 0.000000000000000000, -1.224646799147353207E-16 ) ) ;
#125 = DIRECTION ( 'NONE',  ( -1.574545884618025728E-16, 1.000000000000000000, -0.000000000000000000 ) ) ;
#126 = CIRCLE ( 'NONE', #202, 0.2500000000000000000 ) ;
#127 = UNCERTAINTY_MEASURE_WITH_UNIT (LENGTH_MEASURE( 1.000000000000000082E-05 ), #276, 'distance_accuracy_value', 'NONE');
#128 = PRESENTATION_STYLE_ASSIGNMENT (( #96 ) ) ;
#129 = EDGE_CURVE ( 'NONE', #10, #53, #98, .T. ) ;
#130 = CARTESIAN_POINT ( 'NONE',  ( -0.2499999999999998612, 3.000000000000000444, 0.000000000000000000 ) ) ;
#131 = FACE_OUTER_BOUND ( 'NONE', #136, .T. ) ;
#132 = LENGTH_MEASURE_WITH_UNIT ( LENGTH_MEASURE( 0.02539999999999999897 ), #188 );
#133 =( NAMED_UNIT ( * ) SI_UNIT ( $, .STERADIAN. ) SOLID_ANGLE_UNIT ( ) );
#134 =( GEOMETRIC_REPRESENTATION_CONTEXT ( 3 ) GLOBAL_UNCERTAINTY_ASSIGNED_CONTEXT ( ( #305 ) ) GLOBAL_UNIT_ASSIGNED_CONTEXT ( ( #41, #307, #359 ) ) REPRESENTATION_CONTEXT ( 'NONE', 'WORKASPACE' ) );
#135 = DIRECTION ( 'NONE',  ( 0.000000000000000000, 0.000000000000000000, -1.000000000000000000 ) ) ;
#136 = EDGE_LOOP ( 'NONE', ( #13, #175 ) ) ;
#137 =( GEOMETRIC_REPRESENTATION_CONTEXT ( 3 ) GLOBAL_UNCERTAINTY_ASSIGNED_CONTEXT ( ( #215 ) ) GLOBAL_UNIT_ASSIGNED_CONTEXT ( ( #206, #101, #299 ) ) REPRESENTATION_CONTEXT ( 'NONE', 'WORKASPACE' ) );
#138 = AXIS2_PLACEMENT_3D ( 'NONE', #23, #216, #347 ) ;
#139 = ORIENTED_EDGE ( 'NONE', *, *, #129, .T. ) ;
#140 = PRODUCT ( '56527', '56527', '', ( #198 ) ) ;
#141 = SURFACE_SIDE_STYLE ('',( #58 ) ) ;
#142 = AXIS2_PLACEMENT_3D ( 'NONE', #318, #55, #312 ) ;
#143 = ORIENTED_EDGE ( 'NONE', *, *, #176, .F. ) ;
#144 = PRODUCT_DEFINITION ( 'UNKNOWN', '', #203, #95 ) ;
#145 = VERTEX_POINT ( 'NONE', #71 ) ;
#146 = EDGE_LOOP ( 'NONE', ( #60, #262, #112, #330, #313 ) ) ;
#147 =( GEOMETRIC_REPRESENTATION_CONTEXT ( 3 ) GLOBAL_UNCERTAINTY_ASSIGNED_CONTEXT ( ( #301 ) ) GLOBAL_UNIT_ASSIGNED_CONTEXT ( ( #345, #107, #133 ) ) REPRESENTATION_CONTEXT ( 'NONE', 'WORKASPACE' ) );
#148 = SURFACE_SIDE_STYLE ('',( #341 ) ) ;
#149 = LENGTH_MEASURE_WITH_UNIT ( LENGTH_MEASURE( 0.02539999999999999897 ), #40 );
#150 = DIRECTION ( 'NONE',  ( 0.000000000000000000, 0.000000000000000000, -1.000000000000000000 ) ) ;
#151 = DIRECTION ( 'NONE',  ( 0.000000000000000000, 0.000000000000000000, 1.000000000000000000 ) ) ;
#152 = CARTESIAN_POINT ( 'NONE',  ( -3.061616997868383018E-17, 0.2500000000000000000, 0.000000000000000000 ) ) ;
#153 = MECHANICAL_DESIGN_GEOMETRIC_PRESENTATION_REPRESENTATION (  '', ( #160 ), #137 ) ;
#154 = DIRECTION ( 'NONE',  ( -1.000000000000000000, 0.000000000000000000, 0.000000000000000000 ) ) ;
#155 = CARTESIAN_POINT ( 'NONE',  ( -0.2500000000000000000, 0.2500000000000000000, 3.061616997868382402E-17 ) ) ;
#156 = CARTESIAN_POINT ( 'NONE',  ( 0.2499999999999998612, 1.250000000000000000, 3.061616997868381169E-17 ) ) ;
#157 = ADVANCED_FACE ( 'NONE', ( #370 ), #302, .F. ) ;
#158 = VERTEX_POINT ( 'NONE', #156 ) ;
#159 = DIRECTION ( 'NONE',  ( -0.000000000000000000, -1.000000000000000000, -0.000000000000000000 ) ) ;
#160 = STYLED_ITEM ( 'NONE', ( #321 ), #2 ) ;
#161 = FILL_AREA_STYLE_COLOUR ( '', #180 ) ;
#162 = CARTESIAN_POINT ( 'NONE',  ( 0.000000000000000000, 0.2500000000000000000, 0.000000000000000000 ) ) ;
#163 = DIMENSIONAL_EXPONENTS ( 1.000000000000000000, 0.000000000000000000, 0.000000000000000000, 0.000000000000000000, 0.000000000000000000, 0.000000000000000000, 0.000000000000000000 ) ;
#164 = AXIS2_PLACEMENT_3D ( 'NONE', #75, #334, #73 ) ;
#165 = STYLED_ITEM ( 'NONE', ( #249 ), #357 ) ;
#166 = APPLICATION_PROTOCOL_DEFINITION ( 'draft international standard', 'automotive_design', 1998, #225 ) ;
#167 = SURFACE_SIDE_STYLE ('',( #227 ) ) ;
#168 = CARTESIAN_POINT ( 'NONE',  ( -6.123233995736772199E-17, 3.000000000000000444, 0.000000000000000000 ) ) ;
#169 = EDGE_CURVE ( 'NONE', #323, #53, #308, .T. ) ;
#170 = FILL_AREA_STYLE_COLOUR ( '', #285 ) ;
#171 = EDGE_LOOP ( 'NONE', ( #263, #205, #191, #361, #232 ) ) ;
#172 = AXIS2_PLACEMENT_3D ( 'NONE', #89, #114, #34 ) ;
#173 = CIRCLE ( 'NONE', #275, 0.2500000000000000000 ) ;
#174 = PRESENTATION_STYLE_ASSIGNMENT (( #290 ) ) ;
#175 = ORIENTED_EDGE ( 'NONE', *, *, #42, .F. ) ;
#176 = EDGE_CURVE ( 'NONE', #280, #332, #360, .T. ) ;
#177 = DIRECTION ( 'NONE',  ( -1.574545884618025728E-16, 1.000000000000000000, -0.000000000000000000 ) ) ;
#178 = ORIENTED_EDGE ( 'NONE', *, *, #373, .T. ) ;
#179 = LINE ( 'NONE', #244, #282 ) ;
#180 = COLOUR_RGB ( '',1.000000000000000000, 0.000000000000000000, 0.000000000000000000 ) ;
#181 = MANIFOLD_SOLID_BREP ( 'Revolve - Cutting Edge', #56 ) ;
#182 =( NAMED_UNIT ( * ) PLANE_ANGLE_UNIT ( ) SI_UNIT ( $, .RADIAN. ) );
#183 = FILL_AREA_STYLE_COLOUR ( '', #8 ) ;
#184 = FILL_AREA_STYLE ('',( #238 ) ) ;
#185 = MECHANICAL_DESIGN_GEOMETRIC_PRESENTATION_REPRESENTATION (  '', ( #189 ), #134 ) ;
#186 = DIRECTION ( 'NONE',  ( 0.000000000000000000, -0.000000000000000000, 1.000000000000000000 ) ) ;
#187 = SURFACE_SIDE_STYLE ('',( #194 ) ) ;
#188 =( LENGTH_UNIT ( ) NAMED_UNIT ( * ) SI_UNIT ( $, .METRE. ) );
#189 = STYLED_ITEM ( 'NONE', ( #70 ), #181 ) ;
#190 = PRESENTATION_LAYER_ASSIGNMENT (  '', '', ( #61 ) ) ;
#191 = ORIENTED_EDGE ( 'NONE', *, *, #304, .T. ) ;
#192 = CARTESIAN_POINT ( 'NONE',  ( 0.000000000000000000, 0.2500000000000000000, 0.000000000000000000 ) ) ;
#193 = SURFACE_STYLE_FILL_AREA ( #3 ) ;
#194 = SURFACE_STYLE_FILL_AREA ( #284 ) ;
#195 = ORIENTED_EDGE ( 'NONE', *, *, #111, .F. ) ;
#196 = MECHANICAL_DESIGN_GEOMETRIC_PRESENTATION_REPRESENTATION (  '', ( #219 ), #240 ) ;
#197 = PRESENTATION_LAYER_ASSIGNMENT (  '', '', ( #165 ) ) ;
#198 = PRODUCT_CONTEXT ( 'NONE', #225, 'mechanical' ) ;
#199 =( NAMED_UNIT ( * ) SI_UNIT ( $, .STERADIAN. ) SOLID_ANGLE_UNIT ( ) );
#200 = PRESENTATION_STYLE_ASSIGNMENT (( #84 ) ) ;
#201 = VERTEX_POINT ( 'NONE', #289 ) ;
#202 = AXIS2_PLACEMENT_3D ( 'NONE', #162, #348, #35 ) ;
#203 = PRODUCT_DEFINITION_FORMATION_WITH_SPECIFIED_SOURCE ( 'ANY', '', #140, .NOT_KNOWN. ) ;
#204 = DIRECTION ( 'NONE',  ( 0.000000000000000000, 0.000000000000000000, -1.000000000000000000 ) ) ;
#205 = ORIENTED_EDGE ( 'NONE', *, *, #346, .T. ) ;
#206 =( CONVERSION_BASED_UNIT ( 'INCH', #245 ) LENGTH_UNIT ( ) NAMED_UNIT ( #118 ) );
#207 =( NAMED_UNIT ( * ) SI_UNIT ( $, .STERADIAN. ) SOLID_ANGLE_UNIT ( ) );
#208 = CARTESIAN_POINT ( 'NONE',  ( 0.000000000000000000, 1.250000000000000000, -0.2499999999999998335 ) ) ;
#209 = STYLED_ITEM ( 'NONE', ( #200 ), #212 ) ;
#210 = COLOUR_RGB ( '',0.7921568627450980005, 0.8196078431372548767, 0.9333333333333333481 ) ;
#211 = PLANE ( 'NONE',  #83 ) ;
#212 = ADVANCED_FACE ( 'NONE', ( #7 ), #264, .T. ) ;
#213 = SURFACE_STYLE_USAGE ( .BOTH. , #148 ) ;
#214 = ADVANCED_FACE ( 'NONE', ( #355 ), #327, .T. ) ;
#215 = UNCERTAINTY_MEASURE_WITH_UNIT (LENGTH_MEASURE( 1.000000000000000082E-05 ), #206, 'distance_accuracy_value', 'NONE');
#216 = DIRECTION ( 'NONE',  ( -0.000000000000000000, -1.000000000000000000, -0.000000000000000000 ) ) ;
#217 = FACE_OUTER_BOUND ( 'NONE', #222, .T. ) ;
#218 =( NAMED_UNIT ( * ) SI_UNIT ( $, .STERADIAN. ) SOLID_ANGLE_UNIT ( ) );
#219 = STYLED_ITEM ( 'NONE', ( #174 ), #237 ) ;
#220 = COLOUR_RGB ( '',1.000000000000000000, 0.000000000000000000, 0.000000000000000000 ) ;
#221 = EDGE_CURVE ( 'NONE', #201, #280, #316, .T. ) ;
#222 = EDGE_LOOP ( 'NONE', ( #63, #117, #65, #27 ) ) ;
#223 = CARTESIAN_POINT ( 'NONE',  ( 0.000000000000000000, 0.2500000000000000000, 0.000000000000000000 ) ) ;
#224 = CYLINDRICAL_SURFACE ( 'NONE', #274, 0.2499999999999999167 ) ;
#225 = APPLICATION_CONTEXT ( 'automotive_design' ) ;
#226 = EDGE_CURVE ( 'NONE', #119, #332, #21, .T. ) ;
#227 = SURFACE_STYLE_FILL_AREA ( #62 ) ;
#228 = FILL_AREA_STYLE ('',( #170 ) ) ;
#229 = ORIENTED_EDGE ( 'NONE', *, *, #346, .F. ) ;
#230 = ADVANCED_FACE ( 'NONE', ( #352 ), #64, .T. ) ;
#231 = DIRECTION ( 'NONE',  ( 0.000000000000000000, 0.000000000000000000, -1.000000000000000000 ) ) ;
#232 = ORIENTED_EDGE ( 'NONE', *, *, #221, .F. ) ;
#233 = AXIS2_PLACEMENT_3D ( 'NONE', #152, #16, #124 ) ;
#234 = SURFACE_SIDE_STYLE ('',( #273 ) ) ;
#235 = DIRECTION ( 'NONE',  ( -0.000000000000000000, -1.000000000000000000, -0.000000000000000000 ) ) ;
#236 = DIRECTION ( 'NONE',  ( -1.574545884618025728E-16, 1.000000000000000000, 0.000000000000000000 ) ) ;
#237 = ADVANCED_FACE ( 'NONE', ( #57 ), #224, .T. ) ;
#238 = FILL_AREA_STYLE_COLOUR ( '', #220 ) ;
#239 = DIRECTION ( 'NONE',  ( -1.574545884618025728E-16, 1.000000000000000000, -0.000000000000000000 ) ) ;
#240 =( GEOMETRIC_REPRESENTATION_CONTEXT ( 3 ) GLOBAL_UNCERTAINTY_ASSIGNED_CONTEXT ( ( #291 ) ) GLOBAL_UNIT_ASSIGNED_CONTEXT ( ( #91, #298, #207 ) ) REPRESENTATION_CONTEXT ( 'NONE', 'WORKASPACE' ) );
#241 =( NAMED_UNIT ( * ) SI_UNIT ( $, .STERADIAN. ) SOLID_ANGLE_UNIT ( ) );
#242 = DIRECTION ( 'NONE',  ( -1.574545884618025728E-16, 1.000000000000000000, -0.000000000000000000 ) ) ;
#243 = ADVANCED_BREP_SHAPE_REPRESENTATION ( '56527', ( #181, #319, #17 ), #331 ) ;
#244 = CARTESIAN_POINT ( 'NONE',  ( 0.000000000000000000, 0.000000000000000000, -0.2499999999999999167 ) ) ;
#245 = LENGTH_MEASURE_WITH_UNIT ( LENGTH_MEASURE( 0.02539999999999999897 ), #5 );
#246 =( GEOMETRIC_REPRESENTATION_CONTEXT ( 3 ) GLOBAL_UNCERTAINTY_ASSIGNED_CONTEXT ( ( #311 ) ) GLOBAL_UNIT_ASSIGNED_CONTEXT ( ( #102, #81, #218 ) ) REPRESENTATION_CONTEXT ( 'NONE', 'WORKASPACE' ) );
#247 = DIRECTION ( 'NONE',  ( -0.000000000000000000, -1.000000000000000000, -0.000000000000000000 ) ) ;
#248 = APPLICATION_CONTEXT ( 'automotive_design' ) ;
#249 = PRESENTATION_STYLE_ASSIGNMENT (( #50 ) ) ;
#250 =( NAMED_UNIT ( * ) PLANE_ANGLE_UNIT ( ) SI_UNIT ( $, .RADIAN. ) );
#251 = ORIENTED_EDGE ( 'NONE', *, *, #314, .T. ) ;
#252 = FACE_OUTER_BOUND ( 'NONE', #171, .T. ) ;
#253 = AXIS2_PLACEMENT_3D ( 'NONE', #67, #125, #367 ) ;
#254 = CIRCLE ( 'NONE', #369, 0.2500000000000000000 ) ;
#255 = PRODUCT_DEFINITION_SHAPE ( 'NONE', 'NONE',  #144 ) ;
#256 = ORIENTED_EDGE ( 'NONE', *, *, #42, .T. ) ;
#257 = DIRECTION ( 'NONE',  ( 1.000000000000000000, 0.000000000000000000, 0.000000000000000000 ) ) ;
#258 = PRESENTATION_LAYER_ASSIGNMENT (  '', '', ( #160 ) ) ;
#259 = MECHANICAL_DESIGN_GEOMETRIC_PRESENTATION_REPRESENTATION (  '', ( #61 ), #147 ) ;
#260 = DIMENSIONAL_EXPONENTS ( 1.000000000000000000, 0.000000000000000000, 0.000000000000000000, 0.000000000000000000, 0.000000000000000000, 0.000000000000000000, 0.000000000000000000 ) ;
#261 =( CONVERSION_BASED_UNIT ( 'INCH', #115 ) LENGTH_UNIT ( ) NAMED_UNIT ( #324 ) );
#262 = ORIENTED_EDGE ( 'NONE', *, *, #278, .T. ) ;
#263 = ORIENTED_EDGE ( 'NONE', *, *, #278, .F. ) ;
#264 = SPHERICAL_SURFACE ( 'NONE', #172, 0.2500000000000000000 ) ;
#265 = ORIENTED_EDGE ( 'NONE', *, *, #169, .F. ) ;
#266 = VECTOR ( 'NONE', #239, 39.37007874015748143 ) ;
#267 = MECHANICAL_DESIGN_GEOMETRIC_PRESENTATION_REPRESENTATION (  '', ( #165 ), #246 ) ;
#268 = CARTESIAN_POINT ( 'NONE',  ( 3.061616997868382402E-17, 0.000000000000000000, 0.2499999999999999167 ) ) ;
#269 = DIRECTION ( 'NONE',  ( 1.574545884618025728E-16, -1.000000000000000000, 0.000000000000000000 ) ) ;
#270 = CARTESIAN_POINT ( 'NONE',  ( 0.000000000000000000, 0.2500000000000000000, 0.000000000000000000 ) ) ;
#271 = CARTESIAN_POINT ( 'NONE',  ( 2.143131898507868297E-16, 1.250000000000000000, 0.000000000000000000 ) ) ;
#272 = DIRECTION ( 'NONE',  ( -1.574545884618025728E-16, 1.000000000000000000, -0.000000000000000000 ) ) ;
#273 = SURFACE_STYLE_FILL_AREA ( #20 ) ;
#274 = AXIS2_PLACEMENT_3D ( 'NONE', #18, #235, #150 ) ;
#275 = AXIS2_PLACEMENT_3D ( 'NONE', #270, #247, #105 ) ;
#276 =( CONVERSION_BASED_UNIT ( 'INCH', #339 ) LENGTH_UNIT ( ) NAMED_UNIT ( #163 ) );
#277 = CARTESIAN_POINT ( 'NONE',  ( 2.143131898507868297E-16, 1.250000000000000000, 0.000000000000000000 ) ) ;
#278 = EDGE_CURVE ( 'NONE', #109, #201, #99, .T. ) ;
#279 = LENGTH_MEASURE_WITH_UNIT ( LENGTH_MEASURE( 0.02539999999999999897 ), #77 );
#280 = VERTEX_POINT ( 'NONE', #155 ) ;
#281 = COLOUR_RGB ( '',1.000000000000000000, 0.000000000000000000, 0.000000000000000000 ) ;
#282 = VECTOR ( 'NONE', #303, 39.37007874015748143 ) ;
#283 = SURFACE_STYLE_USAGE ( .BOTH. , #82 ) ;
#284 = FILL_AREA_STYLE ('',( #22 ) ) ;
#285 = COLOUR_RGB ( '',1.000000000000000000, 0.000000000000000000, 0.000000000000000000 ) ;
#286 = CIRCLE ( 'NONE', #104, 0.2499999999999999722 ) ;
#287 = EDGE_CURVE ( 'NONE', #158, #323, #335, .T. ) ;
#288 = DIMENSIONAL_EXPONENTS ( 1.000000000000000000, 0.000000000000000000, 0.000000000000000000, 0.000000000000000000, 0.000000000000000000, 0.000000000000000000, 0.000000000000000000 ) ;
#289 = CARTESIAN_POINT ( 'NONE',  ( 3.061616997868383018E-17, 0.2500000000000000000, 0.2500000000000000000 ) ) ;
#290 = SURFACE_STYLE_USAGE ( .BOTH. , #167 ) ;
#291 = UNCERTAINTY_MEASURE_WITH_UNIT (LENGTH_MEASURE( 1.000000000000000082E-05 ), #91, 'distance_accuracy_value', 'NONE');
#292 = DIRECTION ( 'NONE',  ( -1.000000000000000000, 0.000000000000000000, 0.000000000000000000 ) ) ;
#293 = ORIENTED_EDGE ( 'NONE', *, *, #287, .F. ) ;
#294 = ADVANCED_FACE ( 'NONE', ( #364 ), #211, .T. ) ;
#295 = ORIENTED_EDGE ( 'NONE', *, *, #314, .F. ) ;
#296 = FILL_AREA_STYLE_COLOUR ( '', #281 ) ;
#297 = EDGE_LOOP ( 'NONE', ( #37, #54, #295, #317 ) ) ;
#298 =( NAMED_UNIT ( * ) PLANE_ANGLE_UNIT ( ) SI_UNIT ( $, .RADIAN. ) );
#299 =( NAMED_UNIT ( * ) SI_UNIT ( $, .STERADIAN. ) SOLID_ANGLE_UNIT ( ) );
#300 =( GEOMETRIC_REPRESENTATION_CONTEXT ( 3 ) GLOBAL_UNCERTAINTY_ASSIGNED_CONTEXT ( ( #76 ) ) GLOBAL_UNIT_ASSIGNED_CONTEXT ( ( #261, #356, #199 ) ) REPRESENTATION_CONTEXT ( 'NONE', 'WORKASPACE' ) );
#301 = UNCERTAINTY_MEASURE_WITH_UNIT (LENGTH_MEASURE( 1.000000000000000082E-05 ), #345, 'distance_accuracy_value', 'NONE');
#302 = PLANE ( 'NONE',  #46 ) ;
#303 = DIRECTION ( 'NONE',  ( -0.000000000000000000, -1.000000000000000000, -0.000000000000000000 ) ) ;
#304 = EDGE_CURVE ( 'NONE', #90, #145, #179, .T. ) ;
#305 = UNCERTAINTY_MEASURE_WITH_UNIT (LENGTH_MEASURE( 1.000000000000000082E-05 ), #41, 'distance_accuracy_value', 'NONE');
#306 = CARTESIAN_POINT ( 'NONE',  ( 0.2499999999999997224, 3.000000000000000444, 3.061616997868380553E-17 ) ) ;
#307 =( NAMED_UNIT ( * ) PLANE_ANGLE_UNIT ( ) SI_UNIT ( $, .RADIAN. ) );
#308 = CIRCLE ( 'NONE', #253, 0.2499999999999999722 ) ;
#309 = CARTESIAN_POINT ( 'NONE',  ( -6.123233995736770966E-17, 3.000000000000000444, 0.000000000000000000 ) ) ;
#310 = PLANE ( 'NONE',  #38 ) ;
#311 = UNCERTAINTY_MEASURE_WITH_UNIT (LENGTH_MEASURE( 1.000000000000000082E-05 ), #102, 'distance_accuracy_value', 'NONE');
#312 = DIRECTION ( 'NONE',  ( -1.000000000000000000, 0.000000000000000000, 0.000000000000000000 ) ) ;
#313 = ORIENTED_EDGE ( 'NONE', *, *, #304, .F. ) ;
#314 = EDGE_CURVE ( 'NONE', #53, #323, #286, .T. ) ;
#315 = EDGE_LOOP ( 'NONE', ( #195, #229 ) ) ;
#316 = CIRCLE ( 'NONE', #353, 0.2500000000000000000 ) ;
#317 = ORIENTED_EDGE ( 'NONE', *, *, #129, .F. ) ;
#318 = CARTESIAN_POINT ( 'NONE',  ( 2.143131898507868297E-16, 1.250000000000000000, 0.000000000000000000 ) ) ;
#319 = MANIFOLD_SOLID_BREP ( 'Revolve - Tool Body (Straight Shanked)', #337 ) ;
#320 = DIMENSIONAL_EXPONENTS ( 1.000000000000000000, 0.000000000000000000, 0.000000000000000000, 0.000000000000000000, 0.000000000000000000, 0.000000000000000000, 0.000000000000000000 ) ;
#321 = PRESENTATION_STYLE_ASSIGNMENT (( #283 ) ) ;
#322 = CARTESIAN_POINT ( 'NONE',  ( 0.000000000000000000, 1.250000000000000000, 0.000000000000000000 ) ) ;
#323 = VERTEX_POINT ( 'NONE', #110 ) ;
#324 = DIMENSIONAL_EXPONENTS ( 1.000000000000000000, 0.000000000000000000, 0.000000000000000000, 0.000000000000000000, 0.000000000000000000, 0.000000000000000000, 0.000000000000000000 ) ;
#325 = PRESENTATION_LAYER_ASSIGNMENT (  '', '', ( #189 ) ) ;
#326 = PRESENTATION_LAYER_ASSIGNMENT (  '', '', ( #52 ) ) ;
#327 = CYLINDRICAL_SURFACE ( 'NONE', #68, 0.2499999999999998057 ) ;
#328 = DIRECTION ( 'NONE',  ( -1.000000000000000000, 0.000000000000000000, 0.000000000000000000 ) ) ;
#329 = DIRECTION ( 'NONE',  ( -1.000000000000000000, 0.000000000000000000, 0.000000000000000000 ) ) ;
#330 = ORIENTED_EDGE ( 'NONE', *, *, #373, .F. ) ;
#331 =( GEOMETRIC_REPRESENTATION_CONTEXT ( 3 ) GLOBAL_UNCERTAINTY_ASSIGNED_CONTEXT ( ( #354 ) ) GLOBAL_UNIT_ASSIGNED_CONTEXT ( ( #372, #250, #9 ) ) REPRESENTATION_CONTEXT ( 'NONE', 'WORKASPACE' ) );
#332 = VERTEX_POINT ( 'NONE', #351 ) ;
#333 = CARTESIAN_POINT ( 'NONE',  ( 0.000000000000000000, 1.250000000000000000, 0.000000000000000000 ) ) ;
#334 = DIRECTION ( 'NONE',  ( -0.000000000000000000, -1.000000000000000000, -0.000000000000000000 ) ) ;
#335 = LINE ( 'NONE', #306, #108 ) ;
#336 = CARTESIAN_POINT ( 'NONE',  ( 0.2500000000000000000, 0.2500000000000000000, 0.000000000000000000 ) ) ;
#337 = CLOSED_SHELL ( 'NONE', ( #214, #49, #230, #157 ) ) ;
#338 = AXIS2_PLACEMENT_3D ( 'NONE', #322, #159, #135 ) ;
#339 = LENGTH_MEASURE_WITH_UNIT ( LENGTH_MEASURE( 0.02539999999999999897 ), #44 );
#340 = EDGE_CURVE ( 'NONE', #280, #145, #173, .T. ) ;
#341 = SURFACE_STYLE_FILL_AREA ( #66 ) ;
#342 = CARTESIAN_POINT ( 'NONE',  ( -0.2500000000000000555, 3.000000000000000444, 0.000000000000000000 ) ) ;
#343 = MECHANICAL_DESIGN_GEOMETRIC_PRESENTATION_REPRESENTATION (  '', ( #52 ), #47 ) ;
#344 = DIRECTION ( 'NONE',  ( -0.000000000000000000, -1.000000000000000000, -0.000000000000000000 ) ) ;
#345 =( CONVERSION_BASED_UNIT ( 'INCH', #4 ) LENGTH_UNIT ( ) NAMED_UNIT ( #320 ) );
#346 = EDGE_CURVE ( 'NONE', #109, #90, #88, .T. ) ;
#347 = DIRECTION ( 'NONE',  ( 0.000000000000000000, 0.000000000000000000, -1.000000000000000000 ) ) ;
#348 = DIRECTION ( 'NONE',  ( -0.000000000000000000, -1.000000000000000000, -0.000000000000000000 ) ) ;
#349 = PRESENTATION_LAYER_ASSIGNMENT (  '', '', ( #209 ) ) ;
#350 = ORIENTED_EDGE ( 'NONE', *, *, #226, .T. ) ;
#351 = CARTESIAN_POINT ( 'NONE',  ( -1.530808498934191509E-17, 0.000000000000000000, 0.000000000000000000 ) ) ;
#352 = FACE_OUTER_BOUND ( 'NONE', #80, .T. ) ;
#353 = AXIS2_PLACEMENT_3D ( 'NONE', #223, #86, #204 ) ;
#354 = UNCERTAINTY_MEASURE_WITH_UNIT (LENGTH_MEASURE( 1.000000000000000082E-05 ), #372, 'distance_accuracy_value', 'NONE');
#355 = FACE_OUTER_BOUND ( 'NONE', #297, .T. ) ;
#356 =( NAMED_UNIT ( * ) PLANE_ANGLE_UNIT ( ) SI_UNIT ( $, .RADIAN. ) );
#357 = ADVANCED_FACE ( 'NONE', ( #252 ), #26, .T. ) ;
#358 = APPLICATION_PROTOCOL_DEFINITION ( 'draft international standard', 'automotive_design', 1998, #248 ) ;
#359 =( NAMED_UNIT ( * ) SI_UNIT ( $, .STERADIAN. ) SOLID_ANGLE_UNIT ( ) );
#360 = CIRCLE ( 'NONE', #233, 0.2500000000000000000 ) ;
#361 = ORIENTED_EDGE ( 'NONE', *, *, #340, .F. ) ;
#362 = EDGE_CURVE ( 'NONE', #10, #158, #97, .T. ) ;
#363 = CARTESIAN_POINT ( 'NONE',  ( 0.2499999999999998890, 3.000000000000000444, 0.000000000000000000 ) ) ;
#364 = FACE_OUTER_BOUND ( 'NONE', #315, .T. ) ;
#365 = CARTESIAN_POINT ( 'NONE',  ( 3.061616997868381785E-17, 1.250000000000000000, 0.2499999999999998335 ) ) ;
#366 = PRESENTATION_STYLE_ASSIGNMENT (( #213 ) ) ;
#367 = DIRECTION ( 'NONE',  ( -1.000000000000000000, 0.000000000000000000, 0.000000000000000000 ) ) ;
#368 = AXIS2_PLACEMENT_3D ( 'NONE', #168, #177, #329 ) ;
#369 = AXIS2_PLACEMENT_3D ( 'NONE', #192, #344, #28 ) ;
#370 = FACE_OUTER_BOUND ( 'NONE', #106, .T. ) ;
#371 = DIRECTION ( 'NONE',  ( -1.000000000000000000, -1.574545884618025728E-16, 0.000000000000000000 ) ) ;
#372 =( CONVERSION_BASED_UNIT ( 'INCH', #132 ) LENGTH_UNIT ( ) NAMED_UNIT ( #260 ) );
#373 = EDGE_CURVE ( 'NONE', #145, #119, #254, .T. ) ;
ENDSEC;
END-ISO-10303-21;
