ISO-10303-21;
HEADER;
FILE_DESCRIPTION (( 'STEP AP214' ),
    '1' );
FILE_NAME ('Micro_RNC-187-23.STEP',
    '2021-09-03T17:34:30',
    ( '' ),
    ( '' ),
    'SwSTEP 2.0',
    'SolidWorks 2020',
    '' );
FILE_SCHEMA (( 'AUTOMOTIVE_DESIGN' ));
ENDSEC;

DATA;
#1 = CIRCLE ( 'NONE', #188, 0.004000000000000000083 ) ;
#2 = CARTESIAN_POINT ( 'NONE',  ( 0.004000000000000000083, 0.0000000000000000000, 3.000000000000000444 ) ) ;
#3 = CARTESIAN_POINT ( 'NONE',  ( 0.0000000000000000000, 0.0000000000000000000, 0.0000000000000000000 ) ) ;
#4 = CARTESIAN_POINT ( 'NONE',  ( 0.0000000000000000000, 0.0000000000000000000, 3.000000000000000444 ) ) ;
#5 = ADVANCED_FACE ( 'NONE', ( #186 ), #168, .T. ) ;
#6 = AXIS2_PLACEMENT_3D ( 'NONE', #37, #245, #208 ) ;
#7 = DIRECTION ( 'NONE',  ( 0.0000000000000000000, 0.0000000000000000000, 1.000000000000000000 ) ) ;
#8 = CARTESIAN_POINT ( 'NONE',  ( 0.0000000000000000000, 0.0000000000000000000, 0.08974999999999963562 ) ) ;
#9 = EDGE_CURVE ( 'NONE', #96, #56, #241, .T. ) ;
#10 = DIRECTION ( 'NONE',  ( -1.000000000000000000, 0.0000000000000000000, 0.0000000000000000000 ) ) ;
#11 = DIRECTION ( 'NONE',  ( -0.7071067811865490160, 8.659560562354951347E-17, 0.7071067811865460184 ) ) ;
#12 = ORIENTED_EDGE ( 'NONE', *, *, #202, .F. ) ;
#13 = EDGE_CURVE ( 'NONE', #56, #72, #153, .T. ) ;
#14 = CARTESIAN_POINT ( 'NONE',  ( 0.0000000000000000000, 0.0000000000000000000, 0.0000000000000000000 ) ) ;
#15 =( GEOMETRIC_REPRESENTATION_CONTEXT ( 3 ) GLOBAL_UNCERTAINTY_ASSIGNED_CONTEXT ( ( #89 ) ) GLOBAL_UNIT_ASSIGNED_CONTEXT ( ( #222, #130, #68 ) ) REPRESENTATION_CONTEXT ( 'NONE', 'WORKASPACE' ) );
#16 = ORIENTED_EDGE ( 'NONE', *, *, #227, .F. ) ;
#17 = EDGE_CURVE ( 'NONE', #82, #38, #201, .T. ) ;
#18 = DIRECTION ( 'NONE',  ( 0.0000000000000000000, 0.0000000000000000000, -1.000000000000000000 ) ) ;
#19 = ORIENTED_EDGE ( 'NONE', *, *, #100, .T. ) ;
#20 = FACE_OUTER_BOUND ( 'NONE', #207, .T. ) ;
#21 = AXIS2_PLACEMENT_3D ( 'NONE', #123, #105, #176 ) ;
#22 = CARTESIAN_POINT ( 'NONE',  ( 0.09375000000000001388, 1.148106374200643401E-17, 2.910250000000000448 ) ) ;
#23 = STYLED_ITEM ( 'NONE', ( #88 ), #47 ) ;
#24 = FACE_OUTER_BOUND ( 'NONE', #247, .T. ) ;
#25 = DIRECTION ( 'NONE',  ( -1.000000000000000000, 0.0000000000000000000, 0.0000000000000000000 ) ) ;
#26 = APPLICATION_CONTEXT ( 'automotive_design' ) ;
#27 =( CONVERSION_BASED_UNIT ( 'INCH', #182 ) LENGTH_UNIT ( ) NAMED_UNIT ( #232 ) );
#28 = SURFACE_STYLE_FILL_AREA ( #90 ) ;
#29 = EDGE_LOOP ( 'NONE', ( #53, #135, #114, #19 ) ) ;
#30 = MANIFOLD_SOLID_BREP ( 'Mirror1', #67 ) ;
#31 = DIRECTION ( 'NONE',  ( -1.000000000000000000, 0.0000000000000000000, 0.0000000000000000000 ) ) ;
#32 = ORIENTED_EDGE ( 'NONE', *, *, #41, .F. ) ;
#33 = CARTESIAN_POINT ( 'NONE',  ( -0.004000000000000000083, 4.898587196589413537E-19, 0.0000000000000000000 ) ) ;
#34 =( GEOMETRIC_REPRESENTATION_CONTEXT ( 3 ) GLOBAL_UNCERTAINTY_ASSIGNED_CONTEXT ( ( #149 ) ) GLOBAL_UNIT_ASSIGNED_CONTEXT ( ( #128, #223, #179 ) ) REPRESENTATION_CONTEXT ( 'NONE', 'WORKASPACE' ) );
#35 = DIRECTION ( 'NONE',  ( 0.0000000000000000000, 0.0000000000000000000, -1.000000000000000000 ) ) ;
#36 = ORIENTED_EDGE ( 'NONE', *, *, #116, .F. ) ;
#37 = CARTESIAN_POINT ( 'NONE',  ( 0.0000000000000000000, 0.0000000000000000000, 2.910250000000000448 ) ) ;
#38 = VERTEX_POINT ( 'NONE', #204 ) ;
#39 = SURFACE_STYLE_USAGE ( .BOTH. , #150 ) ;
#40 = COLOUR_RGB ( '',0.7921568627450980005, 0.8196078431372548767, 0.9333333333333333481 ) ;
#41 = EDGE_CURVE ( 'NONE', #109, #211, #1, .T. ) ;
#42 = DIRECTION ( 'NONE',  ( 1.000000000000000000, 0.0000000000000000000, 0.0000000000000000000 ) ) ;
#43 = EDGE_CURVE ( 'NONE', #38, #72, #127, .T. ) ;
#44 = ADVANCED_FACE ( 'NONE', ( #24 ), #126, .T. ) ;
#45 = DIRECTION ( 'NONE',  ( -0.0000000000000000000, -0.0000000000000000000, -1.000000000000000000 ) ) ;
#46 = CARTESIAN_POINT ( 'NONE',  ( 0.0000000000000000000, 0.0000000000000000000, 3.000000000000000444 ) ) ;
#47 = ADVANCED_BREP_SHAPE_REPRESENTATION ( 'Micro_RNC-187-23', ( #30, #184 ), #34 ) ;
#48 = PLANE ( 'NONE',  #21 ) ;
#49 = CARTESIAN_POINT ( 'NONE',  ( 0.0000000000000000000, 0.0000000000000000000, 0.0000000000000000000 ) ) ;
#50 =( LENGTH_UNIT ( ) NAMED_UNIT ( * ) SI_UNIT ( $, .METRE. ) );
#51 = MECHANICAL_DESIGN_GEOMETRIC_PRESENTATION_REPRESENTATION (  '', ( #65 ), #15 ) ;
#52 = CIRCLE ( 'NONE', #190, 0.004000000000000000083 ) ;
#53 = ORIENTED_EDGE ( 'NONE', *, *, #13, .F. ) ;
#54 = UNCERTAINTY_MEASURE_WITH_UNIT (LENGTH_MEASURE( 1.000000000000000082E-05 ), #27, 'distance_accuracy_value', 'NONE');
#55 = AXIS2_PLACEMENT_3D ( 'NONE', #206, #70, #183 ) ;
#56 = VERTEX_POINT ( 'NONE', #106 ) ;
#57 = DIRECTION ( 'NONE',  ( -1.000000000000000000, 0.0000000000000000000, 0.0000000000000000000 ) ) ;
#58 = CARTESIAN_POINT ( 'NONE',  ( -0.09375000000000001388, 0.0000000000000000000, 3.000000000000000444 ) ) ;
#59 = COLOUR_RGB ( '',0.7921568627450980005, 0.8196078431372548767, 0.9333333333333333481 ) ;
#60 = ORIENTED_EDGE ( 'NONE', *, *, #243, .T. ) ;
#61 = DIRECTION ( 'NONE',  ( -1.000000000000000000, 0.0000000000000000000, 0.0000000000000000000 ) ) ;
#62 = FACE_OUTER_BOUND ( 'NONE', #117, .T. ) ;
#63 = ADVANCED_FACE ( 'NONE', ( #214 ), #48, .F. ) ;
#64 = FACE_OUTER_BOUND ( 'NONE', #29, .T. ) ;
#65 = STYLED_ITEM ( 'NONE', ( #120 ), #30 ) ;
#66 = CARTESIAN_POINT ( 'NONE',  ( -0.09375000000000001388, 0.0000000000000000000, 0.08974999999999963562 ) ) ;
#67 = CLOSED_SHELL ( 'NONE', ( #98, #101, #85, #44, #187, #63, #215, #5 ) ) ;
#68 =( NAMED_UNIT ( * ) SI_UNIT ( $, .STERADIAN. ) SOLID_ANGLE_UNIT ( ) );
#69 = SHAPE_DEFINITION_REPRESENTATION ( #115, #47 ) ;
#70 = DIRECTION ( 'NONE',  ( 0.0000000000000000000, 0.0000000000000000000, 1.000000000000000000 ) ) ;
#71 = ORIENTED_EDGE ( 'NONE', *, *, #43, .F. ) ;
#72 = VERTEX_POINT ( 'NONE', #66 ) ;
#73 = EDGE_LOOP ( 'NONE', ( #244, #91 ) ) ;
#74 = ORIENTED_EDGE ( 'NONE', *, *, #41, .T. ) ;
#75 = CARTESIAN_POINT ( 'NONE',  ( 0.0000000000000000000, 0.0000000000000000000, 0.0000000000000000000 ) ) ;
#76 = FACE_OUTER_BOUND ( 'NONE', #213, .T. ) ;
#77 = VECTOR ( 'NONE', #11, 39.37007874015748143 ) ;
#78 = CIRCLE ( 'NONE', #212, 0.09375000000000001388 ) ;
#79 = CARTESIAN_POINT ( 'NONE',  ( 0.0000000000000000000, 0.0000000000000000000, 3.000000000000000444 ) ) ;
#80 = EDGE_CURVE ( 'NONE', #109, #38, #173, .T. ) ;
#81 = CARTESIAN_POINT ( 'NONE',  ( 0.09375000000000001388, 1.148106374200643401E-17, 0.08974999999999963562 ) ) ;
#82 = VERTEX_POINT ( 'NONE', #22 ) ;
#83 = DIRECTION ( 'NONE',  ( -0.0000000000000000000, -0.0000000000000000000, -1.000000000000000000 ) ) ;
#84 = APPLICATION_CONTEXT ( 'automotive_design' ) ;
#85 = ADVANCED_FACE ( 'NONE', ( #217 ), #178, .T. ) ;
#86 = VECTOR ( 'NONE', #198, 39.37007874015748143 ) ;
#87 =( NAMED_UNIT ( * ) SI_UNIT ( $, .STERADIAN. ) SOLID_ANGLE_UNIT ( ) );
#88 = PRESENTATION_STYLE_ASSIGNMENT (( #108 ) ) ;
#89 = UNCERTAINTY_MEASURE_WITH_UNIT (LENGTH_MEASURE( 1.000000000000000082E-05 ), #222, 'distance_accuracy_value', 'NONE');
#90 = FILL_AREA_STYLE ('',( #203 ) ) ;
#91 = ORIENTED_EDGE ( 'NONE', *, *, #189, .T. ) ;
#92 = ORIENTED_EDGE ( 'NONE', *, *, #219, .F. ) ;
#93 = ORIENTED_EDGE ( 'NONE', *, *, #189, .F. ) ;
#94 = VECTOR ( 'NONE', #199, 39.37007874015748143 ) ;
#95 = ORIENTED_EDGE ( 'NONE', *, *, #13, .T. ) ;
#96 = VERTEX_POINT ( 'NONE', #233 ) ;
#97 = DIRECTION ( 'NONE',  ( -0.0000000000000000000, -0.0000000000000000000, -1.000000000000000000 ) ) ;
#98 = ADVANCED_FACE ( 'NONE', ( #20 ), #118, .T. ) ;
#99 = CONICAL_SURFACE ( 'NONE', #167, 0.004000000000000000083, 0.7853981633974503884 ) ;
#100 = EDGE_CURVE ( 'NONE', #166, #72, #209, .T. ) ;
#101 = ADVANCED_FACE ( 'NONE', ( #62 ), #99, .T. ) ;
#102 = EDGE_LOOP ( 'NONE', ( #16, #32 ) ) ;
#103 = DIRECTION ( 'NONE',  ( 1.000000000000000000, 0.0000000000000000000, 0.0000000000000000000 ) ) ;
#104 = AXIS2_PLACEMENT_3D ( 'NONE', #141, #230, #216 ) ;
#105 = DIRECTION ( 'NONE',  ( 0.0000000000000000000, 0.0000000000000000000, 1.000000000000000000 ) ) ;
#106 = CARTESIAN_POINT ( 'NONE',  ( -0.004000000000000000083, 5.985461230832689413E-18, 0.0000000000000000000 ) ) ;
#107 = DIRECTION ( 'NONE',  ( -0.0000000000000000000, -0.0000000000000000000, -1.000000000000000000 ) ) ;
#108 = SURFACE_STYLE_USAGE ( .BOTH. , #145 ) ;
#109 = VERTEX_POINT ( 'NONE', #155 ) ;
#110 = AXIS2_PLACEMENT_3D ( 'NONE', #14, #132, #57 ) ;
#111 = CONICAL_SURFACE ( 'NONE', #104, 0.004000000000000000083, 0.7853981633974503884 ) ;
#112 = ORIENTED_EDGE ( 'NONE', *, *, #243, .F. ) ;
#113 = EDGE_LOOP ( 'NONE', ( #185, #163, #112, #71 ) ) ;
#114 = ORIENTED_EDGE ( 'NONE', *, *, #202, .T. ) ;
#115 = PRODUCT_DEFINITION_SHAPE ( 'NONE', 'NONE',  #148 ) ;
#116 = EDGE_CURVE ( 'NONE', #82, #166, #231, .T. ) ;
#117 = EDGE_LOOP ( 'NONE', ( #93, #95, #60, #12 ) ) ;
#118 = CONICAL_SURFACE ( 'NONE', #174, 0.004000000000000000083, 0.7853981633974503884 ) ;
#119 = MECHANICAL_DESIGN_GEOMETRIC_PRESENTATION_REPRESENTATION (  '', ( #23 ), #171 ) ;
#120 = PRESENTATION_STYLE_ASSIGNMENT (( #39 ) ) ;
#121 = LINE ( 'NONE', #210, #175 ) ;
#122 = AXIS2_PLACEMENT_3D ( 'NONE', #4, #83, #156 ) ;
#123 = CARTESIAN_POINT ( 'NONE',  ( 0.0000000000000000000, 0.0000000000000000000, 0.0000000000000000000 ) ) ;
#124 = ORIENTED_EDGE ( 'NONE', *, *, #229, .F. ) ;
#125 = DIRECTION ( 'NONE',  ( 0.0000000000000000000, 0.0000000000000000000, -1.000000000000000000 ) ) ;
#126 = CYLINDRICAL_SURFACE ( 'NONE', #122, 0.09375000000000001388 ) ;
#127 = LINE ( 'NONE', #58, #220 ) ;
#128 =( CONVERSION_BASED_UNIT ( 'INCH', #200 ) LENGTH_UNIT ( ) NAMED_UNIT ( #160 ) );
#129 = APPLICATION_PROTOCOL_DEFINITION ( 'draft international standard', 'automotive_design', 1998, #84 ) ;
#130 =( NAMED_UNIT ( * ) PLANE_ANGLE_UNIT ( ) SI_UNIT ( $, .RADIAN. ) );
#131 = APPLICATION_PROTOCOL_DEFINITION ( 'draft international standard', 'automotive_design', 1998, #26 ) ;
#132 = DIRECTION ( 'NONE',  ( -0.0000000000000000000, -0.0000000000000000000, -1.000000000000000000 ) ) ;
#133 = DIRECTION ( 'NONE',  ( 1.000000000000000000, 0.0000000000000000000, 0.0000000000000000000 ) ) ;
#134 = ORIENTED_EDGE ( 'NONE', *, *, #219, .T. ) ;
#135 = ORIENTED_EDGE ( 'NONE', *, *, #9, .F. ) ;
#136 = ORIENTED_EDGE ( 'NONE', *, *, #17, .T. ) ;
#137 = SURFACE_STYLE_FILL_AREA ( #225 ) ;
#138 = AXIS2_PLACEMENT_3D ( 'NONE', #46, #125, #157 ) ;
#139 = CARTESIAN_POINT ( 'NONE',  ( 0.0000000000000000000, 0.0000000000000000000, 0.08974999999999963562 ) ) ;
#140 = AXIS2_PLACEMENT_3D ( 'NONE', #49, #246, #142 ) ;
#141 = CARTESIAN_POINT ( 'NONE',  ( 0.0000000000000000000, 0.0000000000000000000, 3.000000000000000444 ) ) ;
#142 = DIRECTION ( 'NONE',  ( 1.000000000000000000, 0.0000000000000000000, 0.0000000000000000000 ) ) ;
#143 = DIRECTION ( 'NONE',  ( 0.7071067811865490160, 0.0000000000000000000, -0.7071067811865460184 ) ) ;
#144 = DIRECTION ( 'NONE',  ( -0.0000000000000000000, -0.0000000000000000000, -1.000000000000000000 ) ) ;
#145 = SURFACE_SIDE_STYLE ('',( #28 ) ) ;
#146 = DIRECTION ( 'NONE',  ( 0.0000000000000000000, 0.0000000000000000000, -1.000000000000000000 ) ) ;
#147 = PRODUCT_CONTEXT ( 'NONE', #84, 'mechanical' ) ;
#148 = PRODUCT_DEFINITION ( 'UNKNOWN', '', #242, #181 ) ;
#149 = UNCERTAINTY_MEASURE_WITH_UNIT (LENGTH_MEASURE( 1.000000000000000082E-05 ), #128, 'distance_accuracy_value', 'NONE');
#150 = SURFACE_SIDE_STYLE ('',( #137 ) ) ;
#151 = LENGTH_MEASURE_WITH_UNIT ( LENGTH_MEASURE( 0.02539999999999999897 ), #191 );
#152 = ORIENTED_EDGE ( 'NONE', *, *, #80, .F. ) ;
#153 = LINE ( 'NONE', #33, #77 ) ;
#154 = DIRECTION ( 'NONE',  ( -1.000000000000000000, 0.0000000000000000000, 0.0000000000000000000 ) ) ;
#155 = CARTESIAN_POINT ( 'NONE',  ( -0.004000000000000000083, -5.985461230832689413E-18, 3.000000000000000444 ) ) ;
#156 = DIRECTION ( 'NONE',  ( -1.000000000000000000, 0.0000000000000000000, 0.0000000000000000000 ) ) ;
#157 = DIRECTION ( 'NONE',  ( -1.000000000000000000, 0.0000000000000000000, 0.0000000000000000000 ) ) ;
#158 = DIRECTION ( 'NONE',  ( -1.000000000000000000, 0.0000000000000000000, 0.0000000000000000000 ) ) ;
#159 = PRESENTATION_LAYER_ASSIGNMENT (  '', '', ( #65 ) ) ;
#160 = DIMENSIONAL_EXPONENTS ( 1.000000000000000000, 0.0000000000000000000, 0.0000000000000000000, 0.0000000000000000000, 0.0000000000000000000, 0.0000000000000000000, 0.0000000000000000000 ) ;
#161 = CARTESIAN_POINT ( 'NONE',  ( 0.0000000000000000000, 0.0000000000000000000, 0.0000000000000000000 ) ) ;
#162 = AXIS2_PLACEMENT_3D ( 'NONE', #79, #169, #158 ) ;
#163 = ORIENTED_EDGE ( 'NONE', *, *, #116, .T. ) ;
#164 = CARTESIAN_POINT ( 'NONE',  ( 0.0000000000000000000, 0.0000000000000000000, 2.910250000000000448 ) ) ;
#165 = ORIENTED_EDGE ( 'NONE', *, *, #100, .F. ) ;
#166 = VERTEX_POINT ( 'NONE', #81 ) ;
#167 = AXIS2_PLACEMENT_3D ( 'NONE', #3, #195, #103 ) ;
#168 = PLANE ( 'NONE',  #55 ) ;
#169 = DIRECTION ( 'NONE',  ( -0.0000000000000000000, -0.0000000000000000000, -1.000000000000000000 ) ) ;
#170 = LINE ( 'NONE', #196, #237 ) ;
#171 =( GEOMETRIC_REPRESENTATION_CONTEXT ( 3 ) GLOBAL_UNCERTAINTY_ASSIGNED_CONTEXT ( ( #54 ) ) GLOBAL_UNIT_ASSIGNED_CONTEXT ( ( #27, #234, #87 ) ) REPRESENTATION_CONTEXT ( 'NONE', 'WORKASPACE' ) );
#172 = PRODUCT ( 'Micro_RNC-187-23', 'Micro_RNC-187-23', '', ( #147 ) ) ;
#173 = LINE ( 'NONE', #248, #94 ) ;
#174 = AXIS2_PLACEMENT_3D ( 'NONE', #228, #18, #42 ) ;
#175 = VECTOR ( 'NONE', #192, 39.37007874015748143 ) ;
#176 = DIRECTION ( 'NONE',  ( 1.000000000000000000, 0.0000000000000000000, -0.0000000000000000000 ) ) ;
#177 = DIMENSIONAL_EXPONENTS ( 1.000000000000000000, 0.0000000000000000000, 0.0000000000000000000, 0.0000000000000000000, 0.0000000000000000000, 0.0000000000000000000, 0.0000000000000000000 ) ;
#178 = CYLINDRICAL_SURFACE ( 'NONE', #162, 0.09375000000000001388 ) ;
#179 =( NAMED_UNIT ( * ) SI_UNIT ( $, .STERADIAN. ) SOLID_ANGLE_UNIT ( ) );
#180 = CIRCLE ( 'NONE', #197, 0.09375000000000001388 ) ;
#181 = PRODUCT_DEFINITION_CONTEXT ( 'detailed design', #26, 'design' ) ;
#182 = LENGTH_MEASURE_WITH_UNIT ( LENGTH_MEASURE( 0.02539999999999999897 ), #50 );
#183 = DIRECTION ( 'NONE',  ( 1.000000000000000000, 0.0000000000000000000, -0.0000000000000000000 ) ) ;
#184 = AXIS2_PLACEMENT_3D ( 'NONE', #161, #7, #133 ) ;
#185 = ORIENTED_EDGE ( 'NONE', *, *, #229, .T. ) ;
#186 = FACE_OUTER_BOUND ( 'NONE', #102, .T. ) ;
#187 = ADVANCED_FACE ( 'NONE', ( #64 ), #194, .T. ) ;
#188 = AXIS2_PLACEMENT_3D ( 'NONE', #238, #35, #25 ) ;
#189 = EDGE_CURVE ( 'NONE', #56, #96, #52, .T. ) ;
#190 = AXIS2_PLACEMENT_3D ( 'NONE', #75, #97, #154 ) ;
#191 =( LENGTH_UNIT ( ) NAMED_UNIT ( * ) SI_UNIT ( $, .METRE. ) );
#192 = DIRECTION ( 'NONE',  ( 0.7071067811865490160, 0.0000000000000000000, 0.7071067811865460184 ) ) ;
#193 = PRODUCT_RELATED_PRODUCT_CATEGORY ( 'part', '', ( #172 ) ) ;
#194 = CONICAL_SURFACE ( 'NONE', #140, 0.004000000000000000083, 0.7853981633974503884 ) ;
#195 = DIRECTION ( 'NONE',  ( 0.0000000000000000000, 0.0000000000000000000, 1.000000000000000000 ) ) ;
#196 = CARTESIAN_POINT ( 'NONE',  ( 0.004000000000000000083, 0.0000000000000000000, 3.000000000000000444 ) ) ;
#197 = AXIS2_PLACEMENT_3D ( 'NONE', #8, #107, #31 ) ;
#198 = DIRECTION ( 'NONE',  ( -0.0000000000000000000, -0.0000000000000000000, -1.000000000000000000 ) ) ;
#199 = DIRECTION ( 'NONE',  ( -0.7071067811865490160, -8.659560562354951347E-17, -0.7071067811865460184 ) ) ;
#200 = LENGTH_MEASURE_WITH_UNIT ( LENGTH_MEASURE( 0.02539999999999999897 ), #239 );
#201 = CIRCLE ( 'NONE', #6, 0.09375000000000001388 ) ;
#202 = EDGE_CURVE ( 'NONE', #96, #166, #121, .T. ) ;
#203 = FILL_AREA_STYLE_COLOUR ( '', #40 ) ;
#204 = CARTESIAN_POINT ( 'NONE',  ( -0.09375000000000001388, 0.0000000000000000000, 2.910250000000000448 ) ) ;
#205 = ORIENTED_EDGE ( 'NONE', *, *, #17, .F. ) ;
#206 = CARTESIAN_POINT ( 'NONE',  ( 0.0000000000000000000, 0.0000000000000000000, 3.000000000000000444 ) ) ;
#207 = EDGE_LOOP ( 'NONE', ( #240, #224, #205, #92 ) ) ;
#208 = DIRECTION ( 'NONE',  ( -1.000000000000000000, 0.0000000000000000000, 0.0000000000000000000 ) ) ;
#209 = CIRCLE ( 'NONE', #235, 0.09375000000000001388 ) ;
#210 = CARTESIAN_POINT ( 'NONE',  ( 0.004000000000000000083, 0.0000000000000000000, 0.0000000000000000000 ) ) ;
#211 = VERTEX_POINT ( 'NONE', #2 ) ;
#212 = AXIS2_PLACEMENT_3D ( 'NONE', #164, #146, #10 ) ;
#213 = EDGE_LOOP ( 'NONE', ( #152, #74, #134, #124 ) ) ;
#214 = FACE_OUTER_BOUND ( 'NONE', #73, .T. ) ;
#215 = ADVANCED_FACE ( 'NONE', ( #76 ), #111, .T. ) ;
#216 = DIRECTION ( 'NONE',  ( 1.000000000000000000, 0.0000000000000000000, 0.0000000000000000000 ) ) ;
#217 = FACE_OUTER_BOUND ( 'NONE', #113, .T. ) ;
#218 = CARTESIAN_POINT ( 'NONE',  ( 0.09375000000000001388, 1.148106374200643401E-17, 3.000000000000000444 ) ) ;
#219 = EDGE_CURVE ( 'NONE', #211, #82, #170, .T. ) ;
#220 = VECTOR ( 'NONE', #45, 39.37007874015748143 ) ;
#221 = PRESENTATION_LAYER_ASSIGNMENT (  '', '', ( #23 ) ) ;
#222 =( CONVERSION_BASED_UNIT ( 'INCH', #151 ) LENGTH_UNIT ( ) NAMED_UNIT ( #177 ) );
#223 =( NAMED_UNIT ( * ) PLANE_ANGLE_UNIT ( ) SI_UNIT ( $, .RADIAN. ) );
#224 = ORIENTED_EDGE ( 'NONE', *, *, #80, .T. ) ;
#225 = FILL_AREA_STYLE ('',( #226 ) ) ;
#226 = FILL_AREA_STYLE_COLOUR ( '', #59 ) ;
#227 = EDGE_CURVE ( 'NONE', #211, #109, #249, .T. ) ;
#228 = CARTESIAN_POINT ( 'NONE',  ( 0.0000000000000000000, 0.0000000000000000000, 3.000000000000000444 ) ) ;
#229 = EDGE_CURVE ( 'NONE', #38, #82, #78, .T. ) ;
#230 = DIRECTION ( 'NONE',  ( 0.0000000000000000000, 0.0000000000000000000, -1.000000000000000000 ) ) ;
#231 = LINE ( 'NONE', #218, #86 ) ;
#232 = DIMENSIONAL_EXPONENTS ( 1.000000000000000000, 0.0000000000000000000, 0.0000000000000000000, 0.0000000000000000000, 0.0000000000000000000, 0.0000000000000000000, 0.0000000000000000000 ) ;
#233 = CARTESIAN_POINT ( 'NONE',  ( 0.004000000000000000083, 0.0000000000000000000, 0.0000000000000000000 ) ) ;
#234 =( NAMED_UNIT ( * ) PLANE_ANGLE_UNIT ( ) SI_UNIT ( $, .RADIAN. ) );
#235 = AXIS2_PLACEMENT_3D ( 'NONE', #139, #144, #61 ) ;
#236 = ORIENTED_EDGE ( 'NONE', *, *, #43, .T. ) ;
#237 = VECTOR ( 'NONE', #143, 39.37007874015748143 ) ;
#238 = CARTESIAN_POINT ( 'NONE',  ( 0.0000000000000000000, 0.0000000000000000000, 3.000000000000000444 ) ) ;
#239 =( LENGTH_UNIT ( ) NAMED_UNIT ( * ) SI_UNIT ( $, .METRE. ) );
#240 = ORIENTED_EDGE ( 'NONE', *, *, #227, .T. ) ;
#241 = CIRCLE ( 'NONE', #110, 0.004000000000000000083 ) ;
#242 = PRODUCT_DEFINITION_FORMATION_WITH_SPECIFIED_SOURCE ( 'ANY', '', #172, .NOT_KNOWN. ) ;
#243 = EDGE_CURVE ( 'NONE', #72, #166, #180, .T. ) ;
#244 = ORIENTED_EDGE ( 'NONE', *, *, #9, .T. ) ;
#245 = DIRECTION ( 'NONE',  ( 0.0000000000000000000, 0.0000000000000000000, -1.000000000000000000 ) ) ;
#246 = DIRECTION ( 'NONE',  ( 0.0000000000000000000, 0.0000000000000000000, 1.000000000000000000 ) ) ;
#247 = EDGE_LOOP ( 'NONE', ( #36, #136, #236, #165 ) ) ;
#248 = CARTESIAN_POINT ( 'NONE',  ( -0.004000000000000000083, -4.898587196589413537E-19, 3.000000000000000444 ) ) ;
#249 = CIRCLE ( 'NONE', #138, 0.004000000000000000083 ) ;
ENDSEC;
END-ISO-10303-21;
