ISO-10303-21;
HEADER;
FILE_DESCRIPTION (( 'STEP AP214' ),
    '1' );
FILE_NAME ('06180.STEP',
    '2023-07-05T16:01:00',
    ( '' ),
    ( '' ),
    'SwSTEP 2.0',
    'SolidWorks 2023',
    '' );
FILE_SCHEMA (( 'AUTOMOTIVE_DESIGN' ));
ENDSEC;

DATA;
#1 = ORIENTED_EDGE ( 'NONE', *, *, #164, .T. ) ;
#2 = CARTESIAN_POINT ( 'NONE',  ( -6.123233995736770966E-17, 3.000000000000000444, 0.000000000000000000 ) ) ;
#3 = COLOUR_RGB ( '',1.000000000000000000, 0.000000000000000000, 0.000000000000000000 ) ;
#4 = PRODUCT ( '06180', '06180', '', ( #95 ) ) ;
#5 = CIRCLE ( 'NONE', #211, 0.3749999999999999445 ) ;
#6 =( NAMED_UNIT ( * ) SI_UNIT ( $, .STERADIAN. ) SOLID_ANGLE_UNIT ( ) );
#7 = AXIS2_PLACEMENT_3D ( 'NONE', #201, #71, #25 ) ;
#8 = STYLED_ITEM ( 'NONE', ( #218 ), #13 ) ;
#9 = UNCERTAINTY_MEASURE_WITH_UNIT (LENGTH_MEASURE( 1.000000000000000082E-05 ), #238, 'distance_accuracy_value', 'NONE');
#10 = VERTEX_POINT ( 'NONE', #148 ) ;
#11 =( GEOMETRIC_REPRESENTATION_CONTEXT ( 3 ) GLOBAL_UNCERTAINTY_ASSIGNED_CONTEXT ( ( #9 ) ) GLOBAL_UNIT_ASSIGNED_CONTEXT ( ( #238, #98, #75 ) ) REPRESENTATION_CONTEXT ( 'NONE', 'WORKASPACE' ) );
#12 = STYLED_ITEM ( 'NONE', ( #110 ), #181 ) ;
#13 = MANIFOLD_SOLID_BREP ( 'Revolve - Tool Body (Pointed)', #183 ) ;
#14 = ORIENTED_EDGE ( 'NONE', *, *, #97, .T. ) ;
#15 = AXIS2_PLACEMENT_3D ( 'NONE', #229, #206, #93 ) ;
#16 = EDGE_CURVE ( 'NONE', #77, #233, #31, .T. ) ;
#17 = FACE_OUTER_BOUND ( 'NONE', #70, .T. ) ;
#18 = SURFACE_STYLE_FILL_AREA ( #178 ) ;
#19 =( LENGTH_UNIT ( ) NAMED_UNIT ( * ) SI_UNIT ( $, .METRE. ) );
#20 = DIRECTION ( 'NONE',  ( -1.000000000000000000, 0.000000000000000000, 0.000000000000000000 ) ) ;
#21 = APPLICATION_PROTOCOL_DEFINITION ( 'draft international standard', 'automotive_design', 1998, #236 ) ;
#22 = ORIENTED_EDGE ( 'NONE', *, *, #16, .T. ) ;
#23 = FILL_AREA_STYLE_COLOUR ( '', #3 ) ;
#24 = AXIS2_PLACEMENT_3D ( 'NONE', #111, #150, #60 ) ;
#25 = DIRECTION ( 'NONE',  ( 1.000000000000000000, 0.000000000000000000, 0.000000000000000000 ) ) ;
#26 = SURFACE_SIDE_STYLE ('',( #184 ) ) ;
#27 = LENGTH_MEASURE_WITH_UNIT ( LENGTH_MEASURE( 0.02539999999999999897 ), #171 );
#28 = LINE ( 'NONE', #258, #214 ) ;
#29 = DIRECTION ( 'NONE',  ( 0.000000000000000000, 1.000000000000000000, 0.000000000000000000 ) ) ;
#30 = MECHANICAL_DESIGN_GEOMETRIC_PRESENTATION_REPRESENTATION (  '', ( #142 ), #222 ) ;
#31 = LINE ( 'NONE', #51, #192 ) ;
#32 = CARTESIAN_POINT ( 'NONE',  ( 0.3749999999999999445, 3.000000000000000444, 0.000000000000000000 ) ) ;
#33 = DIRECTION ( 'NONE',  ( -1.000000000000000000, 0.000000000000000000, 0.000000000000000000 ) ) ;
#34 = CARTESIAN_POINT ( 'NONE',  ( 4.592425496802574219E-17, 0.3749999999999986122, -0.3749999999999999445 ) ) ;
#35 = UNCERTAINTY_MEASURE_WITH_UNIT (LENGTH_MEASURE( 1.000000000000000082E-05 ), #241, 'distance_accuracy_value', 'NONE');
#36 = VERTEX_POINT ( 'NONE', #174 ) ;
#37 = ADVANCED_FACE ( 'NONE', ( #129 ), #224, .T. ) ;
#38 = FACE_OUTER_BOUND ( 'NONE', #170, .T. ) ;
#39 = MECHANICAL_DESIGN_GEOMETRIC_PRESENTATION_REPRESENTATION (  '', ( #12 ), #263 ) ;
#40 = AXIS2_PLACEMENT_3D ( 'NONE', #2, #160, #186 ) ;
#41 = DIMENSIONAL_EXPONENTS ( 1.000000000000000000, 0.000000000000000000, 0.000000000000000000, 0.000000000000000000, 0.000000000000000000, 0.000000000000000000, 0.000000000000000000 ) ;
#42 = SURFACE_STYLE_USAGE ( .BOTH. , #121 ) ;
#43 =( NAMED_UNIT ( * ) PLANE_ANGLE_UNIT ( ) SI_UNIT ( $, .RADIAN. ) );
#44 = PRODUCT_DEFINITION_FORMATION_WITH_SPECIFIED_SOURCE ( 'ANY', '', #4, .NOT_KNOWN. ) ;
#45 = PRODUCT_DEFINITION ( 'UNKNOWN', '', #44, #213 ) ;
#46 = EDGE_LOOP ( 'NONE', ( #112, #256, #217, #248 ) ) ;
#47 =( NAMED_UNIT ( * ) SI_UNIT ( $, .STERADIAN. ) SOLID_ANGLE_UNIT ( ) );
#48 = PRESENTATION_LAYER_ASSIGNMENT (  '', '', ( #59 ) ) ;
#49 = VERTEX_POINT ( 'NONE', #157 ) ;
#50 = CARTESIAN_POINT ( 'NONE',  ( 0.000000000000000000, 0.3749999999999986122, 0.000000000000000000 ) ) ;
#51 = CARTESIAN_POINT ( 'NONE',  ( 0.3749999999999997780, 3.000000000000000444, 4.592425496802572370E-17 ) ) ;
#52 = CIRCLE ( 'NONE', #185, 0.3750000000000000555 ) ;
#53 = EDGE_CURVE ( 'NONE', #106, #77, #78, .T. ) ;
#54 = VERTEX_POINT ( 'NONE', #34 ) ;
#55 = CARTESIAN_POINT ( 'NONE',  ( 0.000000000000000000, 0.000000000000000000, 0.000000000000000000 ) ) ;
#56 = EDGE_CURVE ( 'NONE', #77, #106, #125, .T. ) ;
#57 = SURFACE_SIDE_STYLE ('',( #18 ) ) ;
#58 = CARTESIAN_POINT ( 'NONE',  ( 0.000000000000000000, 39.37007874015748143, 0.000000000000000000 ) ) ;
#59 = STYLED_ITEM ( 'NONE', ( #65 ), #216 ) ;
#60 = DIRECTION ( 'NONE',  ( -1.000000000000000000, -1.821231995776177451E-16, 0.000000000000000000 ) ) ;
#61 = PRESENTATION_LAYER_ASSIGNMENT (  '', '', ( #8 ) ) ;
#62 = ORIENTED_EDGE ( 'NONE', *, *, #164, .F. ) ;
#63 = LENGTH_MEASURE_WITH_UNIT ( LENGTH_MEASURE( 0.02539999999999999897 ), #79 );
#64 = DIRECTION ( 'NONE',  ( -0.000000000000000000, -1.000000000000000000, -0.000000000000000000 ) ) ;
#65 = PRESENTATION_STYLE_ASSIGNMENT (( #69 ) ) ;
#66 = ORIENTED_EDGE ( 'NONE', *, *, #198, .F. ) ;
#67 = ORIENTED_EDGE ( 'NONE', *, *, #53, .F. ) ;
#68 = CARTESIAN_POINT ( 'NONE',  ( -0.3749999999999998890, 3.000000000000000444, 0.000000000000000000 ) ) ;
#69 = SURFACE_STYLE_USAGE ( .BOTH. , #199 ) ;
#70 = EDGE_LOOP ( 'NONE', ( #189, #22, #251, #141 ) ) ;
#71 = DIRECTION ( 'NONE',  ( 0.000000000000000000, 0.000000000000000000, 1.000000000000000000 ) ) ;
#72 = PRODUCT_DEFINITION_SHAPE ( 'NONE', 'NONE',  #45 ) ;
#73 = LENGTH_MEASURE_WITH_UNIT ( LENGTH_MEASURE( 0.02539999999999999897 ), #140 );
#74 = DIMENSIONAL_EXPONENTS ( 1.000000000000000000, 0.000000000000000000, 0.000000000000000000, 0.000000000000000000, 0.000000000000000000, 0.000000000000000000, 0.000000000000000000 ) ;
#75 =( NAMED_UNIT ( * ) SI_UNIT ( $, .STERADIAN. ) SOLID_ANGLE_UNIT ( ) );
#76 = FILL_AREA_STYLE_COLOUR ( '', #252 ) ;
#77 = VERTEX_POINT ( 'NONE', #113 ) ;
#78 = CIRCLE ( 'NONE', #102, 0.3749999999999996114 ) ;
#79 =( LENGTH_UNIT ( ) NAMED_UNIT ( * ) SI_UNIT ( $, .METRE. ) );
#80 = CONICAL_SURFACE ( 'NONE', #143, 39.37007874015762354, 0.7853981633974501664 ) ;
#81 = DIRECTION ( 'NONE',  ( 8.659560562354948882E-17, 0.7071067811865462405, -0.7071067811865487940 ) ) ;
#82 =( NAMED_UNIT ( * ) SI_UNIT ( $, .STERADIAN. ) SOLID_ANGLE_UNIT ( ) );
#83 = EDGE_LOOP ( 'NONE', ( #124, #66 ) ) ;
#84 =( GEOMETRIC_REPRESENTATION_CONTEXT ( 3 ) GLOBAL_UNCERTAINTY_ASSIGNED_CONTEXT ( ( #254 ) ) GLOBAL_UNIT_ASSIGNED_CONTEXT ( ( #234, #43, #82 ) ) REPRESENTATION_CONTEXT ( 'NONE', 'WORKASPACE' ) );
#85 =( CONVERSION_BASED_UNIT ( 'INCH', #130 ) LENGTH_UNIT ( ) NAMED_UNIT ( #41 ) );
#86 = CARTESIAN_POINT ( 'NONE',  ( 3.244069492476312942E-16, 0.3749999999999986122, 0.000000000000000000 ) ) ;
#87 = CARTESIAN_POINT ( 'NONE',  ( 0.000000000000000000, 0.3749999999999986122, 0.000000000000000000 ) ) ;
#88 = DIRECTION ( 'NONE',  ( -0.000000000000000000, -1.000000000000000000, -0.000000000000000000 ) ) ;
#89 = APPLICATION_PROTOCOL_DEFINITION ( 'draft international standard', 'automotive_design', 1998, #193 ) ;
#90 = DIRECTION ( 'NONE',  ( 0.000000000000000000, -0.000000000000000000, 1.000000000000000000 ) ) ;
#91 = AXIS2_PLACEMENT_3D ( 'NONE', #246, #147, #20 ) ;
#92 = FILL_AREA_STYLE ('',( #23 ) ) ;
#93 = DIRECTION ( 'NONE',  ( -1.000000000000000000, -1.469102054114281051E-16, 0.000000000000000000 ) ) ;
#94 = VECTOR ( 'NONE', #149, 39.37007874015748143 ) ;
#95 = PRODUCT_CONTEXT ( 'NONE', #193, 'mechanical' ) ;
#96 = UNCERTAINTY_MEASURE_WITH_UNIT (LENGTH_MEASURE( 1.000000000000000082E-05 ), #85, 'distance_accuracy_value', 'NONE');
#97 = EDGE_CURVE ( 'NONE', #233, #49, #120, .T. ) ;
#98 =( NAMED_UNIT ( * ) PLANE_ANGLE_UNIT ( ) SI_UNIT ( $, .RADIAN. ) );
#99 = CARTESIAN_POINT ( 'NONE',  ( 0.000000000000000000, 0.3749999999999986122, 0.000000000000000000 ) ) ;
#100 = DIRECTION ( 'NONE',  ( 0.000000000000000000, 0.000000000000000000, -1.000000000000000000 ) ) ;
#101 = DIRECTION ( 'NONE',  ( -1.000000000000000000, 0.000000000000000000, 0.000000000000000000 ) ) ;
#102 = AXIS2_PLACEMENT_3D ( 'NONE', #86, #133, #228 ) ;
#103 = DIRECTION ( 'NONE',  ( -1.469102054114281051E-16, 1.000000000000000000, -0.000000000000000000 ) ) ;
#104 = AXIS2_PLACEMENT_3D ( 'NONE', #50, #29, #90 ) ;
#105 = DIRECTION ( 'NONE',  ( 1.000000000000000000, 1.469102054114281051E-16, 0.000000000000000000 ) ) ;
#106 = VERTEX_POINT ( 'NONE', #136 ) ;
#107 = DIRECTION ( 'NONE',  ( 0.000000000000000000, 0.000000000000000000, -1.000000000000000000 ) ) ;
#108 = SURFACE_STYLE_USAGE ( .BOTH. , #57 ) ;
#109 = COLOUR_RGB ( '',0.7921568627450980005, 0.8196078431372548767, 0.9333333333333333481 ) ;
#110 = PRESENTATION_STYLE_ASSIGNMENT (( #202 ) ) ;
#111 = CARTESIAN_POINT ( 'NONE',  ( 3.244069492476312942E-16, 0.3749999999999986122, 0.000000000000000000 ) ) ;
#112 = ORIENTED_EDGE ( 'NONE', *, *, #16, .F. ) ;
#113 = CARTESIAN_POINT ( 'NONE',  ( 0.3749999999999999445, 0.3749999999999986677, 4.592425496802574219E-17 ) ) ;
#114 = AXIS2_PLACEMENT_3D ( 'NONE', #226, #194, #33 ) ;
#115 = CONICAL_SURFACE ( 'NONE', #139, 39.37007874015762354, 0.7853981633974501664 ) ;
#116 = COLOUR_RGB ( '',0.7921568627450980005, 0.8196078431372548767, 0.9333333333333333481 ) ;
#117 = ADVANCED_FACE ( 'NONE', ( #232 ), #231, .F. ) ;
#118 = UNCERTAINTY_MEASURE_WITH_UNIT (LENGTH_MEASURE( 1.000000000000000082E-05 ), #242, 'distance_accuracy_value', 'NONE');
#119 = DIMENSIONAL_EXPONENTS ( 1.000000000000000000, 0.000000000000000000, 0.000000000000000000, 0.000000000000000000, 0.000000000000000000, 0.000000000000000000, 0.000000000000000000 ) ;
#120 = CIRCLE ( 'NONE', #40, 0.3750000000000000555 ) ;
#121 = SURFACE_SIDE_STYLE ('',( #144 ) ) ;
#122 = DIRECTION ( 'NONE',  ( 0.000000000000000000, 0.000000000000000000, 1.000000000000000000 ) ) ;
#123 = ORIENTED_EDGE ( 'NONE', *, *, #152, .T. ) ;
#124 = ORIENTED_EDGE ( 'NONE', *, *, #145, .F. ) ;
#125 = CIRCLE ( 'NONE', #24, 0.3749999999999996114 ) ;
#126 =( NAMED_UNIT ( * ) PLANE_ANGLE_UNIT ( ) SI_UNIT ( $, .RADIAN. ) );
#127 = MECHANICAL_DESIGN_GEOMETRIC_PRESENTATION_REPRESENTATION (  '', ( #195 ), #84 ) ;
#128 =( NAMED_UNIT ( * ) PLANE_ANGLE_UNIT ( ) SI_UNIT ( $, .RADIAN. ) );
#129 = FACE_OUTER_BOUND ( 'NONE', #46, .T. ) ;
#130 = LENGTH_MEASURE_WITH_UNIT ( LENGTH_MEASURE( 0.02539999999999999897 ), #19 );
#131 = DIRECTION ( 'NONE',  ( -1.469102054114281051E-16, 1.000000000000000000, -0.000000000000000000 ) ) ;
#132 = FILL_AREA_STYLE ('',( #259 ) ) ;
#133 = DIRECTION ( 'NONE',  ( -1.469102054114281051E-16, 1.000000000000000000, -0.000000000000000000 ) ) ;
#134 = EDGE_LOOP ( 'NONE', ( #62, #230, #197 ) ) ;
#135 = ADVANCED_FACE ( 'NONE', ( #38 ), #80, .T. ) ;
#136 = CARTESIAN_POINT ( 'NONE',  ( -0.3749999999999992784, 0.3749999999999985012, 0.000000000000000000 ) ) ;
#137 =( NAMED_UNIT ( * ) SI_UNIT ( $, .STERADIAN. ) SOLID_ANGLE_UNIT ( ) );
#138 = PRESENTATION_STYLE_ASSIGNMENT (( #209 ) ) ;
#139 = AXIS2_PLACEMENT_3D ( 'NONE', #225, #165, #253 ) ;
#140 =( LENGTH_UNIT ( ) NAMED_UNIT ( * ) SI_UNIT ( $, .METRE. ) );
#141 = ORIENTED_EDGE ( 'NONE', *, *, #173, .F. ) ;
#142 = STYLED_ITEM ( 'NONE', ( #138 ), #135 ) ;
#143 = AXIS2_PLACEMENT_3D ( 'NONE', #58, #169, #122 ) ;
#144 = SURFACE_STYLE_FILL_AREA ( #239 ) ;
#145 = EDGE_CURVE ( 'NONE', #36, #54, #5, .T. ) ;
#146 = EDGE_LOOP ( 'NONE', ( #123, #14 ) ) ;
#147 = DIRECTION ( 'NONE',  ( -1.469102054114281051E-16, 1.000000000000000000, -0.000000000000000000 ) ) ;
#148 = CARTESIAN_POINT ( 'NONE',  ( 0.000000000000000000, 0.000000000000000000, 0.000000000000000000 ) ) ;
#149 = DIRECTION ( 'NONE',  ( 0.000000000000000000, 0.7071067811865462405, 0.7071067811865487940 ) ) ;
#150 = DIRECTION ( 'NONE',  ( -1.469102054114281051E-16, 1.000000000000000000, -0.000000000000000000 ) ) ;
#151 = FILL_AREA_STYLE ('',( #264 ) ) ;
#152 = EDGE_CURVE ( 'NONE', #49, #233, #52, .T. ) ;
#153 = ADVANCED_BREP_SHAPE_REPRESENTATION ( '06180', ( #181, #13, #7 ), #11 ) ;
#154 = PRESENTATION_LAYER_ASSIGNMENT (  '', '', ( #12 ) ) ;
#155 = LINE ( 'NONE', #55, #94 ) ;
#156 = SURFACE_SIDE_STYLE ('',( #244 ) ) ;
#157 = CARTESIAN_POINT ( 'NONE',  ( -0.3750000000000001110, 3.000000000000000444, 0.000000000000000000 ) ) ;
#158 =( GEOMETRIC_REPRESENTATION_CONTEXT ( 3 ) GLOBAL_UNCERTAINTY_ASSIGNED_CONTEXT ( ( #35 ) ) GLOBAL_UNIT_ASSIGNED_CONTEXT ( ( #241, #176, #200 ) ) REPRESENTATION_CONTEXT ( 'NONE', 'WORKASPACE' ) );
#159 = CARTESIAN_POINT ( 'NONE',  ( 0.3749999999999999445, 3.000000000000000444, 4.592425496802574219E-17 ) ) ;
#160 = DIRECTION ( 'NONE',  ( -1.469102054114281051E-16, 1.000000000000000000, -0.000000000000000000 ) ) ;
#161 = PRODUCT_RELATED_PRODUCT_CATEGORY ( 'part', '', ( #4 ) ) ;
#162 = CLOSED_SHELL ( 'NONE', ( #135, #167, #216 ) ) ;
#163 =( CONVERSION_BASED_UNIT ( 'INCH', #73 ) LENGTH_UNIT ( ) NAMED_UNIT ( #168 ) );
#164 = EDGE_CURVE ( 'NONE', #10, #54, #28, .T. ) ;
#165 = DIRECTION ( 'NONE',  ( 0.000000000000000000, 1.000000000000000000, 0.000000000000000000 ) ) ;
#166 = ORIENTED_EDGE ( 'NONE', *, *, #56, .F. ) ;
#167 = ADVANCED_FACE ( 'NONE', ( #191 ), #172, .T. ) ;
#168 = DIMENSIONAL_EXPONENTS ( 1.000000000000000000, 0.000000000000000000, 0.000000000000000000, 0.000000000000000000, 0.000000000000000000, 0.000000000000000000, 0.000000000000000000 ) ;
#169 = DIRECTION ( 'NONE',  ( 0.000000000000000000, 1.000000000000000000, 0.000000000000000000 ) ) ;
#170 = EDGE_LOOP ( 'NONE', ( #265, #1, #262 ) ) ;
#171 =( LENGTH_UNIT ( ) NAMED_UNIT ( * ) SI_UNIT ( $, .METRE. ) );
#172 = PLANE ( 'NONE',  #104 ) ;
#173 = EDGE_CURVE ( 'NONE', #106, #49, #261, .T. ) ;
#174 = CARTESIAN_POINT ( 'NONE',  ( 0.000000000000000000, 0.3749999999999986122, 0.3749999999999999445 ) ) ;
#175 = ADVANCED_FACE ( 'NONE', ( #177 ), #180, .F. ) ;
#176 =( NAMED_UNIT ( * ) PLANE_ANGLE_UNIT ( ) SI_UNIT ( $, .RADIAN. ) );
#177 = FACE_OUTER_BOUND ( 'NONE', #146, .T. ) ;
#178 = FILL_AREA_STYLE ('',( #247 ) ) ;
#179 = CIRCLE ( 'NONE', #221, 0.3749999999999999445 ) ;
#180 = PLANE ( 'NONE',  #210 ) ;
#181 = MANIFOLD_SOLID_BREP ( 'Revolve - Cutting Edge', #162 ) ;
#182 = ADVANCED_FACE ( 'NONE', ( #17 ), #240, .T. ) ;
#183 = CLOSED_SHELL ( 'NONE', ( #182, #117, #37, #175 ) ) ;
#184 = SURFACE_STYLE_FILL_AREA ( #92 ) ;
#185 = AXIS2_PLACEMENT_3D ( 'NONE', #188, #215, #101 ) ;
#186 = DIRECTION ( 'NONE',  ( -1.000000000000000000, 0.000000000000000000, 0.000000000000000000 ) ) ;
#187 = DIMENSIONAL_EXPONENTS ( 1.000000000000000000, 0.000000000000000000, 0.000000000000000000, 0.000000000000000000, 0.000000000000000000, 0.000000000000000000, 0.000000000000000000 ) ;
#188 = CARTESIAN_POINT ( 'NONE',  ( -6.123233995736770966E-17, 3.000000000000000444, 0.000000000000000000 ) ) ;
#189 = ORIENTED_EDGE ( 'NONE', *, *, #53, .T. ) ;
#190 = MECHANICAL_DESIGN_GEOMETRIC_PRESENTATION_REPRESENTATION (  '', ( #59 ), #243 ) ;
#191 = FACE_OUTER_BOUND ( 'NONE', #83, .T. ) ;
#192 = VECTOR ( 'NONE', #131, 39.37007874015748143 ) ;
#193 = APPLICATION_CONTEXT ( 'automotive_design' ) ;
#194 = DIRECTION ( 'NONE',  ( -1.469102054114281051E-16, 1.000000000000000000, -0.000000000000000000 ) ) ;
#195 = STYLED_ITEM ( 'NONE', ( #237 ), #167 ) ;
#196 = LENGTH_MEASURE_WITH_UNIT ( LENGTH_MEASURE( 0.02539999999999999897 ), #227 );
#197 = ORIENTED_EDGE ( 'NONE', *, *, #145, .T. ) ;
#198 = EDGE_CURVE ( 'NONE', #54, #36, #179, .T. ) ;
#199 = SURFACE_SIDE_STYLE ('',( #220 ) ) ;
#200 =( NAMED_UNIT ( * ) SI_UNIT ( $, .STERADIAN. ) SOLID_ANGLE_UNIT ( ) );
#201 = CARTESIAN_POINT ( 'NONE',  ( 0.000000000000000000, 0.000000000000000000, 0.000000000000000000 ) ) ;
#202 = SURFACE_STYLE_USAGE ( .BOTH. , #156 ) ;
#203 = EDGE_CURVE ( 'NONE', #10, #36, #155, .T. ) ;
#204 = UNCERTAINTY_MEASURE_WITH_UNIT (LENGTH_MEASURE( 1.000000000000000082E-05 ), #163, 'distance_accuracy_value', 'NONE');
#205 = EDGE_LOOP ( 'NONE', ( #67, #166 ) ) ;
#206 = DIRECTION ( 'NONE',  ( -1.469102054114281051E-16, 1.000000000000000000, 0.000000000000000000 ) ) ;
#207 = SHAPE_DEFINITION_REPRESENTATION ( #72, #153 ) ;
#208 = MECHANICAL_DESIGN_GEOMETRIC_PRESENTATION_REPRESENTATION (  '', ( #8 ), #158 ) ;
#209 = SURFACE_STYLE_USAGE ( .BOTH. , #26 ) ;
#210 = AXIS2_PLACEMENT_3D ( 'NONE', #32, #223, #105 ) ;
#211 = AXIS2_PLACEMENT_3D ( 'NONE', #99, #64, #100 ) ;
#212 =( NAMED_UNIT ( * ) PLANE_ANGLE_UNIT ( ) SI_UNIT ( $, .RADIAN. ) );
#213 = PRODUCT_DEFINITION_CONTEXT ( 'detailed design', #236, 'design' ) ;
#214 = VECTOR ( 'NONE', #81, 39.37007874015748143 ) ;
#215 = DIRECTION ( 'NONE',  ( -1.469102054114281051E-16, 1.000000000000000000, -0.000000000000000000 ) ) ;
#216 = ADVANCED_FACE ( 'NONE', ( #249 ), #115, .T. ) ;
#217 = ORIENTED_EDGE ( 'NONE', *, *, #173, .T. ) ;
#218 = PRESENTATION_STYLE_ASSIGNMENT (( #108 ) ) ;
#219 = PRESENTATION_LAYER_ASSIGNMENT (  '', '', ( #142 ) ) ;
#220 = SURFACE_STYLE_FILL_AREA ( #132 ) ;
#221 = AXIS2_PLACEMENT_3D ( 'NONE', #87, #88, #107 ) ;
#222 =( GEOMETRIC_REPRESENTATION_CONTEXT ( 3 ) GLOBAL_UNCERTAINTY_ASSIGNED_CONTEXT ( ( #204 ) ) GLOBAL_UNIT_ASSIGNED_CONTEXT ( ( #163, #212, #6 ) ) REPRESENTATION_CONTEXT ( 'NONE', 'WORKASPACE' ) );
#223 = DIRECTION ( 'NONE',  ( 1.469102054114281051E-16, -1.000000000000000000, 0.000000000000000000 ) ) ;
#224 = CYLINDRICAL_SURFACE ( 'NONE', #114, 0.3749999999999998335 ) ;
#225 = CARTESIAN_POINT ( 'NONE',  ( 0.000000000000000000, 39.37007874015748143, 0.000000000000000000 ) ) ;
#226 = CARTESIAN_POINT ( 'NONE',  ( -6.123233995736772199E-17, 3.000000000000000444, 0.000000000000000000 ) ) ;
#227 =( LENGTH_UNIT ( ) NAMED_UNIT ( * ) SI_UNIT ( $, .METRE. ) );
#228 = DIRECTION ( 'NONE',  ( -1.000000000000000000, -1.821231995776177451E-16, 0.000000000000000000 ) ) ;
#229 = CARTESIAN_POINT ( 'NONE',  ( 3.244069492476312449E-16, 0.3749999999999986122, 0.000000000000000000 ) ) ;
#230 = ORIENTED_EDGE ( 'NONE', *, *, #203, .T. ) ;
#231 = PLANE ( 'NONE',  #15 ) ;
#232 = FACE_OUTER_BOUND ( 'NONE', #205, .T. ) ;
#233 = VERTEX_POINT ( 'NONE', #159 ) ;
#234 =( CONVERSION_BASED_UNIT ( 'INCH', #27 ) LENGTH_UNIT ( ) NAMED_UNIT ( #119 ) );
#235 = PRESENTATION_LAYER_ASSIGNMENT (  '', '', ( #195 ) ) ;
#236 = APPLICATION_CONTEXT ( 'automotive_design' ) ;
#237 = PRESENTATION_STYLE_ASSIGNMENT (( #42 ) ) ;
#238 =( CONVERSION_BASED_UNIT ( 'INCH', #63 ) LENGTH_UNIT ( ) NAMED_UNIT ( #255 ) );
#239 = FILL_AREA_STYLE ('',( #76 ) ) ;
#240 = CYLINDRICAL_SURFACE ( 'NONE', #91, 0.3749999999999998335 ) ;
#241 =( CONVERSION_BASED_UNIT ( 'INCH', #260 ) LENGTH_UNIT ( ) NAMED_UNIT ( #74 ) );
#242 =( CONVERSION_BASED_UNIT ( 'INCH', #196 ) LENGTH_UNIT ( ) NAMED_UNIT ( #187 ) );
#243 =( GEOMETRIC_REPRESENTATION_CONTEXT ( 3 ) GLOBAL_UNCERTAINTY_ASSIGNED_CONTEXT ( ( #96 ) ) GLOBAL_UNIT_ASSIGNED_CONTEXT ( ( #85, #126, #137 ) ) REPRESENTATION_CONTEXT ( 'NONE', 'WORKASPACE' ) );
#244 = SURFACE_STYLE_FILL_AREA ( #151 ) ;
#245 = VECTOR ( 'NONE', #103, 39.37007874015748143 ) ;
#246 = CARTESIAN_POINT ( 'NONE',  ( -6.123233995736772199E-17, 3.000000000000000444, 0.000000000000000000 ) ) ;
#247 = FILL_AREA_STYLE_COLOUR ( '', #109 ) ;
#248 = ORIENTED_EDGE ( 'NONE', *, *, #97, .F. ) ;
#249 = FACE_OUTER_BOUND ( 'NONE', #134, .T. ) ;
#250 =( LENGTH_UNIT ( ) NAMED_UNIT ( * ) SI_UNIT ( $, .METRE. ) );
#251 = ORIENTED_EDGE ( 'NONE', *, *, #152, .F. ) ;
#252 = COLOUR_RGB ( '',1.000000000000000000, 0.000000000000000000, 0.000000000000000000 ) ;
#253 = DIRECTION ( 'NONE',  ( 0.000000000000000000, 0.000000000000000000, 1.000000000000000000 ) ) ;
#254 = UNCERTAINTY_MEASURE_WITH_UNIT (LENGTH_MEASURE( 1.000000000000000082E-05 ), #234, 'distance_accuracy_value', 'NONE');
#255 = DIMENSIONAL_EXPONENTS ( 1.000000000000000000, 0.000000000000000000, 0.000000000000000000, 0.000000000000000000, 0.000000000000000000, 0.000000000000000000, 0.000000000000000000 ) ;
#256 = ORIENTED_EDGE ( 'NONE', *, *, #56, .T. ) ;
#257 = COLOUR_RGB ( '',1.000000000000000000, 0.000000000000000000, 0.000000000000000000 ) ;
#258 = CARTESIAN_POINT ( 'NONE',  ( 0.000000000000000000, 0.000000000000000000, 0.000000000000000000 ) ) ;
#259 = FILL_AREA_STYLE_COLOUR ( '', #257 ) ;
#260 = LENGTH_MEASURE_WITH_UNIT ( LENGTH_MEASURE( 0.02539999999999999897 ), #250 );
#261 = LINE ( 'NONE', #68, #245 ) ;
#262 = ORIENTED_EDGE ( 'NONE', *, *, #198, .T. ) ;
#263 =( GEOMETRIC_REPRESENTATION_CONTEXT ( 3 ) GLOBAL_UNCERTAINTY_ASSIGNED_CONTEXT ( ( #118 ) ) GLOBAL_UNIT_ASSIGNED_CONTEXT ( ( #242, #128, #47 ) ) REPRESENTATION_CONTEXT ( 'NONE', 'WORKASPACE' ) );
#264 = FILL_AREA_STYLE_COLOUR ( '', #116 ) ;
#265 = ORIENTED_EDGE ( 'NONE', *, *, #203, .F. ) ;
ENDSEC;
END-ISO-10303-21;
