ISO-10303-21;
HEADER;
FILE_DESCRIPTION (( 'STEP AP214' ),
    '1' );
FILE_NAME ('Micro_SFPM-060-60.STEP',
    '2021-09-02T07:28:18',
    ( '' ),
    ( '' ),
    'SwSTEP 2.0',
    'SolidWorks 2020',
    '' );
FILE_SCHEMA (( 'AUTOMOTIVE_DESIGN' ));
ENDSEC;

DATA;
#1 = ORIENTED_EDGE ( 'NONE', *, *, #100, .T. ) ;
#2 = CARTESIAN_POINT ( 'NONE',  ( -0.1574804999999999955, 0.0000000000000000000, 3.740156999999999954 ) ) ;
#3 = SHAPE_DEFINITION_REPRESENTATION ( #63, #217 ) ;
#4 = ORIENTED_EDGE ( 'NONE', *, *, #241, .T. ) ;
#5 = APPLICATION_CONTEXT ( 'automotive_design' ) ;
#6 = CARTESIAN_POINT ( 'NONE',  ( 0.1424804999999998989, 1.744882882659143297E-17, 3.740156999999999954 ) ) ;
#7 = CARTESIAN_POINT ( 'NONE',  ( 1.769594913022618037E-33, 0.0000000000000000000, 1.444983904138465938E-17 ) ) ;
#8 = VECTOR ( 'NONE', #214, 39.37007874015748143 ) ;
#9 = CARTESIAN_POINT ( 'NONE',  ( -0.1424804999999998989, 0.0000000000000000000, 3.740156999999999954 ) ) ;
#10 = CARTESIAN_POINT ( 'NONE',  ( 0.0000000000000000000, 0.0000000000000000000, 3.725156999999999829 ) ) ;
#11 = CARTESIAN_POINT ( 'NONE',  ( -0.1179918899999999882, 0.0000000000000000000, 1.444983904138465938E-17 ) ) ;
#12 = CARTESIAN_POINT ( 'NONE',  ( 1.238550258314708458E-16, 0.0000000000000000000, 1.011353035974972725 ) ) ;
#13 = EDGE_CURVE ( 'NONE', #229, #156, #215, .T. ) ;
#14 =( NAMED_UNIT ( * ) SI_UNIT ( $, .STERADIAN. ) SOLID_ANGLE_UNIT ( ) );
#15 = DIRECTION ( 'NONE',  ( -1.224646799147353207E-16, -0.0000000000000000000, -1.000000000000000000 ) ) ;
#16 = ORIENTED_EDGE ( 'NONE', *, *, #247, .T. ) ;
#17 = AXIS2_PLACEMENT_3D ( 'NONE', #7, #85, #81 ) ;
#18 = FILL_AREA_STYLE_COLOUR ( '', #130 ) ;
#19 = EDGE_LOOP ( 'NONE', ( #225, #26, #174, #118 ) ) ;
#20 = CARTESIAN_POINT ( 'NONE',  ( 0.0000000000000000000, 0.0000000000000000000, 3.740156999999999954 ) ) ;
#21 = AXIS2_PLACEMENT_3D ( 'NONE', #205, #45, #48 ) ;
#22 = ORIENTED_EDGE ( 'NONE', *, *, #258, .T. ) ;
#23 = EDGE_CURVE ( 'NONE', #179, #204, #55, .T. ) ;
#24 = DIRECTION ( 'NONE',  ( -0.0000000000000000000, -0.0000000000000000000, -1.000000000000000000 ) ) ;
#25 = UNCERTAINTY_MEASURE_WITH_UNIT (LENGTH_MEASURE( 1.000000000000000082E-05 ), #297, 'distance_accuracy_value', 'NONE');
#26 = ORIENTED_EDGE ( 'NONE', *, *, #283, .F. ) ;
#27 = VECTOR ( 'NONE', #52, 39.37007874015748143 ) ;
#28 = PRESENTATION_STYLE_ASSIGNMENT (( #231 ) ) ;
#29 = FACE_OUTER_BOUND ( 'NONE', #271, .T. ) ;
#30 = ORIENTED_EDGE ( 'NONE', *, *, #13, .T. ) ;
#31 = EDGE_CURVE ( 'NONE', #182, #88, #117, .T. ) ;
#32 = DIRECTION ( 'NONE',  ( -1.000000000000000000, 0.0000000000000000000, 0.0000000000000000000 ) ) ;
#33 = LINE ( 'NONE', #11, #41 ) ;
#34 = DIRECTION ( 'NONE',  ( 1.224646799147353207E-16, 0.0000000000000000000, 1.000000000000000000 ) ) ;
#35 = ADVANCED_FACE ( 'NONE', ( #121 ), #284, .T. ) ;
#36 = LENGTH_MEASURE_WITH_UNIT ( LENGTH_MEASURE( 0.02539999999999999897 ), #38 );
#37 = ORIENTED_EDGE ( 'NONE', *, *, #23, .F. ) ;
#38 =( LENGTH_UNIT ( ) NAMED_UNIT ( * ) SI_UNIT ( $, .METRE. ) );
#39 = APPLICATION_CONTEXT ( 'automotive_design' ) ;
#40 = PRODUCT_CONTEXT ( 'NONE', #5, 'mechanical' ) ;
#41 = VECTOR ( 'NONE', #213, 39.37007874015748143 ) ;
#42 = STYLED_ITEM ( 'NONE', ( #112 ), #217 ) ;
#43 = DIRECTION ( 'NONE',  ( 1.000000000000000000, 0.0000000000000000000, 0.0000000000000000000 ) ) ;
#44 = EDGE_LOOP ( 'NONE', ( #185, #16, #274, #259 ) ) ;
#45 = DIRECTION ( 'NONE',  ( -1.224646799147353207E-16, -0.0000000000000000000, -1.000000000000000000 ) ) ;
#46 = CLOSED_SHELL ( 'NONE', ( #269, #35, #288, #84, #254, #216, #142, #136, #211, #226 ) ) ;
#47 = VECTOR ( 'NONE', #98, 39.37007874015748143 ) ;
#48 = DIRECTION ( 'NONE',  ( 1.000000000000000000, 0.0000000000000000000, 0.0000000000000000000 ) ) ;
#49 = CIRCLE ( 'NONE', #257, 0.1179918899999999882 ) ;
#50 = PRODUCT ( 'Micro_SFPM-060-60', 'Micro_SFPM-060-60', '', ( #40 ) ) ;
#51 = CARTESIAN_POINT ( 'NONE',  ( 0.0000000000000000000, 0.0000000000000000000, 3.740156999999999954 ) ) ;
#52 = DIRECTION ( 'NONE',  ( -1.224646799147353207E-16, -0.0000000000000000000, -1.000000000000000000 ) ) ;
#53 = EDGE_CURVE ( 'NONE', #229, #93, #102, .T. ) ;
#54 = FACE_OUTER_BOUND ( 'NONE', #44, .T. ) ;
#55 = CIRCLE ( 'NONE', #21, 0.1574804999999999955 ) ;
#56 = CARTESIAN_POINT ( 'NONE',  ( 0.0000000000000000000, 0.0000000000000000000, 0.0000000000000000000 ) ) ;
#57 = CYLINDRICAL_SURFACE ( 'NONE', #101, 0.1574804999999999955 ) ;
#58 = MANIFOLD_SOLID_BREP ( 'Cut-Revolve1', #46 ) ;
#59 = FACE_OUTER_BOUND ( 'NONE', #176, .T. ) ;
#60 = COLOUR_RGB ( '',0.7921568627450980005, 0.8196078431372548767, 0.9333333333333333481 ) ;
#61 = CONICAL_SURFACE ( 'NONE', #206, 0.1424804999999998989, 0.7853981633974608245 ) ;
#62 = CARTESIAN_POINT ( 'NONE',  ( 0.0000000000000000000, 0.0000000000000000000, 0.0000000000000000000 ) ) ;
#63 = PRODUCT_DEFINITION_SHAPE ( 'NONE', 'NONE',  #180 ) ;
#64 = EDGE_LOOP ( 'NONE', ( #74, #99 ) ) ;
#65 = CIRCLE ( 'NONE', #232, 0.1179918899999999882 ) ;
#66 = APPLICATION_PROTOCOL_DEFINITION ( 'draft international standard', 'automotive_design', 1998, #5 ) ;
#67 = CONICAL_SURFACE ( 'NONE', #261, 0.1424804999999998989, 0.7853981633974608245 ) ;
#68 = ORIENTED_EDGE ( 'NONE', *, *, #298, .T. ) ;
#69 = CARTESIAN_POINT ( 'NONE',  ( 0.1574804999999999955, 1.928579902531247412E-17, 3.740156999999999954 ) ) ;
#70 = UNCERTAINTY_MEASURE_WITH_UNIT (LENGTH_MEASURE( 1.000000000000000082E-05 ), #111, 'distance_accuracy_value', 'NONE');
#71 = AXIS2_PLACEMENT_3D ( 'NONE', #56, #106, #292 ) ;
#72 = DIRECTION ( 'NONE',  ( 0.0000000000000000000, 0.0000000000000000000, 1.000000000000000000 ) ) ;
#73 = PRODUCT_RELATED_PRODUCT_CATEGORY ( 'part', '', ( #50 ) ) ;
#74 = ORIENTED_EDGE ( 'NONE', *, *, #293, .T. ) ;
#75 = APPLICATION_PROTOCOL_DEFINITION ( 'draft international standard', 'automotive_design', 1998, #39 ) ;
#76 =( CONVERSION_BASED_UNIT ( 'INCH', #281 ) LENGTH_UNIT ( ) NAMED_UNIT ( #189 ) );
#77 = LINE ( 'NONE', #69, #177 ) ;
#78 = AXIS2_PLACEMENT_3D ( 'NONE', #86, #299, #96 ) ;
#79 = CARTESIAN_POINT ( 'NONE',  ( -0.1574804999999999955, 0.0000000000000000000, 3.725156999999999829 ) ) ;
#80 = EDGE_CURVE ( 'NONE', #93, #179, #77, .T. ) ;
#81 = DIRECTION ( 'NONE',  ( -1.000000000000000000, 0.0000000000000000000, 1.224646799147353454E-16 ) ) ;
#82 = DIRECTION ( 'NONE',  ( -1.000000000000000000, 0.0000000000000000000, 0.0000000000000000000 ) ) ;
#83 = AXIS2_PLACEMENT_3D ( 'NONE', #262, #181, #187 ) ;
#84 = ADVANCED_FACE ( 'NONE', ( #208 ), #277, .T. ) ;
#85 = DIRECTION ( 'NONE',  ( -1.224646799147353207E-16, -0.0000000000000000000, -1.000000000000000000 ) ) ;
#86 = CARTESIAN_POINT ( 'NONE',  ( 0.0000000000000000000, 0.0000000000000000000, 0.0000000000000000000 ) ) ;
#87 = SURFACE_STYLE_USAGE ( .BOTH. , #201 ) ;
#88 = VERTEX_POINT ( 'NONE', #119 ) ;
#89 = EDGE_CURVE ( 'NONE', #163, #204, #147, .T. ) ;
#90 = LENGTH_MEASURE_WITH_UNIT ( LENGTH_MEASURE( 0.02539999999999999897 ), #115 );
#91 = DIRECTION ( 'NONE',  ( 1.000000000000000000, 0.0000000000000000000, 0.0000000000000000000 ) ) ;
#92 = ORIENTED_EDGE ( 'NONE', *, *, #23, .T. ) ;
#93 = VERTEX_POINT ( 'NONE', #237 ) ;
#94 = AXIS2_PLACEMENT_3D ( 'NONE', #197, #209, #242 ) ;
#95 = EDGE_CURVE ( 'NONE', #88, #179, #127, .T. ) ;
#96 = DIRECTION ( 'NONE',  ( -1.000000000000000000, 0.0000000000000000000, 1.224646799147353454E-16 ) ) ;
#97 = DIRECTION ( 'NONE',  ( 1.000000000000000000, 0.0000000000000000000, 0.0000000000000000000 ) ) ;
#98 = DIRECTION ( 'NONE',  ( -0.0000000000000000000, -0.0000000000000000000, -1.000000000000000000 ) ) ;
#99 = ORIENTED_EDGE ( 'NONE', *, *, #236, .T. ) ;
#100 = EDGE_CURVE ( 'NONE', #182, #134, #33, .T. ) ;
#101 = AXIS2_PLACEMENT_3D ( 'NONE', #198, #169, #32 ) ;
#102 = LINE ( 'NONE', #6, #207 ) ;
#103 = CARTESIAN_POINT ( 'NONE',  ( 9.642893389422242582E-17, 0.0000000000000000000, 0.7874019999999999353 ) ) ;
#104 = CARTESIAN_POINT ( 'NONE',  ( 0.0000000000000000000, 0.0000000000000000000, 3.725156999999999829 ) ) ;
#105 = VECTOR ( 'NONE', #133, 39.37007874015747433 ) ;
#106 = DIRECTION ( 'NONE',  ( -1.224646799147353207E-16, -0.0000000000000000000, -1.000000000000000000 ) ) ;
#107 = FACE_OUTER_BOUND ( 'NONE', #19, .T. ) ;
#108 = EDGE_CURVE ( 'NONE', #163, #93, #122, .T. ) ;
#109 = LINE ( 'NONE', #9, #222 ) ;
#110 = CYLINDRICAL_SURFACE ( 'NONE', #78, 0.1179918899999999882 ) ;
#111 =( CONVERSION_BASED_UNIT ( 'INCH', #36 ) LENGTH_UNIT ( ) NAMED_UNIT ( #210 ) );
#112 = PRESENTATION_STYLE_ASSIGNMENT (( #87 ) ) ;
#113 = DIRECTION ( 'NONE',  ( -1.000000000000000000, 0.0000000000000000000, 0.0000000000000000000 ) ) ;
#114 = EDGE_LOOP ( 'NONE', ( #238, #221, #200, #137 ) ) ;
#115 =( LENGTH_UNIT ( ) NAMED_UNIT ( * ) SI_UNIT ( $, .METRE. ) );
#116 = ORIENTED_EDGE ( 'NONE', *, *, #80, .F. ) ;
#117 = CIRCLE ( 'NONE', #83, 0.1179918899999999882 ) ;
#118 = ORIENTED_EDGE ( 'NONE', *, *, #241, .F. ) ;
#119 = CARTESIAN_POINT ( 'NONE',  ( 0.1179918900000000992, 0.0000000000000000000, 0.7874019999999999353 ) ) ;
#120 = ORIENTED_EDGE ( 'NONE', *, *, #95, .F. ) ;
#121 = FACE_OUTER_BOUND ( 'NONE', #132, .T. ) ;
#122 = CIRCLE ( 'NONE', #160, 0.1574804999999999955 ) ;
#123 =( LENGTH_UNIT ( ) NAMED_UNIT ( * ) SI_UNIT ( $, .METRE. ) );
#124 = CARTESIAN_POINT ( 'NONE',  ( -0.1424804999999998989, 0.0000000000000000000, 3.740156999999999954 ) ) ;
#125 = DIRECTION ( 'NONE',  ( 0.0000000000000000000, 0.0000000000000000000, -1.000000000000000000 ) ) ;
#126 = EDGE_LOOP ( 'NONE', ( #139, #30 ) ) ;
#127 = LINE ( 'NONE', #286, #8 ) ;
#128 = DIRECTION ( 'NONE',  ( 1.000000000000000000, 0.0000000000000000000, 0.0000000000000000000 ) ) ;
#129 = CARTESIAN_POINT ( 'NONE',  ( 9.642893389422242582E-17, 0.0000000000000000000, 0.7874019999999999353 ) ) ;
#130 = COLOUR_RGB ( '',0.7921568627450980005, 0.8196078431372548767, 0.9333333333333333481 ) ;
#131 = DIRECTION ( 'NONE',  ( -1.000000000000000000, 0.0000000000000000000, 0.0000000000000000000 ) ) ;
#132 = EDGE_LOOP ( 'NONE', ( #164, #253, #22, #120 ) ) ;
#133 = DIRECTION ( 'NONE',  ( -0.1736481776669311639, 2.126576849575783008E-17, 0.9848077530122080203 ) ) ;
#134 = VERTEX_POINT ( 'NONE', #265 ) ;
#135 = CARTESIAN_POINT ( 'NONE',  ( -0.1179918899999998910, 1.444983904138465938E-17, 0.7874019999999999353 ) ) ;
#136 = ADVANCED_FACE ( 'NONE', ( #29 ), #233, .T. ) ;
#137 = ORIENTED_EDGE ( 'NONE', *, *, #170, .F. ) ;
#138 = DIRECTION ( 'NONE',  ( -1.000000000000000000, 0.0000000000000000000, 1.224646799147353454E-16 ) ) ;
#139 = ORIENTED_EDGE ( 'NONE', *, *, #283, .T. ) ;
#140 = AXIS2_PLACEMENT_3D ( 'NONE', #51, #203, #167 ) ;
#141 =( NAMED_UNIT ( * ) PLANE_ANGLE_UNIT ( ) SI_UNIT ( $, .RADIAN. ) );
#142 = ADVANCED_FACE ( 'NONE', ( #107 ), #67, .T. ) ;
#143 = ORIENTED_EDGE ( 'NONE', *, *, #89, .F. ) ;
#144 = SURFACE_SIDE_STYLE ('',( #260 ) ) ;
#145 = STYLED_ITEM ( 'NONE', ( #28 ), #58 ) ;
#146 = ORIENTED_EDGE ( 'NONE', *, *, #298, .F. ) ;
#147 = LINE ( 'NONE', #2, #47 ) ;
#148 = DIRECTION ( 'NONE',  ( 1.000000000000000000, 0.0000000000000000000, 0.0000000000000000000 ) ) ;
#149 = AXIS2_PLACEMENT_3D ( 'NONE', #129, #34, #128 ) ;
#150 = CIRCLE ( 'NONE', #256, 0.1424804999999998989 ) ;
#151 = DIRECTION ( 'NONE',  ( -1.224646799147353207E-16, -0.0000000000000000000, -1.000000000000000000 ) ) ;
#152 = CARTESIAN_POINT ( 'NONE',  ( 0.0000000000000000000, 0.0000000000000000000, 3.740156999999999954 ) ) ;
#153 = FACE_OUTER_BOUND ( 'NONE', #126, .T. ) ;
#154 = CARTESIAN_POINT ( 'NONE',  ( 0.1574805000000001343, 1.928579902531249261E-17, 1.011353035974972725 ) ) ;
#155 = DIRECTION ( 'NONE',  ( -1.224646799147353207E-16, -0.0000000000000000000, -1.000000000000000000 ) ) ;
#156 = VERTEX_POINT ( 'NONE', #124 ) ;
#157 =( NAMED_UNIT ( * ) SI_UNIT ( $, .STERADIAN. ) SOLID_ANGLE_UNIT ( ) );
#158 = ORIENTED_EDGE ( 'NONE', *, *, #247, .F. ) ;
#159 = ORIENTED_EDGE ( 'NONE', *, *, #89, .T. ) ;
#160 = AXIS2_PLACEMENT_3D ( 'NONE', #10, #245, #291 ) ;
#161 = FILL_AREA_STYLE ('',( #18 ) ) ;
#162 = ORIENTED_EDGE ( 'NONE', *, *, #272, .F. ) ;
#163 = VERTEX_POINT ( 'NONE', #79 ) ;
#164 = ORIENTED_EDGE ( 'NONE', *, *, #31, .F. ) ;
#165 = AXIS2_PLACEMENT_3D ( 'NONE', #278, #72, #235 ) ;
#166 = CIRCLE ( 'NONE', #239, 0.1574804999999999955 ) ;
#167 = DIRECTION ( 'NONE',  ( -1.000000000000000000, 0.0000000000000000000, 0.0000000000000000000 ) ) ;
#168 = CARTESIAN_POINT ( 'NONE',  ( -0.1574804999999998567, 0.0000000000000000000, 1.011353035974972725 ) ) ;
#169 = DIRECTION ( 'NONE',  ( -0.0000000000000000000, -0.0000000000000000000, -1.000000000000000000 ) ) ;
#170 = EDGE_CURVE ( 'NONE', #156, #163, #109, .T. ) ;
#171 = DIRECTION ( 'NONE',  ( 1.000000000000000000, 0.0000000000000000000, -0.0000000000000000000 ) ) ;
#172 = LINE ( 'NONE', #240, #27 ) ;
#173 = CARTESIAN_POINT ( 'NONE',  ( 0.0000000000000000000, 0.0000000000000000000, 3.740156999999999954 ) ) ;
#174 = ORIENTED_EDGE ( 'NONE', *, *, #170, .T. ) ;
#175 =( NAMED_UNIT ( * ) PLANE_ANGLE_UNIT ( ) SI_UNIT ( $, .RADIAN. ) );
#176 = EDGE_LOOP ( 'NONE', ( #158, #68, #1, #294 ) ) ;
#177 = VECTOR ( 'NONE', #24, 39.37007874015748143 ) ;
#178 =( NAMED_UNIT ( * ) PLANE_ANGLE_UNIT ( ) SI_UNIT ( $, .RADIAN. ) );
#179 = VERTEX_POINT ( 'NONE', #154 ) ;
#180 = PRODUCT_DEFINITION ( 'UNKNOWN', '', #228, #279 ) ;
#181 = DIRECTION ( 'NONE',  ( -1.224646799147353207E-16, -0.0000000000000000000, -1.000000000000000000 ) ) ;
#182 = VERTEX_POINT ( 'NONE', #267 ) ;
#183 = AXIS2_PLACEMENT_3D ( 'NONE', #12, #151, #148 ) ;
#184 = DIRECTION ( 'NONE',  ( 0.7071067811865563435, 8.659560562355041327E-17, -0.7071067811865386910 ) ) ;
#185 = ORIENTED_EDGE ( 'NONE', *, *, #31, .T. ) ;
#186 = FILL_AREA_STYLE ('',( #280 ) ) ;
#187 = DIRECTION ( 'NONE',  ( -1.000000000000000000, 0.0000000000000000000, 0.0000000000000000000 ) ) ;
#188 = AXIS2_PLACEMENT_3D ( 'NONE', #103, #255, #43 ) ;
#189 = DIMENSIONAL_EXPONENTS ( 1.000000000000000000, 0.0000000000000000000, 0.0000000000000000000, 0.0000000000000000000, 0.0000000000000000000, 0.0000000000000000000, 0.0000000000000000000 ) ;
#190 =( GEOMETRIC_REPRESENTATION_CONTEXT ( 3 ) GLOBAL_UNCERTAINTY_ASSIGNED_CONTEXT ( ( #25 ) ) GLOBAL_UNIT_ASSIGNED_CONTEXT ( ( #297, #178, #14 ) ) REPRESENTATION_CONTEXT ( 'NONE', 'WORKASPACE' ) );
#191 = DIRECTION ( 'NONE',  ( 0.0000000000000000000, 0.0000000000000000000, -1.000000000000000000 ) ) ;
#192 = DIRECTION ( 'NONE',  ( 0.0000000000000000000, 0.0000000000000000000, 1.000000000000000000 ) ) ;
#193 = CYLINDRICAL_SURFACE ( 'NONE', #71, 0.1179918899999999882 ) ;
#194 = DIMENSIONAL_EXPONENTS ( 1.000000000000000000, 0.0000000000000000000, 0.0000000000000000000, 0.0000000000000000000, 0.0000000000000000000, 0.0000000000000000000, 0.0000000000000000000 ) ;
#195 = MECHANICAL_DESIGN_GEOMETRIC_PRESENTATION_REPRESENTATION (  '', ( #145 ), #273 ) ;
#196 = CIRCLE ( 'NONE', #17, 0.1179918899999999882 ) ;
#197 = CARTESIAN_POINT ( 'NONE',  ( 0.0000000000000000000, 0.0000000000000000000, 0.0000000000000000000 ) ) ;
#198 = CARTESIAN_POINT ( 'NONE',  ( 0.0000000000000000000, 0.0000000000000000000, 3.740156999999999954 ) ) ;
#199 = CARTESIAN_POINT ( 'NONE',  ( 0.0000000000000000000, 0.0000000000000000000, 3.740156999999999954 ) ) ;
#200 = ORIENTED_EDGE ( 'NONE', *, *, #108, .F. ) ;
#201 = SURFACE_SIDE_STYLE ('',( #246 ) ) ;
#202 = CIRCLE ( 'NONE', #183, 0.1574804999999999955 ) ;
#203 = DIRECTION ( 'NONE',  ( -0.0000000000000000000, -0.0000000000000000000, -1.000000000000000000 ) ) ;
#204 = VERTEX_POINT ( 'NONE', #168 ) ;
#205 = CARTESIAN_POINT ( 'NONE',  ( 1.238550258314708458E-16, 0.0000000000000000000, 1.011353035974972725 ) ) ;
#206 = AXIS2_PLACEMENT_3D ( 'NONE', #20, #295, #131 ) ;
#207 = VECTOR ( 'NONE', #184, 39.37007874015748143 ) ;
#208 = FACE_OUTER_BOUND ( 'NONE', #230, .T. ) ;
#209 = DIRECTION ( 'NONE',  ( 0.0000000000000000000, 0.0000000000000000000, 1.000000000000000000 ) ) ;
#210 = DIMENSIONAL_EXPONENTS ( 1.000000000000000000, 0.0000000000000000000, 0.0000000000000000000, 0.0000000000000000000, 0.0000000000000000000, 0.0000000000000000000, 0.0000000000000000000 ) ;
#211 = ADVANCED_FACE ( 'NONE', ( #59 ), #193, .T. ) ;
#212 = DIRECTION ( 'NONE',  ( -0.7071067811865563435, 0.0000000000000000000, -0.7071067811865386910 ) ) ;
#213 = DIRECTION ( 'NONE',  ( -1.224646799147353207E-16, -0.0000000000000000000, -1.000000000000000000 ) ) ;
#214 = DIRECTION ( 'NONE',  ( 0.1736481776669313581, 0.0000000000000000000, 0.9848077530122077983 ) ) ;
#215 = CIRCLE ( 'NONE', #165, 0.1424804999999998989 ) ;
#216 = ADVANCED_FACE ( 'NONE', ( #153 ), #289, .T. ) ;
#217 = ADVANCED_BREP_SHAPE_REPRESENTATION ( 'Micro_SFPM-060-60', ( #58, #223 ), #244 ) ;
#218 = AXIS2_PLACEMENT_3D ( 'NONE', #152, #192, #171 ) ;
#219 = FACE_OUTER_BOUND ( 'NONE', #268, .T. ) ;
#220 = FACE_OUTER_BOUND ( 'NONE', #114, .T. ) ;
#221 = ORIENTED_EDGE ( 'NONE', *, *, #53, .T. ) ;
#222 = VECTOR ( 'NONE', #212, 39.37007874015748143 ) ;
#223 = AXIS2_PLACEMENT_3D ( 'NONE', #62, #282, #97 ) ;
#224 = CARTESIAN_POINT ( 'NONE',  ( 1.769594913022618037E-33, 0.0000000000000000000, 1.444983904138465938E-17 ) ) ;
#225 = ORIENTED_EDGE ( 'NONE', *, *, #53, .F. ) ;
#226 = ADVANCED_FACE ( 'NONE', ( #243 ), #264, .F. ) ;
#227 = ORIENTED_EDGE ( 'NONE', *, *, #258, .F. ) ;
#228 = PRODUCT_DEFINITION_FORMATION_WITH_SPECIFIED_SOURCE ( 'ANY', '', #50, .NOT_KNOWN. ) ;
#229 = VERTEX_POINT ( 'NONE', #287 ) ;
#230 = EDGE_LOOP ( 'NONE', ( #296, #250, #227, #143 ) ) ;
#231 = SURFACE_STYLE_USAGE ( .BOTH. , #144 ) ;
#232 = AXIS2_PLACEMENT_3D ( 'NONE', #270, #15, #113 ) ;
#233 = CONICAL_SURFACE ( 'NONE', #149, 0.1179918899999999882, 0.1745329251994338637 ) ;
#234 =( NAMED_UNIT ( * ) SI_UNIT ( $, .STERADIAN. ) SOLID_ANGLE_UNIT ( ) );
#235 = DIRECTION ( 'NONE',  ( 1.000000000000000000, 0.0000000000000000000, 0.0000000000000000000 ) ) ;
#236 = EDGE_CURVE ( 'NONE', #248, #134, #196, .T. ) ;
#237 = CARTESIAN_POINT ( 'NONE',  ( 0.1574804999999999955, 1.928579902531247412E-17, 3.725156999999999829 ) ) ;
#238 = ORIENTED_EDGE ( 'NONE', *, *, #13, .F. ) ;
#239 = AXIS2_PLACEMENT_3D ( 'NONE', #104, #191, #263 ) ;
#240 = CARTESIAN_POINT ( 'NONE',  ( 0.1179918899999999882, 1.444983904138465938E-17, -1.444983904138465938E-17 ) ) ;
#241 = EDGE_CURVE ( 'NONE', #93, #163, #166, .T. ) ;
#242 = DIRECTION ( 'NONE',  ( 1.000000000000000000, 0.0000000000000000000, -0.0000000000000000000 ) ) ;
#243 = FACE_OUTER_BOUND ( 'NONE', #64, .T. ) ;
#244 =( GEOMETRIC_REPRESENTATION_CONTEXT ( 3 ) GLOBAL_UNCERTAINTY_ASSIGNED_CONTEXT ( ( #70 ) ) GLOBAL_UNIT_ASSIGNED_CONTEXT ( ( #111, #175, #157 ) ) REPRESENTATION_CONTEXT ( 'NONE', 'WORKASPACE' ) );
#245 = DIRECTION ( 'NONE',  ( 0.0000000000000000000, 0.0000000000000000000, -1.000000000000000000 ) ) ;
#246 = SURFACE_STYLE_FILL_AREA ( #161 ) ;
#247 = EDGE_CURVE ( 'NONE', #88, #248, #172, .T. ) ;
#248 = VERTEX_POINT ( 'NONE', #266 ) ;
#249 = DIRECTION ( 'NONE',  ( 0.0000000000000000000, 0.0000000000000000000, 1.000000000000000000 ) ) ;
#250 = ORIENTED_EDGE ( 'NONE', *, *, #80, .T. ) ;
#251 = LINE ( 'NONE', #135, #105 ) ;
#252 = MECHANICAL_DESIGN_GEOMETRIC_PRESENTATION_REPRESENTATION (  '', ( #42 ), #190 ) ;
#253 = ORIENTED_EDGE ( 'NONE', *, *, #272, .T. ) ;
#254 = ADVANCED_FACE ( 'NONE', ( #219 ), #57, .T. ) ;
#255 = DIRECTION ( 'NONE',  ( 1.224646799147353207E-16, 0.0000000000000000000, 1.000000000000000000 ) ) ;
#256 = AXIS2_PLACEMENT_3D ( 'NONE', #199, #249, #91 ) ;
#257 = AXIS2_PLACEMENT_3D ( 'NONE', #224, #155, #138 ) ;
#258 = EDGE_CURVE ( 'NONE', #204, #179, #202, .T. ) ;
#259 = ORIENTED_EDGE ( 'NONE', *, *, #100, .F. ) ;
#260 = SURFACE_STYLE_FILL_AREA ( #186 ) ;
#261 = AXIS2_PLACEMENT_3D ( 'NONE', #173, #125, #82 ) ;
#262 = CARTESIAN_POINT ( 'NONE',  ( 9.642893389422242582E-17, 0.0000000000000000000, 0.7874019999999999353 ) ) ;
#263 = DIRECTION ( 'NONE',  ( 1.000000000000000000, 0.0000000000000000000, 0.0000000000000000000 ) ) ;
#264 = PLANE ( 'NONE',  #94 ) ;
#265 = CARTESIAN_POINT ( 'NONE',  ( -0.1179918899999999882, 0.0000000000000000000, 2.889967808276931875E-17 ) ) ;
#266 = CARTESIAN_POINT ( 'NONE',  ( 0.1179918899999999882, 1.444983904138465938E-17, 0.0000000000000000000 ) ) ;
#267 = CARTESIAN_POINT ( 'NONE',  ( -0.1179918899999998910, 1.686781903334856521E-17, 0.7874019999999999353 ) ) ;
#268 = EDGE_LOOP ( 'NONE', ( #116, #4, #159, #37 ) ) ;
#269 = ADVANCED_FACE ( 'NONE', ( #54 ), #110, .T. ) ;
#270 = CARTESIAN_POINT ( 'NONE',  ( 9.642893389422242582E-17, 0.0000000000000000000, 0.7874019999999999353 ) ) ;
#271 = EDGE_LOOP ( 'NONE', ( #162, #146, #276, #92 ) ) ;
#272 = EDGE_CURVE ( 'NONE', #182, #204, #251, .T. ) ;
#273 =( GEOMETRIC_REPRESENTATION_CONTEXT ( 3 ) GLOBAL_UNCERTAINTY_ASSIGNED_CONTEXT ( ( #275 ) ) GLOBAL_UNIT_ASSIGNED_CONTEXT ( ( #76, #141, #234 ) ) REPRESENTATION_CONTEXT ( 'NONE', 'WORKASPACE' ) );
#274 = ORIENTED_EDGE ( 'NONE', *, *, #293, .F. ) ;
#275 = UNCERTAINTY_MEASURE_WITH_UNIT (LENGTH_MEASURE( 1.000000000000000082E-05 ), #76, 'distance_accuracy_value', 'NONE');
#276 = ORIENTED_EDGE ( 'NONE', *, *, #95, .T. ) ;
#277 = CYLINDRICAL_SURFACE ( 'NONE', #140, 0.1574804999999999955 ) ;
#278 = CARTESIAN_POINT ( 'NONE',  ( 0.0000000000000000000, 0.0000000000000000000, 3.740156999999999954 ) ) ;
#279 = PRODUCT_DEFINITION_CONTEXT ( 'detailed design', #39, 'design' ) ;
#280 = FILL_AREA_STYLE_COLOUR ( '', #60 ) ;
#281 = LENGTH_MEASURE_WITH_UNIT ( LENGTH_MEASURE( 0.02539999999999999897 ), #123 );
#282 = DIRECTION ( 'NONE',  ( 0.0000000000000000000, 0.0000000000000000000, 1.000000000000000000 ) ) ;
#283 = EDGE_CURVE ( 'NONE', #156, #229, #150, .T. ) ;
#284 = CONICAL_SURFACE ( 'NONE', #188, 0.1179918899999999882, 0.1745329251994338637 ) ;
#285 = PRESENTATION_LAYER_ASSIGNMENT (  '', '', ( #42 ) ) ;
#286 = CARTESIAN_POINT ( 'NONE',  ( 0.1179918900000000992, 0.0000000000000000000, 0.7874019999999999353 ) ) ;
#287 = CARTESIAN_POINT ( 'NONE',  ( 0.1424804999999998989, 1.836731392595195200E-17, 3.740156999999999954 ) ) ;
#288 = ADVANCED_FACE ( 'NONE', ( #220 ), #61, .T. ) ;
#289 = PLANE ( 'NONE',  #218 ) ;
#290 = PRESENTATION_LAYER_ASSIGNMENT (  '', '', ( #145 ) ) ;
#291 = DIRECTION ( 'NONE',  ( 1.000000000000000000, 0.0000000000000000000, 0.0000000000000000000 ) ) ;
#292 = DIRECTION ( 'NONE',  ( -1.000000000000000000, 0.0000000000000000000, 1.224646799147353454E-16 ) ) ;
#293 = EDGE_CURVE ( 'NONE', #134, #248, #49, .T. ) ;
#294 = ORIENTED_EDGE ( 'NONE', *, *, #236, .F. ) ;
#295 = DIRECTION ( 'NONE',  ( 0.0000000000000000000, 0.0000000000000000000, -1.000000000000000000 ) ) ;
#296 = ORIENTED_EDGE ( 'NONE', *, *, #108, .T. ) ;
#297 =( CONVERSION_BASED_UNIT ( 'INCH', #90 ) LENGTH_UNIT ( ) NAMED_UNIT ( #194 ) );
#298 = EDGE_CURVE ( 'NONE', #88, #182, #65, .T. ) ;
#299 = DIRECTION ( 'NONE',  ( -1.224646799147353207E-16, -0.0000000000000000000, -1.000000000000000000 ) ) ;
ENDSEC;
END-ISO-10303-21;
