ISO-10303-21;
HEADER;
FILE_DESCRIPTION (( 'STEP AP214' ),
    '1' );
FILE_NAME ('59572.STEP',
    '2023-07-24T15:11:55',
    ( '' ),
    ( '' ),
    'SwSTEP 2.0',
    'SolidWorks 2023',
    '' );
FILE_SCHEMA (( 'AUTOMOTIVE_DESIGN' ));
ENDSEC;

DATA;
#1 = CARTESIAN_POINT ( 'NONE',  ( -1.469576158976823750E-15, 75.00000000000000000, 0.000000000000000000 ) ) ;
#2 = ORIENTED_EDGE ( 'NONE', *, *, #51, .F. ) ;
#3 = LINE ( 'NONE', #277, #200 ) ;
#4 = MANIFOLD_SOLID_BREP ( 'Revolve - Tool Body (Straight Shanked)', #204 ) ;
#5 = ADVANCED_FACE ( 'NONE', ( #143 ), #205, .T. ) ;
#6 = COLOUR_RGB ( '',1.000000000000000000, 0.000000000000000000, 0.000000000000000000 ) ;
#7 = DIRECTION ( 'NONE',  ( 1.223542297630008506E-16, -1.000000000000000000, 0.000000000000000000 ) ) ;
#8 = EDGE_LOOP ( 'NONE', ( #91, #238, #182, #329 ) ) ;
#9 = PLANE ( 'NONE',  #174 ) ;
#10 = DIRECTION ( 'NONE',  ( 0.000000000000000000, 0.000000000000000000, -1.000000000000000000 ) ) ;
#11 = UNCERTAINTY_MEASURE_WITH_UNIT (LENGTH_MEASURE( 1.000000000000000082E-05 ), #234, 'distance_accuracy_value', 'NONE');
#12 = MECHANICAL_DESIGN_GEOMETRIC_PRESENTATION_REPRESENTATION (  '', ( #223 ), #231 ) ;
#13 =( NAMED_UNIT ( * ) PLANE_ANGLE_UNIT ( ) SI_UNIT ( $, .RADIAN. ) );
#14 = FILL_AREA_STYLE ('',( #171 ) ) ;
#15 = DIRECTION ( 'NONE',  ( -1.223542297630008506E-16, 1.000000000000000000, -0.000000000000000000 ) ) ;
#16 = CARTESIAN_POINT ( 'NONE',  ( 0.000000000000000000, 0.5000000000000000000, -4.000000000000000000 ) ) ;
#17 = SURFACE_STYLE_FILL_AREA ( #41 ) ;
#18 = AXIS2_PLACEMENT_3D ( 'NONE', #149, #151, #364 ) ;
#19 = DIRECTION ( 'NONE',  ( -1.000000000000000000, -1.223542297630008506E-16, 0.000000000000000000 ) ) ;
#20 = COLOUR_RGB ( '',1.000000000000000000, 0.000000000000000000, 0.000000000000000000 ) ;
#21 =( LENGTH_UNIT ( ) NAMED_UNIT ( * ) SI_UNIT ( .MILLI., .METRE. ) );
#22 = UNCERTAINTY_MEASURE_WITH_UNIT (LENGTH_MEASURE( 1.000000000000000082E-05 ), #314, 'distance_accuracy_value', 'NONE');
#23 = CARTESIAN_POINT ( 'NONE',  ( 0.000000000000000000, 0.000000000000000000, 0.000000000000000000 ) ) ;
#24 = AXIS2_PLACEMENT_3D ( 'NONE', #85, #290, #92 ) ;
#25 = PRODUCT_DEFINITION_FORMATION_WITH_SPECIFIED_SOURCE ( 'ANY', '', #169, .NOT_KNOWN. ) ;
#26 = SURFACE_SIDE_STYLE ('',( #203 ) ) ;
#27 = SURFACE_STYLE_USAGE ( .BOTH. , #291 ) ;
#28 = ORIENTED_EDGE ( 'NONE', *, *, #244, .T. ) ;
#29 = VERTEX_POINT ( 'NONE', #81 ) ;
#30 = UNCERTAINTY_MEASURE_WITH_UNIT (LENGTH_MEASURE( 1.000000000000000082E-05 ), #273, 'distance_accuracy_value', 'NONE');
#31 = DIRECTION ( 'NONE',  ( -1.223542297630008506E-16, 1.000000000000000000, -0.000000000000000000 ) ) ;
#32 = DIRECTION ( 'NONE',  ( 1.000000000000000000, 0.000000000000000000, 0.000000000000000000 ) ) ;
#33 = ORIENTED_EDGE ( 'NONE', *, *, #98, .T. ) ;
#34 = AXIS2_PLACEMENT_3D ( 'NONE', #254, #318, #285 ) ;
#35 = EDGE_LOOP ( 'NONE', ( #338, #184, #28, #2 ) ) ;
#36 = DIRECTION ( 'NONE',  ( 0.000000000000000000, 1.000000000000000000, 0.000000000000000000 ) ) ;
#37 =( GEOMETRIC_REPRESENTATION_CONTEXT ( 3 ) GLOBAL_UNCERTAINTY_ASSIGNED_CONTEXT ( ( #358 ) ) GLOBAL_UNIT_ASSIGNED_CONTEXT ( ( #183, #118, #88 ) ) REPRESENTATION_CONTEXT ( 'NONE', 'WORKASPACE' ) );
#38 = AXIS2_PLACEMENT_3D ( 'NONE', #140, #304, #251 ) ;
#39 =( NAMED_UNIT ( * ) SI_UNIT ( $, .STERADIAN. ) SOLID_ANGLE_UNIT ( ) );
#40 = EDGE_CURVE ( 'NONE', #29, #73, #155, .T. ) ;
#41 = FILL_AREA_STYLE ('',( #356 ) ) ;
#42 = PRODUCT_DEFINITION_SHAPE ( 'NONE', 'NONE',  #352 ) ;
#43 = FILL_AREA_STYLE_COLOUR ( '', #83 ) ;
#44 = EDGE_CURVE ( 'NONE', #208, #103, #199, .T. ) ;
#45 =( NAMED_UNIT ( * ) PLANE_ANGLE_UNIT ( ) SI_UNIT ( $, .RADIAN. ) );
#46 = FILL_AREA_STYLE_COLOUR ( '', #152 ) ;
#47 =( NAMED_UNIT ( * ) PLANE_ANGLE_UNIT ( ) SI_UNIT ( $, .RADIAN. ) );
#48 = DIRECTION ( 'NONE',  ( -1.223542297630008506E-16, 1.000000000000000000, -0.000000000000000000 ) ) ;
#49 = SURFACE_STYLE_FILL_AREA ( #14 ) ;
#50 = SURFACE_SIDE_STYLE ('',( #141 ) ) ;
#51 = EDGE_CURVE ( 'NONE', #237, #218, #137, .T. ) ;
#52 = PRESENTATION_STYLE_ASSIGNMENT (( #258 ) ) ;
#53 = ORIENTED_EDGE ( 'NONE', *, *, #313, .T. ) ;
#54 = EDGE_LOOP ( 'NONE', ( #33, #56 ) ) ;
#55 = DIRECTION ( 'NONE',  ( 1.000000000000000000, 0.000000000000000000, -1.224646799147353207E-16 ) ) ;
#56 = ORIENTED_EDGE ( 'NONE', *, *, #51, .T. ) ;
#57 = STYLED_ITEM ( 'NONE', ( #293 ), #326 ) ;
#58 = PRESENTATION_LAYER_ASSIGNMENT (  '', '', ( #129 ) ) ;
#59 = CARTESIAN_POINT ( 'NONE',  ( 0.000000000000000000, 0.000000000000000000, 0.000000000000000000 ) ) ;
#60 = DIRECTION ( 'NONE',  ( 0.000000000000000000, -0.000000000000000000, 1.000000000000000000 ) ) ;
#61 = ORIENTED_EDGE ( 'NONE', *, *, #213, .F. ) ;
#62 = STYLED_ITEM ( 'NONE', ( #74 ), #101 ) ;
#63 = CARTESIAN_POINT ( 'NONE',  ( -3.999999999999991562, 24.00000000000000000, 0.000000000000000000 ) ) ;
#64 = DIRECTION ( 'NONE',  ( 0.000000000000000000, 0.000000000000000000, -1.000000000000000000 ) ) ;
#65 = ORIENTED_EDGE ( 'NONE', *, *, #350, .F. ) ;
#66 = ADVANCED_FACE ( 'NONE', ( #343 ), #142, .T. ) ;
#67 =( NAMED_UNIT ( * ) PLANE_ANGLE_UNIT ( ) SI_UNIT ( $, .RADIAN. ) );
#68 = CARTESIAN_POINT ( 'NONE',  ( 0.000000000000000000, 0.000000000000000000, 0.000000000000000000 ) ) ;
#69 = VECTOR ( 'NONE', #172, 1000.000000000000000 ) ;
#70 = ADVANCED_FACE ( 'NONE', ( #232 ), #76, .T. ) ;
#71 = DIRECTION ( 'NONE',  ( -0.000000000000000000, -1.000000000000000000, -0.000000000000000000 ) ) ;
#72 = FILL_AREA_STYLE ('',( #279 ) ) ;
#73 = VERTEX_POINT ( 'NONE', #256 ) ;
#74 = PRESENTATION_STYLE_ASSIGNMENT (( #357 ) ) ;
#75 =( LENGTH_UNIT ( ) NAMED_UNIT ( * ) SI_UNIT ( .MILLI., .METRE. ) );
#76 = CYLINDRICAL_SURFACE ( 'NONE', #272, 3.999999999999998224 ) ;
#77 = DIRECTION ( 'NONE',  ( -1.223542297630008506E-16, 1.000000000000000000, -0.000000000000000000 ) ) ;
#78 = ORIENTED_EDGE ( 'NONE', *, *, #198, .F. ) ;
#79 = CLOSED_SHELL ( 'NONE', ( #101, #186, #287, #5, #66, #326 ) ) ;
#80 =( NAMED_UNIT ( * ) PLANE_ANGLE_UNIT ( ) SI_UNIT ( $, .RADIAN. ) );
#81 = CARTESIAN_POINT ( 'NONE',  ( 0.000000000000000000, 24.00000000000000000, -4.000000000000000000 ) ) ;
#82 = EDGE_CURVE ( 'NONE', #344, #202, #233, .T. ) ;
#83 = COLOUR_RGB ( '',1.000000000000000000, 0.000000000000000000, 0.000000000000000000 ) ;
#84 = CIRCLE ( 'NONE', #264, 4.000000000000000000 ) ;
#85 = CARTESIAN_POINT ( 'NONE',  ( -1.469576158976823750E-15, 75.00000000000000000, 0.000000000000000000 ) ) ;
#86 = DIRECTION ( 'NONE',  ( -0.000000000000000000, -1.000000000000000000, -0.000000000000000000 ) ) ;
#87 = ORIENTED_EDGE ( 'NONE', *, *, #248, .F. ) ;
#88 =( NAMED_UNIT ( * ) SI_UNIT ( $, .STERADIAN. ) SOLID_ANGLE_UNIT ( ) );
#89 = AXIS2_PLACEMENT_3D ( 'NONE', #68, #305, #278 ) ;
#90 = DIRECTION ( 'NONE',  ( -1.000000000000000000, 0.000000000000000000, 0.000000000000000000 ) ) ;
#91 = ORIENTED_EDGE ( 'NONE', *, *, #148, .F. ) ;
#92 = DIRECTION ( 'NONE',  ( -1.000000000000000000, 0.000000000000000000, 0.000000000000000000 ) ) ;
#93 = CIRCLE ( 'NONE', #328, 3.999999999999996447 ) ;
#94 = APPLICATION_PROTOCOL_DEFINITION ( 'draft international standard', 'automotive_design', 1998, #158 ) ;
#95 = EDGE_LOOP ( 'NONE', ( #239, #321, #105, #185 ) ) ;
#96 = UNCERTAINTY_MEASURE_WITH_UNIT (LENGTH_MEASURE( 1.000000000000000082E-05 ), #266, 'distance_accuracy_value', 'NONE');
#97 = STYLED_ITEM ( 'NONE', ( #52 ), #66 ) ;
#98 = EDGE_CURVE ( 'NONE', #218, #237, #159, .T. ) ;
#99 = AXIS2_PLACEMENT_3D ( 'NONE', #107, #245, #276 ) ;
#100 = DIRECTION ( 'NONE',  ( -0.000000000000000000, -1.000000000000000000, -0.000000000000000000 ) ) ;
#101 = ADVANCED_FACE ( 'NONE', ( #283 ), #247, .T. ) ;
#102 = FILL_AREA_STYLE_COLOUR ( '', #20 ) ;
#103 = VERTEX_POINT ( 'NONE', #150 ) ;
#104 =( NAMED_UNIT ( * ) SI_UNIT ( $, .STERADIAN. ) SOLID_ANGLE_UNIT ( ) );
#105 = ORIENTED_EDGE ( 'NONE', *, *, #163, .T. ) ;
#106 = CIRCLE ( 'NONE', #99, 3.999999999999996447 ) ;
#107 = CARTESIAN_POINT ( 'NONE',  ( 4.770489558936219510E-15, 24.00000000000000000, 0.000000000000000000 ) ) ;
#108 = SURFACE_SIDE_STYLE ('',( #274 ) ) ;
#109 = FACE_OUTER_BOUND ( 'NONE', #191, .T. ) ;
#110 = AXIS2_PLACEMENT_3D ( 'NONE', #235, #319, #335 ) ;
#111 = DIRECTION ( 'NONE',  ( 0.000000000000000000, 0.000000000000000000, -1.000000000000000000 ) ) ;
#112 = COLOUR_RGB ( '',1.000000000000000000, 0.000000000000000000, 0.000000000000000000 ) ;
#113 =( NAMED_UNIT ( * ) PLANE_ANGLE_UNIT ( ) SI_UNIT ( $, .RADIAN. ) );
#114 = FILL_AREA_STYLE ('',( #288 ) ) ;
#115 = VECTOR ( 'NONE', #77, 1000.000000000000000 ) ;
#116 = AXIS2_PLACEMENT_3D ( 'NONE', #195, #15, #246 ) ;
#117 = SURFACE_SIDE_STYLE ('',( #367 ) ) ;
#118 =( NAMED_UNIT ( * ) PLANE_ANGLE_UNIT ( ) SI_UNIT ( $, .RADIAN. ) );
#119 = DIRECTION ( 'NONE',  ( 0.000000000000000000, 0.000000000000000000, -1.000000000000000000 ) ) ;
#120 = ORIENTED_EDGE ( 'NONE', *, *, #244, .F. ) ;
#121 = AXIS2_PLACEMENT_3D ( 'NONE', #316, #360, #111 ) ;
#122 = DIRECTION ( 'NONE',  ( -1.224646799147353454E-16, 0.000000000000000000, -1.000000000000000000 ) ) ;
#123 = CIRCLE ( 'NONE', #38, 4.000000000000000000 ) ;
#124 =( NAMED_UNIT ( * ) PLANE_ANGLE_UNIT ( ) SI_UNIT ( $, .RADIAN. ) );
#125 = ADVANCED_FACE ( 'NONE', ( #366 ), #337, .T. ) ;
#126 =( NAMED_UNIT ( * ) SI_UNIT ( $, .STERADIAN. ) SOLID_ANGLE_UNIT ( ) );
#127 = EDGE_LOOP ( 'NONE', ( #320, #259, #87, #136 ) ) ;
#128 = SURFACE_STYLE_FILL_AREA ( #219 ) ;
#129 = STYLED_ITEM ( 'NONE', ( #253 ), #5 ) ;
#130 = PLANE ( 'NONE',  #146 ) ;
#131 = MECHANICAL_DESIGN_GEOMETRIC_PRESENTATION_REPRESENTATION (  '', ( #97 ), #37 ) ;
#132 = CARTESIAN_POINT ( 'NONE',  ( 4.000000000000000000, 75.00000000000000000, 4.898587196589412829E-16 ) ) ;
#133 = FACE_OUTER_BOUND ( 'NONE', #54, .T. ) ;
#134 =( LENGTH_UNIT ( ) NAMED_UNIT ( * ) SI_UNIT ( .MILLI., .METRE. ) );
#135 = MANIFOLD_SOLID_BREP ( 'Revolve - Cutting Edge', #79 ) ;
#136 = ORIENTED_EDGE ( 'NONE', *, *, #163, .F. ) ;
#137 = CIRCLE ( 'NONE', #216, 3.500000000000000000 ) ;
#138 = SURFACE_SIDE_STYLE ('',( #17 ) ) ;
#139 = VECTOR ( 'NONE', #300, 1000.000000000000000 ) ;
#140 = CARTESIAN_POINT ( 'NONE',  ( 0.000000000000000000, 0.5000000000000000000, 0.000000000000000000 ) ) ;
#141 = SURFACE_STYLE_FILL_AREA ( #176 ) ;
#142 = CYLINDRICAL_SURFACE ( 'NONE', #121, 4.000000000000000000 ) ;
#143 = FACE_OUTER_BOUND ( 'NONE', #35, .T. ) ;
#144 = DIRECTION ( 'NONE',  ( -1.000000000000000000, 0.000000000000000000, 0.000000000000000000 ) ) ;
#145 = COLOUR_RGB ( '',0.7921568627450980005, 0.8196078431372548767, 0.9333333333333333481 ) ;
#146 = AXIS2_PLACEMENT_3D ( 'NONE', #241, #7, #270 ) ;
#147 = CARTESIAN_POINT ( 'NONE',  ( 0.000000000000000000, 0.000000000000000000, 0.000000000000000000 ) ) ;
#148 = EDGE_CURVE ( 'NONE', #73, #103, #3, .T. ) ;
#149 = CARTESIAN_POINT ( 'NONE',  ( 0.000000000000000000, 0.5000000000000000000, 0.000000000000000000 ) ) ;
#150 = CARTESIAN_POINT ( 'NONE',  ( 4.898587196589412829E-16, 0.5000000000000000000, 4.000000000000000000 ) ) ;
#151 = DIRECTION ( 'NONE',  ( -0.000000000000000000, -1.000000000000000000, -0.000000000000000000 ) ) ;
#152 = COLOUR_RGB ( '',1.000000000000000000, 0.000000000000000000, 0.000000000000000000 ) ;
#153 = PRESENTATION_STYLE_ASSIGNMENT (( #27 ) ) ;
#154 = DIRECTION ( 'NONE',  ( 0.000000000000000000, -1.000000000000000000, -0.000000000000000000 ) ) ;
#155 = CIRCLE ( 'NONE', #34, 4.000000000000000000 ) ;
#156 = PRESENTATION_LAYER_ASSIGNMENT (  '', '', ( #57 ) ) ;
#157 = CARTESIAN_POINT ( 'NONE',  ( 4.000000000000000000, 24.00000000000000000, 4.898587196589413815E-16 ) ) ;
#158 = APPLICATION_CONTEXT ( 'automotive_design' ) ;
#159 = CIRCLE ( 'NONE', #89, 3.500000000000000000 ) ;
#160 = UNCERTAINTY_MEASURE_WITH_UNIT (LENGTH_MEASURE( 1.000000000000000082E-05 ), #75, 'distance_accuracy_value', 'NONE');
#161 = AXIS2_PLACEMENT_3D ( 'NONE', #240, #355, #308 ) ;
#162 = ORIENTED_EDGE ( 'NONE', *, *, #299, .T. ) ;
#163 = EDGE_CURVE ( 'NONE', #341, #354, #222, .T. ) ;
#164 = CARTESIAN_POINT ( 'NONE',  ( -4.000000000000003553, 75.00000000000000000, 0.000000000000000000 ) ) ;
#165 = ADVANCED_FACE ( 'NONE', ( #311 ), #224, .F. ) ;
#166 = APPLICATION_CONTEXT ( 'automotive_design' ) ;
#167 = CARTESIAN_POINT ( 'NONE',  ( 0.000000000000000000, 0.000000000000000000, -4.000000000000000000 ) ) ;
#168 =( GEOMETRIC_REPRESENTATION_CONTEXT ( 3 ) GLOBAL_UNCERTAINTY_ASSIGNED_CONTEXT ( ( #322 ) ) GLOBAL_UNIT_ASSIGNED_CONTEXT ( ( #207, #302, #209 ) ) REPRESENTATION_CONTEXT ( 'NONE', 'WORKASPACE' ) );
#169 = PRODUCT ( '59572', '59572', '', ( #325 ) ) ;
#170 = MECHANICAL_DESIGN_GEOMETRIC_PRESENTATION_REPRESENTATION (  '', ( #129 ), #370 ) ;
#171 = FILL_AREA_STYLE_COLOUR ( '', #145 ) ;
#172 = DIRECTION ( 'NONE',  ( -1.223542297630008506E-16, 1.000000000000000000, -0.000000000000000000 ) ) ;
#173 = DIRECTION ( 'NONE',  ( -0.000000000000000000, -1.000000000000000000, -0.000000000000000000 ) ) ;
#174 = AXIS2_PLACEMENT_3D ( 'NONE', #268, #154, #119 ) ;
#175 = FILL_AREA_STYLE ('',( #43 ) ) ;
#176 = FILL_AREA_STYLE ('',( #46 ) ) ;
#177 =( GEOMETRIC_REPRESENTATION_CONTEXT ( 3 ) GLOBAL_UNCERTAINTY_ASSIGNED_CONTEXT ( ( #160 ) ) GLOBAL_UNIT_ASSIGNED_CONTEXT ( ( #75, #45, #104 ) ) REPRESENTATION_CONTEXT ( 'NONE', 'WORKASPACE' ) );
#178 =( GEOMETRIC_REPRESENTATION_CONTEXT ( 3 ) GLOBAL_UNCERTAINTY_ASSIGNED_CONTEXT ( ( #96 ) ) GLOBAL_UNIT_ASSIGNED_CONTEXT ( ( #266, #124, #296 ) ) REPRESENTATION_CONTEXT ( 'NONE', 'WORKASPACE' ) );
#179 = EDGE_CURVE ( 'NONE', #103, #208, #123, .T. ) ;
#180 = DIRECTION ( 'NONE',  ( 0.000000000000000000, 0.000000000000000000, -1.000000000000000000 ) ) ;
#181 = FILL_AREA_STYLE ('',( #214 ) ) ;
#182 = ORIENTED_EDGE ( 'NONE', *, *, #198, .T. ) ;
#183 =( LENGTH_UNIT ( ) NAMED_UNIT ( * ) SI_UNIT ( .MILLI., .METRE. ) );
#184 = ORIENTED_EDGE ( 'NONE', *, *, #179, .T. ) ;
#185 = ORIENTED_EDGE ( 'NONE', *, *, #299, .F. ) ;
#186 = ADVANCED_FACE ( 'NONE', ( #109 ), #292, .T. ) ;
#187 = MECHANICAL_DESIGN_GEOMETRIC_PRESENTATION_REPRESENTATION (  '', ( #282 ), #177 ) ;
#188 = FACE_OUTER_BOUND ( 'NONE', #342, .T. ) ;
#189 = ORIENTED_EDGE ( 'NONE', *, *, #98, .F. ) ;
#190 = DIRECTION ( 'NONE',  ( -1.000000000000000000, 0.000000000000000000, 0.000000000000000000 ) ) ;
#191 = EDGE_LOOP ( 'NONE', ( #243, #53, #189, #120 ) ) ;
#192 = MECHANICAL_DESIGN_GEOMETRIC_PRESENTATION_REPRESENTATION (  '', ( #62 ), #317 ) ;
#193 = FACE_OUTER_BOUND ( 'NONE', #261, .T. ) ;
#194 = SURFACE_STYLE_USAGE ( .BOTH. , #353 ) ;
#195 = CARTESIAN_POINT ( 'NONE',  ( -1.469576158976823750E-15, 75.00000000000000000, 0.000000000000000000 ) ) ;
#196 = CARTESIAN_POINT ( 'NONE',  ( 0.000000000000000000, 0.000000000000000000, -3.500000000000000000 ) ) ;
#197 = SURFACE_SIDE_STYLE ('',( #228 ) ) ;
#198 = EDGE_CURVE ( 'NONE', #29, #208, #221, .T. ) ;
#199 = CIRCLE ( 'NONE', #18, 4.000000000000000000 ) ;
#200 = VECTOR ( 'NONE', #173, 1000.000000000000000 ) ;
#201 = UNCERTAINTY_MEASURE_WITH_UNIT (LENGTH_MEASURE( 1.000000000000000082E-05 ), #21, 'distance_accuracy_value', 'NONE');
#202 = VERTEX_POINT ( 'NONE', #132 ) ;
#203 = SURFACE_STYLE_FILL_AREA ( #114 ) ;
#204 = CLOSED_SHELL ( 'NONE', ( #70, #165, #125, #363 ) ) ;
#205 = TOROIDAL_SURFACE ( 'NONE', #110, 3.500000000000000000, 0.5000000000000000000 ) ;
#206 = DIRECTION ( 'NONE',  ( -0.000000000000000000, -1.000000000000000000, -0.000000000000000000 ) ) ;
#207 =( LENGTH_UNIT ( ) NAMED_UNIT ( * ) SI_UNIT ( .MILLI., .METRE. ) );
#208 = VERTEX_POINT ( 'NONE', #16 ) ;
#209 =( NAMED_UNIT ( * ) SI_UNIT ( $, .STERADIAN. ) SOLID_ANGLE_UNIT ( ) );
#210 = PRESENTATION_LAYER_ASSIGNMENT (  '', '', ( #361 ) ) ;
#211 = EDGE_LOOP ( 'NONE', ( #359, #61 ) ) ;
#212 = SHAPE_DEFINITION_REPRESENTATION ( #42, #309 ) ;
#213 = EDGE_CURVE ( 'NONE', #344, #341, #106, .T. ) ;
#214 = FILL_AREA_STYLE_COLOUR ( '', #112 ) ;
#215 = CARTESIAN_POINT ( 'NONE',  ( 0.000000000000000000, 24.00000000000000000, 0.000000000000000000 ) ) ;
#216 = AXIS2_PLACEMENT_3D ( 'NONE', #23, #86, #257 ) ;
#217 = AXIS2_PLACEMENT_3D ( 'NONE', #252, #71, #64 ) ;
#218 = VERTEX_POINT ( 'NONE', #196 ) ;
#219 = FILL_AREA_STYLE ('',( #102 ) ) ;
#220 = COLOUR_RGB ( '',0.7921568627450980005, 0.8196078431372548767, 0.9333333333333333481 ) ;
#221 = LINE ( 'NONE', #167, #139 ) ;
#222 = LINE ( 'NONE', #280, #69 ) ;
#223 = STYLED_ITEM ( 'NONE', ( #301 ), #287 ) ;
#224 = PLANE ( 'NONE',  #286 ) ;
#225 = CARTESIAN_POINT ( 'NONE',  ( 4.592425496802573972E-16, 0.000000000000000000, 3.500000000000000000 ) ) ;
#226 = PRESENTATION_STYLE_ASSIGNMENT (( #249 ) ) ;
#227 = SURFACE_STYLE_USAGE ( .BOTH. , #197 ) ;
#228 = SURFACE_STYLE_FILL_AREA ( #72 ) ;
#229 =( NAMED_UNIT ( * ) SI_UNIT ( $, .STERADIAN. ) SOLID_ANGLE_UNIT ( ) );
#230 = ORIENTED_EDGE ( 'NONE', *, *, #248, .T. ) ;
#231 =( GEOMETRIC_REPRESENTATION_CONTEXT ( 3 ) GLOBAL_UNCERTAINTY_ASSIGNED_CONTEXT ( ( #298 ) ) GLOBAL_UNIT_ASSIGNED_CONTEXT ( ( #134, #67, #39 ) ) REPRESENTATION_CONTEXT ( 'NONE', 'WORKASPACE' ) );
#232 = FACE_OUTER_BOUND ( 'NONE', #127, .T. ) ;
#233 = LINE ( 'NONE', #336, #115 ) ;
#234 =( LENGTH_UNIT ( ) NAMED_UNIT ( * ) SI_UNIT ( .MILLI., .METRE. ) );
#235 = CARTESIAN_POINT ( 'NONE',  ( 0.000000000000000000, 0.5000000000000000000, 0.000000000000000000 ) ) ;
#236 = CIRCLE ( 'NONE', #116, 4.000000000000001776 ) ;
#237 = VERTEX_POINT ( 'NONE', #225 ) ;
#238 = ORIENTED_EDGE ( 'NONE', *, *, #350, .T. ) ;
#239 = ORIENTED_EDGE ( 'NONE', *, *, #82, .F. ) ;
#240 = CARTESIAN_POINT ( 'NONE',  ( 0.000000000000000000, 0.5000000000000000000, -3.500000000000000000 ) ) ;
#241 = CARTESIAN_POINT ( 'NONE',  ( 4.000000000000000000, 75.00000000000000000, 0.000000000000000000 ) ) ;
#242 = CIRCLE ( 'NONE', #368, 4.000000000000001776 ) ;
#243 = ORIENTED_EDGE ( 'NONE', *, *, #44, .T. ) ;
#244 = EDGE_CURVE ( 'NONE', #208, #218, #339, .T. ) ;
#245 = DIRECTION ( 'NONE',  ( -1.223542297630008506E-16, 1.000000000000000000, -0.000000000000000000 ) ) ;
#246 = DIRECTION ( 'NONE',  ( -1.000000000000000000, 0.000000000000000000, 0.000000000000000000 ) ) ;
#247 = CYLINDRICAL_SURFACE ( 'NONE', #263, 4.000000000000000000 ) ;
#248 = EDGE_CURVE ( 'NONE', #354, #202, #236, .T. ) ;
#249 = SURFACE_STYLE_USAGE ( .BOTH. , #108 ) ;
#250 =( GEOMETRIC_REPRESENTATION_CONTEXT ( 3 ) GLOBAL_UNCERTAINTY_ASSIGNED_CONTEXT ( ( #30 ) ) GLOBAL_UNIT_ASSIGNED_CONTEXT ( ( #273, #13, #126 ) ) REPRESENTATION_CONTEXT ( 'NONE', 'WORKASPACE' ) );
#251 = DIRECTION ( 'NONE',  ( 0.000000000000000000, 0.000000000000000000, -1.000000000000000000 ) ) ;
#252 = CARTESIAN_POINT ( 'NONE',  ( 0.000000000000000000, 0.5000000000000000000, 0.000000000000000000 ) ) ;
#253 = PRESENTATION_STYLE_ASSIGNMENT (( #284 ) ) ;
#254 = CARTESIAN_POINT ( 'NONE',  ( 0.000000000000000000, 24.00000000000000000, 0.000000000000000000 ) ) ;
#255 = PRESENTATION_LAYER_ASSIGNMENT (  '', '', ( #223 ) ) ;
#256 = CARTESIAN_POINT ( 'NONE',  ( 4.898587196589412829E-16, 24.00000000000000000, 4.000000000000000000 ) ) ;
#257 = DIRECTION ( 'NONE',  ( 0.000000000000000000, 0.000000000000000000, -1.000000000000000000 ) ) ;
#258 = SURFACE_STYLE_USAGE ( .BOTH. , #26 ) ;
#259 = ORIENTED_EDGE ( 'NONE', *, *, #82, .T. ) ;
#260 = DIRECTION ( 'NONE',  ( -1.223542297630008506E-16, 1.000000000000000000, -0.000000000000000000 ) ) ;
#261 = EDGE_LOOP ( 'NONE', ( #230, #162 ) ) ;
#262 = COLOUR_RGB ( '',1.000000000000000000, 0.000000000000000000, 0.000000000000000000 ) ;
#263 = AXIS2_PLACEMENT_3D ( 'NONE', #147, #206, #180 ) ;
#264 = AXIS2_PLACEMENT_3D ( 'NONE', #271, #100, #10 ) ;
#265 = PRODUCT_RELATED_PRODUCT_CATEGORY ( 'part', '', ( #169 ) ) ;
#266 =( LENGTH_UNIT ( ) NAMED_UNIT ( * ) SI_UNIT ( .MILLI., .METRE. ) );
#267 = AXIS2_PLACEMENT_3D ( 'NONE', #215, #36, #60 ) ;
#268 = CARTESIAN_POINT ( 'NONE',  ( 0.000000000000000000, 0.000000000000000000, 0.000000000000000000 ) ) ;
#269 = ORIENTED_EDGE ( 'NONE', *, *, #40, .T. ) ;
#270 = DIRECTION ( 'NONE',  ( 1.000000000000000000, 1.223542297630008506E-16, 0.000000000000000000 ) ) ;
#271 = CARTESIAN_POINT ( 'NONE',  ( 0.000000000000000000, 24.00000000000000000, 0.000000000000000000 ) ) ;
#272 = AXIS2_PLACEMENT_3D ( 'NONE', #315, #48, #144 ) ;
#273 =( LENGTH_UNIT ( ) NAMED_UNIT ( * ) SI_UNIT ( .MILLI., .METRE. ) );
#274 = SURFACE_STYLE_FILL_AREA ( #175 ) ;
#275 = CIRCLE ( 'NONE', #312, 0.5000000000000000000 ) ;
#276 = DIRECTION ( 'NONE',  ( -1.000000000000000000, 0.000000000000000000, 0.000000000000000000 ) ) ;
#277 = CARTESIAN_POINT ( 'NONE',  ( 4.898587196589412829E-16, 0.000000000000000000, 4.000000000000000000 ) ) ;
#278 = DIRECTION ( 'NONE',  ( 0.000000000000000000, 0.000000000000000000, -1.000000000000000000 ) ) ;
#279 = FILL_AREA_STYLE_COLOUR ( '', #220 ) ;
#280 = CARTESIAN_POINT ( 'NONE',  ( -4.000000000000000000, 75.00000000000000000, 0.000000000000000000 ) ) ;
#281 = PRESENTATION_STYLE_ASSIGNMENT (( #227 ) ) ;
#282 = STYLED_ITEM ( 'NONE', ( #226 ), #186 ) ;
#283 = FACE_OUTER_BOUND ( 'NONE', #295, .T. ) ;
#284 = SURFACE_STYLE_USAGE ( .BOTH. , #50 ) ;
#285 = DIRECTION ( 'NONE',  ( 0.000000000000000000, 0.000000000000000000, -1.000000000000000000 ) ) ;
#286 = AXIS2_PLACEMENT_3D ( 'NONE', #330, #306, #19 ) ;
#287 = ADVANCED_FACE ( 'NONE', ( #133 ), #9, .T. ) ;
#288 = FILL_AREA_STYLE_COLOUR ( '', #262 ) ;
#289 = ORIENTED_EDGE ( 'NONE', *, *, #148, .T. ) ;
#290 = DIRECTION ( 'NONE',  ( -1.223542297630008506E-16, 1.000000000000000000, -0.000000000000000000 ) ) ;
#291 = SURFACE_SIDE_STYLE ('',( #49 ) ) ;
#292 = TOROIDAL_SURFACE ( 'NONE', #217, 3.500000000000000000, 0.5000000000000000000 ) ;
#293 = PRESENTATION_STYLE_ASSIGNMENT (( #340 ) ) ;
#294 = MECHANICAL_DESIGN_GEOMETRIC_PRESENTATION_REPRESENTATION (  '', ( #365 ), #307 ) ;
#295 = EDGE_LOOP ( 'NONE', ( #269, #289, #334, #78 ) ) ;
#296 =( NAMED_UNIT ( * ) SI_UNIT ( $, .STERADIAN. ) SOLID_ANGLE_UNIT ( ) );
#297 = ORIENTED_EDGE ( 'NONE', *, *, #40, .F. ) ;
#298 = UNCERTAINTY_MEASURE_WITH_UNIT (LENGTH_MEASURE( 1.000000000000000082E-05 ), #134, 'distance_accuracy_value', 'NONE');
#299 = EDGE_CURVE ( 'NONE', #202, #354, #242, .T. ) ;
#300 = DIRECTION ( 'NONE',  ( -0.000000000000000000, -1.000000000000000000, -0.000000000000000000 ) ) ;
#301 = PRESENTATION_STYLE_ASSIGNMENT (( #194 ) ) ;
#302 =( NAMED_UNIT ( * ) PLANE_ANGLE_UNIT ( ) SI_UNIT ( $, .RADIAN. ) );
#303 = MECHANICAL_DESIGN_GEOMETRIC_PRESENTATION_REPRESENTATION (  '', ( #361 ), #250 ) ;
#304 = DIRECTION ( 'NONE',  ( -0.000000000000000000, -1.000000000000000000, -0.000000000000000000 ) ) ;
#305 = DIRECTION ( 'NONE',  ( -0.000000000000000000, -1.000000000000000000, -0.000000000000000000 ) ) ;
#306 = DIRECTION ( 'NONE',  ( -1.223542297630008506E-16, 1.000000000000000000, 0.000000000000000000 ) ) ;
#307 =( GEOMETRIC_REPRESENTATION_CONTEXT ( 3 ) GLOBAL_UNCERTAINTY_ASSIGNED_CONTEXT ( ( #22 ) ) GLOBAL_UNIT_ASSIGNED_CONTEXT ( ( #314, #47, #331 ) ) REPRESENTATION_CONTEXT ( 'NONE', 'WORKASPACE' ) );
#308 = DIRECTION ( 'NONE',  ( 0.000000000000000000, 0.000000000000000000, 1.000000000000000000 ) ) ;
#309 = ADVANCED_BREP_SHAPE_REPRESENTATION ( '59572', ( #135, #4, #362 ), #178 ) ;
#310 = PRESENTATION_LAYER_ASSIGNMENT (  '', '', ( #97 ) ) ;
#311 = FACE_OUTER_BOUND ( 'NONE', #211, .T. ) ;
#312 = AXIS2_PLACEMENT_3D ( 'NONE', #324, #55, #122 ) ;
#313 = EDGE_CURVE ( 'NONE', #103, #237, #275, .T. ) ;
#314 =( LENGTH_UNIT ( ) NAMED_UNIT ( * ) SI_UNIT ( .MILLI., .METRE. ) );
#315 = CARTESIAN_POINT ( 'NONE',  ( -1.469576158976823750E-15, 75.00000000000000000, 0.000000000000000000 ) ) ;
#316 = CARTESIAN_POINT ( 'NONE',  ( 0.000000000000000000, 0.000000000000000000, 0.000000000000000000 ) ) ;
#317 =( GEOMETRIC_REPRESENTATION_CONTEXT ( 3 ) GLOBAL_UNCERTAINTY_ASSIGNED_CONTEXT ( ( #201 ) ) GLOBAL_UNIT_ASSIGNED_CONTEXT ( ( #21, #80, #229 ) ) REPRESENTATION_CONTEXT ( 'NONE', 'WORKASPACE' ) );
#318 = DIRECTION ( 'NONE',  ( -0.000000000000000000, -1.000000000000000000, -0.000000000000000000 ) ) ;
#319 = DIRECTION ( 'NONE',  ( -0.000000000000000000, -1.000000000000000000, -0.000000000000000000 ) ) ;
#320 = ORIENTED_EDGE ( 'NONE', *, *, #332, .T. ) ;
#321 = ORIENTED_EDGE ( 'NONE', *, *, #213, .T. ) ;
#322 = UNCERTAINTY_MEASURE_WITH_UNIT (LENGTH_MEASURE( 1.000000000000000082E-05 ), #207, 'distance_accuracy_value', 'NONE');
#323 = MECHANICAL_DESIGN_GEOMETRIC_PRESENTATION_REPRESENTATION (  '', ( #57 ), #168 ) ;
#324 = CARTESIAN_POINT ( 'NONE',  ( 4.286263797015736595E-16, 0.5000000000000000000, 3.500000000000000000 ) ) ;
#325 = PRODUCT_CONTEXT ( 'NONE', #158, 'mechanical' ) ;
#326 = ADVANCED_FACE ( 'NONE', ( #188 ), #348, .T. ) ;
#327 = CARTESIAN_POINT ( 'NONE',  ( 4.770489558936219510E-15, 24.00000000000000000, 0.000000000000000000 ) ) ;
#328 = AXIS2_PLACEMENT_3D ( 'NONE', #327, #31, #190 ) ;
#329 = ORIENTED_EDGE ( 'NONE', *, *, #179, .F. ) ;
#330 = CARTESIAN_POINT ( 'NONE',  ( 4.770489558936219510E-15, 24.00000000000000000, 0.000000000000000000 ) ) ;
#331 =( NAMED_UNIT ( * ) SI_UNIT ( $, .STERADIAN. ) SOLID_ANGLE_UNIT ( ) );
#332 = EDGE_CURVE ( 'NONE', #341, #344, #93, .T. ) ;
#333 = PRESENTATION_LAYER_ASSIGNMENT (  '', '', ( #282 ) ) ;
#334 = ORIENTED_EDGE ( 'NONE', *, *, #44, .F. ) ;
#335 = DIRECTION ( 'NONE',  ( 0.000000000000000000, 0.000000000000000000, -1.000000000000000000 ) ) ;
#336 = CARTESIAN_POINT ( 'NONE',  ( 3.999999999999996447, 75.00000000000000000, 4.898587196589410857E-16 ) ) ;
#337 = CYLINDRICAL_SURFACE ( 'NONE', #24, 3.999999999999998224 ) ;
#338 = ORIENTED_EDGE ( 'NONE', *, *, #313, .F. ) ;
#339 = CIRCLE ( 'NONE', #161, 0.5000000000000000000 ) ;
#340 = SURFACE_STYLE_USAGE ( .BOTH. , #117 ) ;
#341 = VERTEX_POINT ( 'NONE', #63 ) ;
#342 = EDGE_LOOP ( 'NONE', ( #297, #65 ) ) ;
#343 = FACE_OUTER_BOUND ( 'NONE', #8, .T. ) ;
#344 = VERTEX_POINT ( 'NONE', #157 ) ;
#345 = PRODUCT_DEFINITION_CONTEXT ( 'detailed design', #166, 'design' ) ;
#346 = PRESENTATION_LAYER_ASSIGNMENT (  '', '', ( #62 ) ) ;
#347 = APPLICATION_PROTOCOL_DEFINITION ( 'draft international standard', 'automotive_design', 1998, #166 ) ;
#348 = PLANE ( 'NONE',  #267 ) ;
#349 = DIRECTION ( 'NONE',  ( 0.000000000000000000, 0.000000000000000000, 1.000000000000000000 ) ) ;
#350 = EDGE_CURVE ( 'NONE', #73, #29, #84, .T. ) ;
#351 = PRESENTATION_LAYER_ASSIGNMENT (  '', '', ( #365 ) ) ;
#352 = PRODUCT_DEFINITION ( 'UNKNOWN', '', #25, #345 ) ;
#353 = SURFACE_SIDE_STYLE ('',( #128 ) ) ;
#354 = VERTEX_POINT ( 'NONE', #164 ) ;
#355 = DIRECTION ( 'NONE',  ( -1.000000000000000000, 0.000000000000000000, 0.000000000000000000 ) ) ;
#356 = FILL_AREA_STYLE_COLOUR ( '', #6 ) ;
#357 = SURFACE_STYLE_USAGE ( .BOTH. , #138 ) ;
#358 = UNCERTAINTY_MEASURE_WITH_UNIT (LENGTH_MEASURE( 1.000000000000000082E-05 ), #183, 'distance_accuracy_value', 'NONE');
#359 = ORIENTED_EDGE ( 'NONE', *, *, #332, .F. ) ;
#360 = DIRECTION ( 'NONE',  ( -0.000000000000000000, -1.000000000000000000, -0.000000000000000000 ) ) ;
#361 = STYLED_ITEM ( 'NONE', ( #153 ), #135 ) ;
#362 = AXIS2_PLACEMENT_3D ( 'NONE', #59, #349, #32 ) ;
#363 = ADVANCED_FACE ( 'NONE', ( #193 ), #130, .F. ) ;
#364 = DIRECTION ( 'NONE',  ( 0.000000000000000000, 0.000000000000000000, -1.000000000000000000 ) ) ;
#365 = STYLED_ITEM ( 'NONE', ( #281 ), #4 ) ;
#366 = FACE_OUTER_BOUND ( 'NONE', #95, .T. ) ;
#367 = SURFACE_STYLE_FILL_AREA ( #181 ) ;
#368 = AXIS2_PLACEMENT_3D ( 'NONE', #1, #260, #90 ) ;
#369 =( NAMED_UNIT ( * ) SI_UNIT ( $, .STERADIAN. ) SOLID_ANGLE_UNIT ( ) );
#370 =( GEOMETRIC_REPRESENTATION_CONTEXT ( 3 ) GLOBAL_UNCERTAINTY_ASSIGNED_CONTEXT ( ( #11 ) ) GLOBAL_UNIT_ASSIGNED_CONTEXT ( ( #234, #113, #369 ) ) REPRESENTATION_CONTEXT ( 'NONE', 'WORKASPACE' ) );
ENDSEC;
END-ISO-10303-21;
