ISO-10303-21;
HEADER;
FILE_DESCRIPTION (( 'STEP AP214' ),
    '1' );
FILE_NAME ('83363.STEP',
    '2023-06-30T23:05:28',
    ( '' ),
    ( '' ),
    'SwSTEP 2.0',
    'SolidWorks 2023',
    '' );
FILE_SCHEMA (( 'AUTOMOTIVE_DESIGN' ));
ENDSEC;

DATA;
#1 = ORIENTED_EDGE ( 'NONE', *, *, #339, .F. ) ;
#2 = DIRECTION ( 'NONE',  ( -0.000000000000000000, -1.000000000000000000, -0.000000000000000000 ) ) ;
#3 = ADVANCED_FACE ( 'NONE', ( #44 ), #270, .F. ) ;
#4 = CARTESIAN_POINT ( 'NONE',  ( -2.296212748401288034E-17, 0.000000000000000000, 0.000000000000000000 ) ) ;
#5 =( LENGTH_UNIT ( ) NAMED_UNIT ( * ) SI_UNIT ( $, .METRE. ) );
#6 = CARTESIAN_POINT ( 'NONE',  ( -0.3750000000000001110, 0.3750000000000001665, 4.592425496802574219E-17 ) ) ;
#7 = ORIENTED_EDGE ( 'NONE', *, *, #371, .T. ) ;
#8 = SURFACE_SIDE_STYLE ('',( #45 ) ) ;
#9 = AXIS2_PLACEMENT_3D ( 'NONE', #192, #78, #360 ) ;
#10 = SURFACE_SIDE_STYLE ('',( #97 ) ) ;
#11 = FILL_AREA_STYLE ('',( #266 ) ) ;
#12 =( NAMED_UNIT ( * ) PLANE_ANGLE_UNIT ( ) SI_UNIT ( $, .RADIAN. ) );
#13 = UNCERTAINTY_MEASURE_WITH_UNIT (LENGTH_MEASURE( 1.000000000000000082E-05 ), #366, 'distance_accuracy_value', 'NONE');
#14 = VERTEX_POINT ( 'NONE', #18 ) ;
#15 = ORIENTED_EDGE ( 'NONE', *, *, #229, .T. ) ;
#16 =( NAMED_UNIT ( * ) SI_UNIT ( $, .STERADIAN. ) SOLID_ANGLE_UNIT ( ) );
#17 = FILL_AREA_STYLE ('',( #344 ) ) ;
#18 = CARTESIAN_POINT ( 'NONE',  ( -0.3750000000000000555, 5.000000000000000000, 0.000000000000000000 ) ) ;
#19 = CARTESIAN_POINT ( 'NONE',  ( -1.224646799147353207E-16, 5.000000000000000000, 0.000000000000000000 ) ) ;
#20 = DIRECTION ( 'NONE',  ( 0.000000000000000000, 0.000000000000000000, -1.000000000000000000 ) ) ;
#21 = SURFACE_SIDE_STYLE ('',( #364 ) ) ;
#22 = AXIS2_PLACEMENT_3D ( 'NONE', #350, #331, #162 ) ;
#23 =( GEOMETRIC_REPRESENTATION_CONTEXT ( 3 ) GLOBAL_UNCERTAINTY_ASSIGNED_CONTEXT ( ( #168 ) ) GLOBAL_UNIT_ASSIGNED_CONTEXT ( ( #47, #12, #172 ) ) REPRESENTATION_CONTEXT ( 'NONE', 'WORKASPACE' ) );
#24 = ADVANCED_FACE ( 'NONE', ( #157 ), #108, .T. ) ;
#25 = FILL_AREA_STYLE ('',( #60 ) ) ;
#26 = FILL_AREA_STYLE_COLOUR ( '', #191 ) ;
#27 = PRODUCT_RELATED_PRODUCT_CATEGORY ( 'part', '', ( #138 ) ) ;
#28 = COLOUR_RGB ( '',1.000000000000000000, 0.000000000000000000, 0.000000000000000000 ) ;
#29 = CIRCLE ( 'NONE', #99, 0.3749999999999996114 ) ;
#30 = LENGTH_MEASURE_WITH_UNIT ( LENGTH_MEASURE( 0.02539999999999999897 ), #179 );
#31 = EDGE_LOOP ( 'NONE', ( #144, #163, #7, #303 ) ) ;
#32 = ORIENTED_EDGE ( 'NONE', *, *, #335, .F. ) ;
#33 = VECTOR ( 'NONE', #219, 39.37007874015748143 ) ;
#34 = SURFACE_SIDE_STYLE ('',( #289 ) ) ;
#35 = DIRECTION ( 'NONE',  ( -0.000000000000000000, -1.000000000000000000, -0.000000000000000000 ) ) ;
#36 = VERTEX_POINT ( 'NONE', #243 ) ;
#37 = SURFACE_STYLE_FILL_AREA ( #186 ) ;
#38 = VERTEX_POINT ( 'NONE', #297 ) ;
#39 = DIRECTION ( 'NONE',  ( -1.078123533814290028E-16, 1.000000000000000000, -0.000000000000000000 ) ) ;
#40 = CARTESIAN_POINT ( 'NONE',  ( 0.3749999999999996114, 5.000000000000000000, 4.592425496802571754E-17 ) ) ;
#41 = ORIENTED_EDGE ( 'NONE', *, *, #371, .F. ) ;
#42 = UNCERTAINTY_MEASURE_WITH_UNIT (LENGTH_MEASURE( 1.000000000000000082E-05 ), #167, 'distance_accuracy_value', 'NONE');
#43 = FACE_OUTER_BOUND ( 'NONE', #100, .T. ) ;
#44 = FACE_OUTER_BOUND ( 'NONE', #258, .T. ) ;
#45 = SURFACE_STYLE_FILL_AREA ( #359 ) ;
#46 = APPLICATION_PROTOCOL_DEFINITION ( 'draft international standard', 'automotive_design', 1998, #121 ) ;
#47 =( CONVERSION_BASED_UNIT ( 'INCH', #77 ) LENGTH_UNIT ( ) NAMED_UNIT ( #85 ) );
#48 = FILL_AREA_STYLE_COLOUR ( '', #28 ) ;
#49 = ORIENTED_EDGE ( 'NONE', *, *, #109, .T. ) ;
#50 = DIRECTION ( 'NONE',  ( -0.000000000000000000, -1.000000000000000000, -0.000000000000000000 ) ) ;
#51 = PRODUCT_DEFINITION_SHAPE ( 'NONE', 'NONE',  #81 ) ;
#52 = ADVANCED_BREP_SHAPE_REPRESENTATION ( '83363', ( #259, #133, #71 ), #307 ) ;
#53 = SPHERICAL_SURFACE ( 'NONE', #94, 0.3750000000000001110 ) ;
#54 = COLOUR_RGB ( '',1.000000000000000000, 0.000000000000000000, 0.000000000000000000 ) ;
#55 = CARTESIAN_POINT ( 'NONE',  ( 4.592425496802572370E-17, 0.000000000000000000, 0.3749999999999998335 ) ) ;
#56 = DIRECTION ( 'NONE',  ( 0.000000000000000000, 0.000000000000000000, -1.000000000000000000 ) ) ;
#57 =( NAMED_UNIT ( * ) PLANE_ANGLE_UNIT ( ) SI_UNIT ( $, .RADIAN. ) );
#58 = AXIS2_PLACEMENT_3D ( 'NONE', #357, #294, #158 ) ;
#59 = STYLED_ITEM ( 'NONE', ( #185 ), #369 ) ;
#60 = FILL_AREA_STYLE_COLOUR ( '', #203 ) ;
#61 = EDGE_CURVE ( 'NONE', #63, #244, #104, .T. ) ;
#62 = DIMENSIONAL_EXPONENTS ( 1.000000000000000000, 0.000000000000000000, 0.000000000000000000, 0.000000000000000000, 0.000000000000000000, 0.000000000000000000, 0.000000000000000000 ) ;
#63 = VERTEX_POINT ( 'NONE', #214 ) ;
#64 = CIRCLE ( 'NONE', #9, 0.3749999999999996114 ) ;
#65 = CIRCLE ( 'NONE', #208, 0.3749999999999998890 ) ;
#66 = CARTESIAN_POINT ( 'NONE',  ( 1.201131151934799201E-16, 2.750000000000000000, 0.000000000000000000 ) ) ;
#67 =( LENGTH_UNIT ( ) NAMED_UNIT ( * ) SI_UNIT ( $, .METRE. ) );
#68 = VERTEX_POINT ( 'NONE', #236 ) ;
#69 = CIRCLE ( 'NONE', #278, 0.3749999999999999445 ) ;
#70 = AXIS2_PLACEMENT_3D ( 'NONE', #343, #82, #198 ) ;
#71 = AXIS2_PLACEMENT_3D ( 'NONE', #153, #210, #196 ) ;
#72 = UNCERTAINTY_MEASURE_WITH_UNIT (LENGTH_MEASURE( 1.000000000000000082E-05 ), #92, 'distance_accuracy_value', 'NONE');
#73 = FILL_AREA_STYLE ('',( #264 ) ) ;
#74 = DIRECTION ( 'NONE',  ( 1.078123533814289905E-16, -1.000000000000000000, 0.000000000000000000 ) ) ;
#75 = ORIENTED_EDGE ( 'NONE', *, *, #165, .T. ) ;
#76 = CIRCLE ( 'NONE', #123, 0.3749999999999999445 ) ;
#77 = LENGTH_MEASURE_WITH_UNIT ( LENGTH_MEASURE( 0.02539999999999999897 ), #146 );
#78 = DIRECTION ( 'NONE',  ( -1.078123533814290028E-16, 1.000000000000000000, -0.000000000000000000 ) ) ;
#79 = ORIENTED_EDGE ( 'NONE', *, *, #229, .F. ) ;
#80 = ORIENTED_EDGE ( 'NONE', *, *, #173, .F. ) ;
#81 = PRODUCT_DEFINITION ( 'UNKNOWN', '', #180, #367 ) ;
#82 = DIRECTION ( 'NONE',  ( -1.078123533814290028E-16, 1.000000000000000000, -0.000000000000000000 ) ) ;
#83 = SURFACE_SIDE_STYLE ('',( #107 ) ) ;
#84 = VERTEX_POINT ( 'NONE', #268 ) ;
#85 = DIMENSIONAL_EXPONENTS ( 1.000000000000000000, 0.000000000000000000, 0.000000000000000000, 0.000000000000000000, 0.000000000000000000, 0.000000000000000000, 0.000000000000000000 ) ;
#86 = COLOUR_RGB ( '',0.7921568627450980005, 0.8196078431372548767, 0.9333333333333333481 ) ;
#87 =( GEOMETRIC_REPRESENTATION_CONTEXT ( 3 ) GLOBAL_UNCERTAINTY_ASSIGNED_CONTEXT ( ( #13 ) ) GLOBAL_UNIT_ASSIGNED_CONTEXT ( ( #366, #370, #316 ) ) REPRESENTATION_CONTEXT ( 'NONE', 'WORKASPACE' ) );
#88 = SURFACE_STYLE_USAGE ( .BOTH. , #21 ) ;
#89 =( LENGTH_UNIT ( ) NAMED_UNIT ( * ) SI_UNIT ( $, .METRE. ) );
#90 = SURFACE_STYLE_USAGE ( .BOTH. , #341 ) ;
#91 = AXIS2_PLACEMENT_3D ( 'NONE', #66, #310, #149 ) ;
#92 =( CONVERSION_BASED_UNIT ( 'INCH', #290 ) LENGTH_UNIT ( ) NAMED_UNIT ( #373 ) );
#93 = DIMENSIONAL_EXPONENTS ( 1.000000000000000000, 0.000000000000000000, 0.000000000000000000, 0.000000000000000000, 0.000000000000000000, 0.000000000000000000, 0.000000000000000000 ) ;
#94 = AXIS2_PLACEMENT_3D ( 'NONE', #139, #337, #175 ) ;
#95 =( GEOMETRIC_REPRESENTATION_CONTEXT ( 3 ) GLOBAL_UNCERTAINTY_ASSIGNED_CONTEXT ( ( #304 ) ) GLOBAL_UNIT_ASSIGNED_CONTEXT ( ( #201, #115, #110 ) ) REPRESENTATION_CONTEXT ( 'NONE', 'WORKASPACE' ) );
#96 = DIRECTION ( 'NONE',  ( -1.000000000000000000, 0.000000000000000000, 0.000000000000000000 ) ) ;
#97 = SURFACE_STYLE_FILL_AREA ( #73 ) ;
#98 = CLOSED_SHELL ( 'NONE', ( #140, #369, #24, #248, #274 ) ) ;
#99 = AXIS2_PLACEMENT_3D ( 'NONE', #262, #127, #96 ) ;
#100 = EDGE_LOOP ( 'NONE', ( #220, #247, #1, #238 ) ) ;
#101 = SURFACE_SIDE_STYLE ('',( #37 ) ) ;
#102 = ADVANCED_FACE ( 'NONE', ( #217 ), #155, .T. ) ;
#103 = ORIENTED_EDGE ( 'NONE', *, *, #212, .T. ) ;
#104 = LINE ( 'NONE', #40, #111 ) ;
#105 = ORIENTED_EDGE ( 'NONE', *, *, #263, .F. ) ;
#106 = DIRECTION ( 'NONE',  ( 1.224646799147353207E-16, -0.000000000000000000, 1.000000000000000000 ) ) ;
#107 = SURFACE_STYLE_FILL_AREA ( #25 ) ;
#108 = PLANE ( 'NONE',  #58 ) ;
#109 = EDGE_CURVE ( 'NONE', #242, #63, #64, .T. ) ;
#110 =( NAMED_UNIT ( * ) SI_UNIT ( $, .STERADIAN. ) SOLID_ANGLE_UNIT ( ) );
#111 = VECTOR ( 'NONE', #302, 39.37007874015748143 ) ;
#112 = MECHANICAL_DESIGN_GEOMETRIC_PRESENTATION_REPRESENTATION (  '', ( #362 ), #87 ) ;
#113 = DIRECTION ( 'NONE',  ( -0.000000000000000000, -1.000000000000000000, -0.000000000000000000 ) ) ;
#114 = CARTESIAN_POINT ( 'NONE',  ( -0.3749999999999998890, 5.000000000000000000, 0.000000000000000000 ) ) ;
#115 =( NAMED_UNIT ( * ) PLANE_ANGLE_UNIT ( ) SI_UNIT ( $, .RADIAN. ) );
#116 = DIRECTION ( 'NONE',  ( 0.000000000000000000, 0.000000000000000000, 1.000000000000000000 ) ) ;
#117 = CIRCLE ( 'NONE', #280, 0.3749999999999997780 ) ;
#118 = AXIS2_PLACEMENT_3D ( 'NONE', #156, #116, #142 ) ;
#119 = MECHANICAL_DESIGN_GEOMETRIC_PRESENTATION_REPRESENTATION (  '', ( #59 ), #23 ) ;
#120 = CARTESIAN_POINT ( 'NONE',  ( 0.000000000000000000, 0.3750000000000001665, 0.000000000000000000 ) ) ;
#121 = APPLICATION_CONTEXT ( 'automotive_design' ) ;
#122 =( NAMED_UNIT ( * ) SI_UNIT ( $, .STERADIAN. ) SOLID_ANGLE_UNIT ( ) );
#123 = AXIS2_PLACEMENT_3D ( 'NONE', #275, #113, #281 ) ;
#124 = PRESENTATION_LAYER_ASSIGNMENT (  '', '', ( #59 ) ) ;
#125 = DIRECTION ( 'NONE',  ( 0.000000000000000000, 0.000000000000000000, -1.000000000000000000 ) ) ;
#126 = ORIENTED_EDGE ( 'NONE', *, *, #109, .F. ) ;
#127 = DIRECTION ( 'NONE',  ( -1.078123533814290028E-16, 1.000000000000000000, -0.000000000000000000 ) ) ;
#128 = SURFACE_STYLE_USAGE ( .BOTH. , #8 ) ;
#129 = SURFACE_STYLE_FILL_AREA ( #11 ) ;
#130 = LENGTH_MEASURE_WITH_UNIT ( LENGTH_MEASURE( 0.02539999999999999897 ), #5 );
#131 = DIRECTION ( 'NONE',  ( 0.000000000000000000, 0.000000000000000000, -1.000000000000000000 ) ) ;
#132 = CARTESIAN_POINT ( 'NONE',  ( 0.000000000000000000, 2.750000000000000000, 0.000000000000000000 ) ) ;
#133 = MANIFOLD_SOLID_BREP ( 'Revolve - Tool Body (Straight Shanked)', #190 ) ;
#134 = DIMENSIONAL_EXPONENTS ( 1.000000000000000000, 0.000000000000000000, 0.000000000000000000, 0.000000000000000000, 0.000000000000000000, 0.000000000000000000, 0.000000000000000000 ) ;
#135 = VECTOR ( 'NONE', #225, 39.37007874015748143 ) ;
#136 = CIRCLE ( 'NONE', #205, 0.3750000000000001110 ) ;
#137 =( NAMED_UNIT ( * ) SI_UNIT ( $, .STERADIAN. ) SOLID_ANGLE_UNIT ( ) );
#138 = PRODUCT ( '83363', '83363', '', ( #240 ) ) ;
#139 = CARTESIAN_POINT ( 'NONE',  ( -4.592425496802576068E-17, 0.3750000000000001110, 0.000000000000000000 ) ) ;
#140 = ADVANCED_FACE ( 'NONE', ( #43 ), #53, .T. ) ;
#141 = DIRECTION ( 'NONE',  ( -1.078123533814290028E-16, 1.000000000000000000, -0.000000000000000000 ) ) ;
#142 = DIRECTION ( 'NONE',  ( 1.000000000000000000, 0.000000000000000000, 0.000000000000000000 ) ) ;
#143 =( NAMED_UNIT ( * ) PLANE_ANGLE_UNIT ( ) SI_UNIT ( $, .RADIAN. ) );
#144 = ORIENTED_EDGE ( 'NONE', *, *, #161, .F. ) ;
#145 = EDGE_CURVE ( 'NONE', #356, #38, #76, .T. ) ;
#146 =( LENGTH_UNIT ( ) NAMED_UNIT ( * ) SI_UNIT ( $, .METRE. ) );
#147 =( NAMED_UNIT ( * ) PLANE_ANGLE_UNIT ( ) SI_UNIT ( $, .RADIAN. ) );
#148 = EDGE_LOOP ( 'NONE', ( #189, #152, #75, #209 ) ) ;
#149 = DIRECTION ( 'NONE',  ( -1.000000000000000000, -1.078123533814289905E-16, 0.000000000000000000 ) ) ;
#150 =( GEOMETRIC_REPRESENTATION_CONTEXT ( 3 ) GLOBAL_UNCERTAINTY_ASSIGNED_CONTEXT ( ( #72 ) ) GLOBAL_UNIT_ASSIGNED_CONTEXT ( ( #92, #147, #137 ) ) REPRESENTATION_CONTEXT ( 'NONE', 'WORKASPACE' ) );
#151 = STYLED_ITEM ( 'NONE', ( #365 ), #248 ) ;
#152 = ORIENTED_EDGE ( 'NONE', *, *, #301, .T. ) ;
#153 = CARTESIAN_POINT ( 'NONE',  ( 0.000000000000000000, 0.000000000000000000, 0.000000000000000000 ) ) ;
#154 = UNCERTAINTY_MEASURE_WITH_UNIT (LENGTH_MEASURE( 1.000000000000000082E-05 ), #250, 'distance_accuracy_value', 'NONE');
#155 = CYLINDRICAL_SURFACE ( 'NONE', #22, 0.3749999999999997780 ) ;
#156 = CARTESIAN_POINT ( 'NONE',  ( -4.592425496802576068E-17, 0.3750000000000001110, 0.000000000000000000 ) ) ;
#157 = FACE_OUTER_BOUND ( 'NONE', #329, .T. ) ;
#158 = DIRECTION ( 'NONE',  ( 0.000000000000000000, -0.000000000000000000, 1.000000000000000000 ) ) ;
#159 = ORIENTED_EDGE ( 'NONE', *, *, #263, .T. ) ;
#160 = PRESENTATION_LAYER_ASSIGNMENT (  '', '', ( #269 ) ) ;
#161 = EDGE_CURVE ( 'NONE', #353, #313, #332, .T. ) ;
#162 = DIRECTION ( 'NONE',  ( -1.000000000000000000, 0.000000000000000000, 0.000000000000000000 ) ) ;
#163 = ORIENTED_EDGE ( 'NONE', *, *, #178, .T. ) ;
#164 = CARTESIAN_POINT ( 'NONE',  ( 0.3749999999999997780, 5.000000000000000000, 4.592425496802572370E-17 ) ) ;
#165 = EDGE_CURVE ( 'NONE', #242, #14, #224, .T. ) ;
#166 = CARTESIAN_POINT ( 'NONE',  ( 0.3749999999999997780, 5.000000000000000000, 0.000000000000000000 ) ) ;
#167 =( CONVERSION_BASED_UNIT ( 'INCH', #195 ) LENGTH_UNIT ( ) NAMED_UNIT ( #93 ) );
#168 = UNCERTAINTY_MEASURE_WITH_UNIT (LENGTH_MEASURE( 1.000000000000000082E-05 ), #47, 'distance_accuracy_value', 'NONE');
#169 = SURFACE_STYLE_USAGE ( .BOTH. , #101 ) ;
#170 = DIMENSIONAL_EXPONENTS ( 1.000000000000000000, 0.000000000000000000, 0.000000000000000000, 0.000000000000000000, 0.000000000000000000, 0.000000000000000000, 0.000000000000000000 ) ;
#171 = ORIENTED_EDGE ( 'NONE', *, *, #184, .T. ) ;
#172 =( NAMED_UNIT ( * ) SI_UNIT ( $, .STERADIAN. ) SOLID_ANGLE_UNIT ( ) );
#173 = EDGE_CURVE ( 'NONE', #14, #244, #345, .T. ) ;
#174 = CARTESIAN_POINT ( 'NONE',  ( 0.000000000000000000, 0.3750000000000001665, 0.000000000000000000 ) ) ;
#175 = DIRECTION ( 'NONE',  ( 1.000000000000000000, 0.000000000000000000, 0.000000000000000000 ) ) ;
#176 = FACE_OUTER_BOUND ( 'NONE', #148, .T. ) ;
#177 = LENGTH_MEASURE_WITH_UNIT ( LENGTH_MEASURE( 0.02539999999999999897 ), #89 );
#178 = EDGE_CURVE ( 'NONE', #353, #84, #69, .T. ) ;
#179 =( LENGTH_UNIT ( ) NAMED_UNIT ( * ) SI_UNIT ( $, .METRE. ) );
#180 = PRODUCT_DEFINITION_FORMATION_WITH_SPECIFIED_SOURCE ( 'ANY', '', #138, .NOT_KNOWN. ) ;
#181 = PLANE ( 'NONE',  #91 ) ;
#182 = DIRECTION ( 'NONE',  ( 0.000000000000000000, 0.000000000000000000, -1.000000000000000000 ) ) ;
#183 = AXIS2_PLACEMENT_3D ( 'NONE', #200, #308, #56 ) ;
#184 = EDGE_CURVE ( 'NONE', #36, #68, #117, .T. ) ;
#185 = PRESENTATION_STYLE_ASSIGNMENT (( #320 ) ) ;
#186 = FILL_AREA_STYLE ('',( #48 ) ) ;
#187 = EDGE_LOOP ( 'NONE', ( #105, #15, #361, #194, #197 ) ) ;
#188 = CARTESIAN_POINT ( 'NONE',  ( 0.000000000000000000, 2.750000000000000000, 0.000000000000000000 ) ) ;
#189 = ORIENTED_EDGE ( 'NONE', *, *, #61, .F. ) ;
#190 = CLOSED_SHELL ( 'NONE', ( #102, #276, #267, #3 ) ) ;
#191 = COLOUR_RGB ( '',1.000000000000000000, 0.000000000000000000, 0.000000000000000000 ) ;
#192 = CARTESIAN_POINT ( 'NONE',  ( 1.201131151934799694E-16, 2.750000000000000000, 0.000000000000000000 ) ) ;
#193 = CYLINDRICAL_SURFACE ( 'NONE', #183, 0.3749999999999998335 ) ;
#194 = ORIENTED_EDGE ( 'NONE', *, *, #178, .F. ) ;
#195 = LENGTH_MEASURE_WITH_UNIT ( LENGTH_MEASURE( 0.02539999999999999897 ), #354 );
#196 = DIRECTION ( 'NONE',  ( 1.000000000000000000, 0.000000000000000000, 0.000000000000000000 ) ) ;
#197 = ORIENTED_EDGE ( 'NONE', *, *, #311, .F. ) ;
#198 = DIRECTION ( 'NONE',  ( -1.000000000000000000, 0.000000000000000000, 0.000000000000000000 ) ) ;
#199 = STYLED_ITEM ( 'NONE', ( #300 ), #133 ) ;
#200 = CARTESIAN_POINT ( 'NONE',  ( 0.000000000000000000, 0.000000000000000000, 0.000000000000000000 ) ) ;
#201 =( CONVERSION_BASED_UNIT ( 'INCH', #177 ) LENGTH_UNIT ( ) NAMED_UNIT ( #134 ) );
#202 = AXIS2_PLACEMENT_3D ( 'NONE', #218, #106, #305 ) ;
#203 = COLOUR_RGB ( '',0.7921568627450980005, 0.8196078431372548767, 0.9333333333333333481 ) ;
#204 = ORIENTED_EDGE ( 'NONE', *, *, #301, .F. ) ;
#205 = AXIS2_PLACEMENT_3D ( 'NONE', #235, #182, #292 ) ;
#206 = CARTESIAN_POINT ( 'NONE',  ( 0.000000000000000000, 0.000000000000000000, -0.3749999999999998335 ) ) ;
#207 = CARTESIAN_POINT ( 'NONE',  ( 0.000000000000000000, 0.000000000000000000, 0.000000000000000000 ) ) ;
#208 = AXIS2_PLACEMENT_3D ( 'NONE', #19, #39, #249 ) ;
#209 = ORIENTED_EDGE ( 'NONE', *, *, #212, .F. ) ;
#210 = DIRECTION ( 'NONE',  ( 0.000000000000000000, 0.000000000000000000, 1.000000000000000000 ) ) ;
#211 = PRESENTATION_STYLE_ASSIGNMENT (( #169 ) ) ;
#212 = EDGE_CURVE ( 'NONE', #244, #14, #65, .T. ) ;
#213 = CYLINDRICAL_SURFACE ( 'NONE', #261, 0.3749999999999998335 ) ;
#214 = CARTESIAN_POINT ( 'NONE',  ( 0.3749999999999997780, 2.750000000000000000, 4.592425496802572370E-17 ) ) ;
#215 = MECHANICAL_DESIGN_GEOMETRIC_PRESENTATION_REPRESENTATION (  '', ( #227 ), #150 ) ;
#216 = STYLED_ITEM ( 'NONE', ( #372 ), #259 ) ;
#217 = FACE_OUTER_BOUND ( 'NONE', #257, .T. ) ;
#218 = CARTESIAN_POINT ( 'NONE',  ( -4.592425496802576068E-17, 0.3750000000000001110, 0.000000000000000000 ) ) ;
#219 = DIRECTION ( 'NONE',  ( -0.000000000000000000, -1.000000000000000000, -0.000000000000000000 ) ) ;
#220 = ORIENTED_EDGE ( 'NONE', *, *, #311, .T. ) ;
#221 = DIMENSIONAL_EXPONENTS ( 1.000000000000000000, 0.000000000000000000, 0.000000000000000000, 0.000000000000000000, 0.000000000000000000, 0.000000000000000000, 0.000000000000000000 ) ;
#222 = LENGTH_MEASURE_WITH_UNIT ( LENGTH_MEASURE( 0.02539999999999999897 ), #368 );
#223 = DIRECTION ( 'NONE',  ( -1.000000000000000000, 0.000000000000000000, 0.000000000000000000 ) ) ;
#224 = LINE ( 'NONE', #114, #135 ) ;
#225 = DIRECTION ( 'NONE',  ( -1.078123533814289905E-16, 1.000000000000000000, -0.000000000000000000 ) ) ;
#226 = FACE_OUTER_BOUND ( 'NONE', #31, .T. ) ;
#227 = STYLED_ITEM ( 'NONE', ( #349 ), #24 ) ;
#228 = CIRCLE ( 'NONE', #231, 0.3749999999999999445 ) ;
#229 = EDGE_CURVE ( 'NONE', #68, #36, #352, .T. ) ;
#230 =( GEOMETRIC_REPRESENTATION_CONTEXT ( 3 ) GLOBAL_UNCERTAINTY_ASSIGNED_CONTEXT ( ( #293 ) ) GLOBAL_UNIT_ASSIGNED_CONTEXT ( ( #324, #322, #327 ) ) REPRESENTATION_CONTEXT ( 'NONE', 'WORKASPACE' ) );
#231 = AXIS2_PLACEMENT_3D ( 'NONE', #174, #342, #306 ) ;
#232 = LINE ( 'NONE', #206, #348 ) ;
#233 = EDGE_LOOP ( 'NONE', ( #126, #204 ) ) ;
#234 = APPLICATION_PROTOCOL_DEFINITION ( 'draft international standard', 'automotive_design', 1998, #286 ) ;
#235 = CARTESIAN_POINT ( 'NONE',  ( -4.592425496802576068E-17, 0.3750000000000001110, 0.000000000000000000 ) ) ;
#236 = CARTESIAN_POINT ( 'NONE',  ( 4.592425496802571754E-17, 2.750000000000000000, 0.3749999999999997780 ) ) ;
#237 = DIRECTION ( 'NONE',  ( -0.000000000000000000, -1.000000000000000000, -0.000000000000000000 ) ) ;
#238 = ORIENTED_EDGE ( 'NONE', *, *, #145, .T. ) ;
#239 = AXIS2_PLACEMENT_3D ( 'NONE', #120, #2, #125 ) ;
#240 = PRODUCT_CONTEXT ( 'NONE', #286, 'mechanical' ) ;
#241 = ORIENTED_EDGE ( 'NONE', *, *, #165, .F. ) ;
#242 = VERTEX_POINT ( 'NONE', #296 ) ;
#243 = CARTESIAN_POINT ( 'NONE',  ( 0.000000000000000000, 2.750000000000000000, -0.3749999999999997780 ) ) ;
#244 = VERTEX_POINT ( 'NONE', #164 ) ;
#245 = DIRECTION ( 'NONE',  ( -0.000000000000000000, -1.000000000000000000, -0.000000000000000000 ) ) ;
#246 = LINE ( 'NONE', #55, #33 ) ;
#247 = ORIENTED_EDGE ( 'NONE', *, *, #161, .T. ) ;
#248 = ADVANCED_FACE ( 'NONE', ( #273 ), #213, .T. ) ;
#249 = DIRECTION ( 'NONE',  ( -1.000000000000000000, 0.000000000000000000, 0.000000000000000000 ) ) ;
#250 =( CONVERSION_BASED_UNIT ( 'INCH', #222 ) LENGTH_UNIT ( ) NAMED_UNIT ( #346 ) );
#251 = LENGTH_MEASURE_WITH_UNIT ( LENGTH_MEASURE( 0.02539999999999999897 ), #255 );
#252 =( NAMED_UNIT ( * ) SI_UNIT ( $, .STERADIAN. ) SOLID_ANGLE_UNIT ( ) );
#253 =( GEOMETRIC_REPRESENTATION_CONTEXT ( 3 ) GLOBAL_UNCERTAINTY_ASSIGNED_CONTEXT ( ( #154 ) ) GLOBAL_UNIT_ASSIGNED_CONTEXT ( ( #250, #57, #252 ) ) REPRESENTATION_CONTEXT ( 'NONE', 'WORKASPACE' ) );
#254 = MECHANICAL_DESIGN_GEOMETRIC_PRESENTATION_REPRESENTATION (  '', ( #151 ), #321 ) ;
#255 =( LENGTH_UNIT ( ) NAMED_UNIT ( * ) SI_UNIT ( $, .METRE. ) );
#256 = PRESENTATION_LAYER_ASSIGNMENT (  '', '', ( #362 ) ) ;
#257 = EDGE_LOOP ( 'NONE', ( #49, #325, #80, #241 ) ) ;
#258 = EDGE_LOOP ( 'NONE', ( #318, #103 ) ) ;
#259 = MANIFOLD_SOLID_BREP ( 'Revolve - Cutting Edge', #98 ) ;
#260 = MECHANICAL_DESIGN_GEOMETRIC_PRESENTATION_REPRESENTATION (  '', ( #199 ), #230 ) ;
#261 = AXIS2_PLACEMENT_3D ( 'NONE', #207, #237, #131 ) ;
#262 = CARTESIAN_POINT ( 'NONE',  ( 1.201131151934799694E-16, 2.750000000000000000, 0.000000000000000000 ) ) ;
#263 = EDGE_CURVE ( 'NONE', #68, #38, #246, .T. ) ;
#264 = FILL_AREA_STYLE_COLOUR ( '', #86 ) ;
#265 = FACE_OUTER_BOUND ( 'NONE', #233, .T. ) ;
#266 = FILL_AREA_STYLE_COLOUR ( '', #347 ) ;
#267 = ADVANCED_FACE ( 'NONE', ( #176 ), #285, .T. ) ;
#268 = CARTESIAN_POINT ( 'NONE',  ( 0.000000000000000000, 0.3750000000000001665, -0.3749999999999999445 ) ) ;
#269 = STYLED_ITEM ( 'NONE', ( #211 ), #140 ) ;
#270 = PLANE ( 'NONE',  #287 ) ;
#271 = PRESENTATION_LAYER_ASSIGNMENT (  '', '', ( #216 ) ) ;
#272 = ORIENTED_EDGE ( 'NONE', *, *, #145, .F. ) ;
#273 = FACE_OUTER_BOUND ( 'NONE', #187, .T. ) ;
#274 = ADVANCED_FACE ( 'NONE', ( #226 ), #295, .T. ) ;
#275 = CARTESIAN_POINT ( 'NONE',  ( 0.000000000000000000, 0.3750000000000001665, 0.000000000000000000 ) ) ;
#276 = ADVANCED_FACE ( 'NONE', ( #265 ), #181, .F. ) ;
#277 = DIRECTION ( 'NONE',  ( 1.000000000000000000, 1.078123533814289905E-16, 0.000000000000000000 ) ) ;
#278 = AXIS2_PLACEMENT_3D ( 'NONE', #309, #245, #20 ) ;
#279 = CIRCLE ( 'NONE', #239, 0.3749999999999999445 ) ;
#280 = AXIS2_PLACEMENT_3D ( 'NONE', #132, #35, #323 ) ;
#281 = DIRECTION ( 'NONE',  ( 0.000000000000000000, 0.000000000000000000, -1.000000000000000000 ) ) ;
#282 = CARTESIAN_POINT ( 'NONE',  ( -1.224646799147353207E-16, 5.000000000000000000, 0.000000000000000000 ) ) ;
#283 = MECHANICAL_DESIGN_GEOMETRIC_PRESENTATION_REPRESENTATION (  '', ( #269 ), #253 ) ;
#284 = COLOUR_RGB ( '',1.000000000000000000, 0.000000000000000000, 0.000000000000000000 ) ;
#285 = CYLINDRICAL_SURFACE ( 'NONE', #314, 0.3749999999999997780 ) ;
#286 = APPLICATION_CONTEXT ( 'automotive_design' ) ;
#287 = AXIS2_PLACEMENT_3D ( 'NONE', #166, #74, #277 ) ;
#288 = MECHANICAL_DESIGN_GEOMETRIC_PRESENTATION_REPRESENTATION (  '', ( #216 ), #95 ) ;
#289 = SURFACE_STYLE_FILL_AREA ( #312 ) ;
#290 = LENGTH_MEASURE_WITH_UNIT ( LENGTH_MEASURE( 0.02539999999999999897 ), #67 );
#291 = AXIS2_PLACEMENT_3D ( 'NONE', #188, #50, #299 ) ;
#292 = DIRECTION ( 'NONE',  ( -1.000000000000000000, 0.000000000000000000, 0.000000000000000000 ) ) ;
#293 = UNCERTAINTY_MEASURE_WITH_UNIT (LENGTH_MEASURE( 1.000000000000000082E-05 ), #324, 'distance_accuracy_value', 'NONE');
#294 = DIRECTION ( 'NONE',  ( 0.000000000000000000, 1.000000000000000000, 0.000000000000000000 ) ) ;
#295 = SPHERICAL_SURFACE ( 'NONE', #118, 0.3750000000000001110 ) ;
#296 = CARTESIAN_POINT ( 'NONE',  ( -0.3749999999999995004, 2.750000000000000000, 0.000000000000000000 ) ) ;
#297 = CARTESIAN_POINT ( 'NONE',  ( 4.592425496802574219E-17, 0.3750000000000001665, 0.3749999999999999445 ) ) ;
#298 = PRESENTATION_LAYER_ASSIGNMENT (  '', '', ( #151 ) ) ;
#299 = DIRECTION ( 'NONE',  ( 0.000000000000000000, 0.000000000000000000, -1.000000000000000000 ) ) ;
#300 = PRESENTATION_STYLE_ASSIGNMENT (( #355 ) ) ;
#301 = EDGE_CURVE ( 'NONE', #63, #242, #29, .T. ) ;
#302 = DIRECTION ( 'NONE',  ( -1.078123533814289905E-16, 1.000000000000000000, -0.000000000000000000 ) ) ;
#303 = ORIENTED_EDGE ( 'NONE', *, *, #339, .T. ) ;
#304 = UNCERTAINTY_MEASURE_WITH_UNIT (LENGTH_MEASURE( 1.000000000000000082E-05 ), #201, 'distance_accuracy_value', 'NONE');
#305 = DIRECTION ( 'NONE',  ( 1.000000000000000000, 0.000000000000000000, -1.224646799147353207E-16 ) ) ;
#306 = DIRECTION ( 'NONE',  ( 0.000000000000000000, 0.000000000000000000, -1.000000000000000000 ) ) ;
#307 =( GEOMETRIC_REPRESENTATION_CONTEXT ( 3 ) GLOBAL_UNCERTAINTY_ASSIGNED_CONTEXT ( ( #336 ) ) GLOBAL_UNIT_ASSIGNED_CONTEXT ( ( #315, #143, #122 ) ) REPRESENTATION_CONTEXT ( 'NONE', 'WORKASPACE' ) );
#308 = DIRECTION ( 'NONE',  ( -0.000000000000000000, -1.000000000000000000, -0.000000000000000000 ) ) ;
#309 = CARTESIAN_POINT ( 'NONE',  ( 0.000000000000000000, 0.3750000000000001665, 0.000000000000000000 ) ) ;
#310 = DIRECTION ( 'NONE',  ( -1.078123533814289905E-16, 1.000000000000000000, 0.000000000000000000 ) ) ;
#311 = EDGE_CURVE ( 'NONE', #38, #353, #279, .T. ) ;
#312 = FILL_AREA_STYLE ('',( #26 ) ) ;
#313 = VERTEX_POINT ( 'NONE', #4 ) ;
#314 = AXIS2_PLACEMENT_3D ( 'NONE', #282, #141, #223 ) ;
#315 =( CONVERSION_BASED_UNIT ( 'INCH', #30 ) LENGTH_UNIT ( ) NAMED_UNIT ( #221 ) );
#316 =( NAMED_UNIT ( * ) SI_UNIT ( $, .STERADIAN. ) SOLID_ANGLE_UNIT ( ) );
#317 = DIRECTION ( 'NONE',  ( -0.000000000000000000, -1.000000000000000000, -0.000000000000000000 ) ) ;
#318 = ORIENTED_EDGE ( 'NONE', *, *, #173, .T. ) ;
#319 = PRESENTATION_LAYER_ASSIGNMENT (  '', '', ( #199 ) ) ;
#320 = SURFACE_STYLE_USAGE ( .BOTH. , #34 ) ;
#321 =( GEOMETRIC_REPRESENTATION_CONTEXT ( 3 ) GLOBAL_UNCERTAINTY_ASSIGNED_CONTEXT ( ( #42 ) ) GLOBAL_UNIT_ASSIGNED_CONTEXT ( ( #167, #326, #16 ) ) REPRESENTATION_CONTEXT ( 'NONE', 'WORKASPACE' ) );
#322 =( NAMED_UNIT ( * ) PLANE_ANGLE_UNIT ( ) SI_UNIT ( $, .RADIAN. ) );
#323 = DIRECTION ( 'NONE',  ( 0.000000000000000000, 0.000000000000000000, -1.000000000000000000 ) ) ;
#324 =( CONVERSION_BASED_UNIT ( 'INCH', #130 ) LENGTH_UNIT ( ) NAMED_UNIT ( #62 ) );
#325 = ORIENTED_EDGE ( 'NONE', *, *, #61, .T. ) ;
#326 =( NAMED_UNIT ( * ) PLANE_ANGLE_UNIT ( ) SI_UNIT ( $, .RADIAN. ) );
#327 =( NAMED_UNIT ( * ) SI_UNIT ( $, .STERADIAN. ) SOLID_ANGLE_UNIT ( ) );
#328 = CARTESIAN_POINT ( 'NONE',  ( 0.3749999999999999445, 0.3750000000000001665, 0.000000000000000000 ) ) ;
#329 = EDGE_LOOP ( 'NONE', ( #358, #79 ) ) ;
#330 = FILL_AREA_STYLE_COLOUR ( '', #54 ) ;
#331 = DIRECTION ( 'NONE',  ( -1.078123533814290028E-16, 1.000000000000000000, -0.000000000000000000 ) ) ;
#332 = CIRCLE ( 'NONE', #202, 0.3750000000000001110 ) ;
#333 = FACE_OUTER_BOUND ( 'NONE', #334, .T. ) ;
#334 = EDGE_LOOP ( 'NONE', ( #171, #159, #272, #41, #32 ) ) ;
#335 = EDGE_CURVE ( 'NONE', #36, #84, #232, .T. ) ;
#336 = UNCERTAINTY_MEASURE_WITH_UNIT (LENGTH_MEASURE( 1.000000000000000082E-05 ), #315, 'distance_accuracy_value', 'NONE');
#337 = DIRECTION ( 'NONE',  ( 0.000000000000000000, 0.000000000000000000, 1.000000000000000000 ) ) ;
#338 = PRESENTATION_STYLE_ASSIGNMENT (( #88 ) ) ;
#339 = EDGE_CURVE ( 'NONE', #356, #313, #136, .T. ) ;
#340 = SURFACE_STYLE_USAGE ( .BOTH. , #83 ) ;
#341 = SURFACE_SIDE_STYLE ('',( #129 ) ) ;
#342 = DIRECTION ( 'NONE',  ( -0.000000000000000000, -1.000000000000000000, -0.000000000000000000 ) ) ;
#343 = CARTESIAN_POINT ( 'NONE',  ( -1.224646799147353207E-16, 5.000000000000000000, 0.000000000000000000 ) ) ;
#344 = FILL_AREA_STYLE_COLOUR ( '', #284 ) ;
#345 = CIRCLE ( 'NONE', #70, 0.3749999999999998890 ) ;
#346 = DIMENSIONAL_EXPONENTS ( 1.000000000000000000, 0.000000000000000000, 0.000000000000000000, 0.000000000000000000, 0.000000000000000000, 0.000000000000000000, 0.000000000000000000 ) ;
#347 = COLOUR_RGB ( '',1.000000000000000000, 0.000000000000000000, 0.000000000000000000 ) ;
#348 = VECTOR ( 'NONE', #317, 39.37007874015748143 ) ;
#349 = PRESENTATION_STYLE_ASSIGNMENT (( #90 ) ) ;
#350 = CARTESIAN_POINT ( 'NONE',  ( -1.224646799147353207E-16, 5.000000000000000000, 0.000000000000000000 ) ) ;
#351 = PRESENTATION_LAYER_ASSIGNMENT (  '', '', ( #227 ) ) ;
#352 = CIRCLE ( 'NONE', #291, 0.3749999999999997780 ) ;
#353 = VERTEX_POINT ( 'NONE', #6 ) ;
#354 =( LENGTH_UNIT ( ) NAMED_UNIT ( * ) SI_UNIT ( $, .METRE. ) );
#355 = SURFACE_STYLE_USAGE ( .BOTH. , #10 ) ;
#356 = VERTEX_POINT ( 'NONE', #328 ) ;
#357 = CARTESIAN_POINT ( 'NONE',  ( 0.000000000000000000, 2.750000000000000000, 0.000000000000000000 ) ) ;
#358 = ORIENTED_EDGE ( 'NONE', *, *, #184, .F. ) ;
#359 = FILL_AREA_STYLE ('',( #330 ) ) ;
#360 = DIRECTION ( 'NONE',  ( -1.000000000000000000, 0.000000000000000000, 0.000000000000000000 ) ) ;
#361 = ORIENTED_EDGE ( 'NONE', *, *, #335, .T. ) ;
#362 = STYLED_ITEM ( 'NONE', ( #338 ), #274 ) ;
#363 = SHAPE_DEFINITION_REPRESENTATION ( #51, #52 ) ;
#364 = SURFACE_STYLE_FILL_AREA ( #17 ) ;
#365 = PRESENTATION_STYLE_ASSIGNMENT (( #128 ) ) ;
#366 =( CONVERSION_BASED_UNIT ( 'INCH', #251 ) LENGTH_UNIT ( ) NAMED_UNIT ( #170 ) );
#367 = PRODUCT_DEFINITION_CONTEXT ( 'detailed design', #121, 'design' ) ;
#368 =( LENGTH_UNIT ( ) NAMED_UNIT ( * ) SI_UNIT ( $, .METRE. ) );
#369 = ADVANCED_FACE ( 'NONE', ( #333 ), #193, .T. ) ;
#370 =( NAMED_UNIT ( * ) PLANE_ANGLE_UNIT ( ) SI_UNIT ( $, .RADIAN. ) );
#371 = EDGE_CURVE ( 'NONE', #84, #356, #228, .T. ) ;
#372 = PRESENTATION_STYLE_ASSIGNMENT (( #340 ) ) ;
#373 = DIMENSIONAL_EXPONENTS ( 1.000000000000000000, 0.000000000000000000, 0.000000000000000000, 0.000000000000000000, 0.000000000000000000, 0.000000000000000000, 0.000000000000000000 ) ;
ENDSEC;
END-ISO-10303-21;
