ISO-10303-21;
HEADER;
FILE_DESCRIPTION (( 'STEP AP214' ),
    '1' );
FILE_NAME ('Micro_SFP-125-44.STEP',
    '2021-09-02T06:06:09',
    ( '' ),
    ( '' ),
    'SwSTEP 2.0',
    'SolidWorks 2020',
    '' );
FILE_SCHEMA (( 'AUTOMOTIVE_DESIGN' ));
ENDSEC;

DATA;
#1 = STYLED_ITEM ( 'NONE', ( #248 ), #246 ) ;
#2 = EDGE_LOOP ( 'NONE', ( #205, #194, #274, #79 ) ) ;
#3 = VECTOR ( 'NONE', #105, 39.37007874015748143 ) ;
#4 = ORIENTED_EDGE ( 'NONE', *, *, #46, .F. ) ;
#5 = VERTEX_POINT ( 'NONE', #134 ) ;
#6 = CYLINDRICAL_SURFACE ( 'NONE', #74, 0.1250000000000000000 ) ;
#7 = PRESENTATION_LAYER_ASSIGNMENT (  '', '', ( #1 ) ) ;
#8 = EDGE_LOOP ( 'NONE', ( #256, #29 ) ) ;
#9 =( CONVERSION_BASED_UNIT ( 'INCH', #197 ) LENGTH_UNIT ( ) NAMED_UNIT ( #48 ) );
#10 = EDGE_CURVE ( 'NONE', #253, #144, #241, .T. ) ;
#11 = DIRECTION ( 'NONE',  ( -1.000000000000000000, 0.0000000000000000000, 0.0000000000000000000 ) ) ;
#12 = CARTESIAN_POINT ( 'NONE',  ( 0.1250000000000000000, 1.530808498934191509E-17, 2.000000000000000000 ) ) ;
#13 = CARTESIAN_POINT ( 'NONE',  ( 0.0000000000000000000, 0.0000000000000000000, 1.984999999999999432 ) ) ;
#14 = DIRECTION ( 'NONE',  ( -1.224646799147353207E-16, -0.0000000000000000000, -1.000000000000000000 ) ) ;
#15 = AXIS2_PLACEMENT_3D ( 'NONE', #103, #193, #219 ) ;
#16 =( LENGTH_UNIT ( ) NAMED_UNIT ( * ) SI_UNIT ( $, .METRE. ) );
#17 = PRESENTATION_STYLE_ASSIGNMENT (( #83 ) ) ;
#18 = DIRECTION ( 'NONE',  ( 1.000000000000000000, 0.0000000000000000000, -0.0000000000000000000 ) ) ;
#19 = AXIS2_PLACEMENT_3D ( 'NONE', #282, #218, #283 ) ;
#20 = VECTOR ( 'NONE', #115, 39.37007874015748143 ) ;
#21 = LENGTH_MEASURE_WITH_UNIT ( LENGTH_MEASURE( 0.02539999999999999897 ), #16 );
#22 = PRODUCT_RELATED_PRODUCT_CATEGORY ( 'part', '', ( #116 ) ) ;
#23 = ORIENTED_EDGE ( 'NONE', *, *, #262, .T. ) ;
#24 = CIRCLE ( 'NONE', #151, 0.1099999999999996397 ) ;
#25 = EDGE_CURVE ( 'NONE', #144, #117, #100, .T. ) ;
#26 = DIRECTION ( 'NONE',  ( -1.224646799147353207E-16, -0.0000000000000000000, -1.000000000000000000 ) ) ;
#27 = APPLICATION_CONTEXT ( 'automotive_design' ) ;
#28 = ORIENTED_EDGE ( 'NONE', *, *, #172, .T. ) ;
#29 = ORIENTED_EDGE ( 'NONE', *, *, #127, .T. ) ;
#30 = STYLED_ITEM ( 'NONE', ( #17 ), #141 ) ;
#31 = EDGE_CURVE ( 'NONE', #51, #252, #175, .T. ) ;
#32 = PLANE ( 'NONE',  #101 ) ;
#33 = DIRECTION ( 'NONE',  ( 0.1736481776669313581, 0.0000000000000000000, 0.9848077530122077983 ) ) ;
#34 = ADVANCED_FACE ( 'NONE', ( #152 ), #239, .T. ) ;
#35 = DIRECTION ( 'NONE',  ( -1.000000000000000000, 0.0000000000000000000, 1.224646799147353207E-16 ) ) ;
#36 =( CONVERSION_BASED_UNIT ( 'INCH', #21 ) LENGTH_UNIT ( ) NAMED_UNIT ( #125 ) );
#37 = UNCERTAINTY_MEASURE_WITH_UNIT (LENGTH_MEASURE( 1.000000000000000082E-05 ), #36, 'distance_accuracy_value', 'NONE');
#38 = SURFACE_STYLE_FILL_AREA ( #240 ) ;
#39 = FILL_AREA_STYLE_COLOUR ( '', #133 ) ;
#40 = FACE_OUTER_BOUND ( 'NONE', #280, .T. ) ;
#41 = DIRECTION ( 'NONE',  ( -1.224646799147353207E-16, -0.0000000000000000000, -1.000000000000000000 ) ) ;
#42 = ADVANCED_FACE ( 'NONE', ( #78 ), #132, .T. ) ;
#43 = CARTESIAN_POINT ( 'NONE',  ( 6.123233995736766036E-17, 0.0000000000000000000, 0.5000000000000000000 ) ) ;
#44 = CIRCLE ( 'NONE', #92, 0.06243749999999999994 ) ;
#45 = LINE ( 'NONE', #138, #114 ) ;
#46 = EDGE_CURVE ( 'NONE', #189, #117, #131, .T. ) ;
#47 = AXIS2_PLACEMENT_3D ( 'NONE', #178, #110, #198 ) ;
#48 = DIMENSIONAL_EXPONENTS ( 1.000000000000000000, 0.0000000000000000000, 0.0000000000000000000, 0.0000000000000000000, 0.0000000000000000000, 0.0000000000000000000, 0.0000000000000000000 ) ;
#49 = ORIENTED_EDGE ( 'NONE', *, *, #121, .T. ) ;
#50 = ADVANCED_FACE ( 'NONE', ( #108 ), #212, .T. ) ;
#51 = VERTEX_POINT ( 'NONE', #195 ) ;
#52 = CIRCLE ( 'NONE', #217, 0.1099999999999996397 ) ;
#53 = AXIS2_PLACEMENT_3D ( 'NONE', #296, #232, #70 ) ;
#54 = DIRECTION ( 'NONE',  ( -0.0000000000000000000, -0.0000000000000000000, -1.000000000000000000 ) ) ;
#55 = CARTESIAN_POINT ( 'NONE',  ( 6.123233995736766036E-17, 0.0000000000000000000, 0.5000000000000000000 ) ) ;
#56 = CIRCLE ( 'NONE', #47, 0.1250000000000000000 ) ;
#57 = CARTESIAN_POINT ( 'NONE',  ( -0.1099999999999996397, 0.0000000000000000000, 2.000000000000000000 ) ) ;
#58 = DIRECTION ( 'NONE',  ( -1.000000000000000000, 0.0000000000000000000, 0.0000000000000000000 ) ) ;
#59 = CARTESIAN_POINT ( 'NONE',  ( 0.0000000000000000000, 0.0000000000000000000, 2.000000000000000000 ) ) ;
#60 =( NAMED_UNIT ( * ) SI_UNIT ( $, .STERADIAN. ) SOLID_ANGLE_UNIT ( ) );
#61 = CONICAL_SURFACE ( 'NONE', #160, 0.06243749999999999994, 0.1745329251994338637 ) ;
#62 =( NAMED_UNIT ( * ) SI_UNIT ( $, .STERADIAN. ) SOLID_ANGLE_UNIT ( ) );
#63 = SURFACE_STYLE_FILL_AREA ( #129 ) ;
#64 = CARTESIAN_POINT ( 'NONE',  ( 0.0000000000000000000, 0.0000000000000000000, 2.000000000000000000 ) ) ;
#65 = EDGE_CURVE ( 'NONE', #252, #253, #180, .T. ) ;
#66 = CARTESIAN_POINT ( 'NONE',  ( 6.123233995736766036E-17, 0.0000000000000000000, 0.5000000000000000000 ) ) ;
#67 = AXIS2_PLACEMENT_3D ( 'NONE', #150, #215, #11 ) ;
#68 = APPLICATION_PROTOCOL_DEFINITION ( 'draft international standard', 'automotive_design', 1998, #27 ) ;
#69 = AXIS2_PLACEMENT_3D ( 'NONE', #55, #173, #111 ) ;
#70 = DIRECTION ( 'NONE',  ( 1.000000000000000000, 0.0000000000000000000, 0.0000000000000000000 ) ) ;
#71 = ORIENTED_EDGE ( 'NONE', *, *, #25, .F. ) ;
#72 = CARTESIAN_POINT ( 'NONE',  ( -0.1249999999999999029, 0.0000000000000000000, 0.8548095688398309466 ) ) ;
#73 = ORIENTED_EDGE ( 'NONE', *, *, #172, .F. ) ;
#74 = AXIS2_PLACEMENT_3D ( 'NONE', #191, #54, #148 ) ;
#75 = VERTEX_POINT ( 'NONE', #286 ) ;
#76 = CARTESIAN_POINT ( 'NONE',  ( 0.0000000000000000000, 0.0000000000000000000, 0.0000000000000000000 ) ) ;
#77 = ADVANCED_FACE ( 'NONE', ( #145 ), #6, .T. ) ;
#78 = FACE_OUTER_BOUND ( 'NONE', #299, .T. ) ;
#79 = ORIENTED_EDGE ( 'NONE', *, *, #188, .F. ) ;
#80 = DIRECTION ( 'NONE',  ( -0.0000000000000000000, -0.0000000000000000000, -1.000000000000000000 ) ) ;
#81 = DIRECTION ( 'NONE',  ( -0.7071067811865434649, 0.0000000000000000000, -0.7071067811865515695 ) ) ;
#82 =( GEOMETRIC_REPRESENTATION_CONTEXT ( 3 ) GLOBAL_UNCERTAINTY_ASSIGNED_CONTEXT ( ( #87 ) ) GLOBAL_UNIT_ASSIGNED_CONTEXT ( ( #9, #203, #62 ) ) REPRESENTATION_CONTEXT ( 'NONE', 'WORKASPACE' ) );
#83 = SURFACE_STYLE_USAGE ( .BOTH. , #136 ) ;
#84 = ADVANCED_FACE ( 'NONE', ( #255 ), #126, .T. ) ;
#85 = CARTESIAN_POINT ( 'NONE',  ( -0.06243750000000001382, 0.0000000000000000000, 7.646388452176288915E-18 ) ) ;
#86 = DIRECTION ( 'NONE',  ( 1.000000000000000000, 0.0000000000000000000, 0.0000000000000000000 ) ) ;
#87 = UNCERTAINTY_MEASURE_WITH_UNIT (LENGTH_MEASURE( 1.000000000000000082E-05 ), #9, 'distance_accuracy_value', 'NONE');
#88 = CARTESIAN_POINT ( 'NONE',  ( 0.06243750000000006239, 0.0000000000000000000, 0.5000000000000000000 ) ) ;
#89 = MECHANICAL_DESIGN_GEOMETRIC_PRESENTATION_REPRESENTATION (  '', ( #1 ), #82 ) ;
#90 = DIRECTION ( 'NONE',  ( -1.000000000000000000, 0.0000000000000000000, 1.224646799147353207E-16 ) ) ;
#91 = CARTESIAN_POINT ( 'NONE',  ( 0.1250000000000000000, 1.530808498934191509E-17, 1.984999999999999432 ) ) ;
#92 = AXIS2_PLACEMENT_3D ( 'NONE', #43, #14, #135 ) ;
#93 = AXIS2_PLACEMENT_3D ( 'NONE', #59, #153, #18 ) ;
#94 = ORIENTED_EDGE ( 'NONE', *, *, #10, .T. ) ;
#95 = CLOSED_SHELL ( 'NONE', ( #84, #267, #50, #237, #77, #208, #107, #42, #34, #226 ) ) ;
#96 = ORIENTED_EDGE ( 'NONE', *, *, #31, .T. ) ;
#97 = ORIENTED_EDGE ( 'NONE', *, *, #46, .T. ) ;
#98 = VERTEX_POINT ( 'NONE', #149 ) ;
#99 = FACE_OUTER_BOUND ( 'NONE', #123, .T. ) ;
#100 = CIRCLE ( 'NONE', #15, 0.1250000000000000000 ) ;
#101 = AXIS2_PLACEMENT_3D ( 'NONE', #216, #257, #214 ) ;
#102 = VECTOR ( 'NONE', #41, 39.37007874015748143 ) ;
#103 = CARTESIAN_POINT ( 'NONE',  ( 1.046839802360228124E-16, 0.0000000000000000000, 0.8548095688398309466 ) ) ;
#104 = CYLINDRICAL_SURFACE ( 'NONE', #139, 0.1250000000000000000 ) ;
#105 = DIRECTION ( 'NONE',  ( -0.0000000000000000000, -0.0000000000000000000, -1.000000000000000000 ) ) ;
#106 = CARTESIAN_POINT ( 'NONE',  ( 0.0000000000000000000, 0.0000000000000000000, 2.000000000000000000 ) ) ;
#107 = ADVANCED_FACE ( 'NONE', ( #187 ), #230, .T. ) ;
#108 = FACE_OUTER_BOUND ( 'NONE', #229, .T. ) ;
#109 = APPLICATION_PROTOCOL_DEFINITION ( 'draft international standard', 'automotive_design', 1998, #154 ) ;
#110 = DIRECTION ( 'NONE',  ( -1.224646799147353207E-16, -0.0000000000000000000, -1.000000000000000000 ) ) ;
#111 = DIRECTION ( 'NONE',  ( 1.000000000000000000, 0.0000000000000000000, 0.0000000000000000000 ) ) ;
#112 = FACE_OUTER_BOUND ( 'NONE', #273, .T. ) ;
#113 = LINE ( 'NONE', #88, #249 ) ;
#114 = VECTOR ( 'NONE', #291, 39.37007874015748143 ) ;
#115 = DIRECTION ( 'NONE',  ( 0.7071067811865434649, 8.659560562354883554E-17, -0.7071067811865515695 ) ) ;
#116 = PRODUCT ( 'Micro_SFP-125-44', 'Micro_SFP-125-44', '', ( #165 ) ) ;
#117 = VERTEX_POINT ( 'NONE', #72 ) ;
#118 = ORIENTED_EDGE ( 'NONE', *, *, #281, .F. ) ;
#119 = AXIS2_PLACEMENT_3D ( 'NONE', #235, #275, #124 ) ;
#120 = ORIENTED_EDGE ( 'NONE', *, *, #250, .T. ) ;
#121 = EDGE_CURVE ( 'NONE', #98, #189, #192, .T. ) ;
#122 = AXIS2_PLACEMENT_3D ( 'NONE', #236, #279, #35 ) ;
#123 = EDGE_LOOP ( 'NONE', ( #146, #94, #183, #190 ) ) ;
#124 = DIRECTION ( 'NONE',  ( -1.000000000000000000, 0.0000000000000000000, 0.0000000000000000000 ) ) ;
#125 = DIMENSIONAL_EXPONENTS ( 1.000000000000000000, 0.0000000000000000000, 0.0000000000000000000, 0.0000000000000000000, 0.0000000000000000000, 0.0000000000000000000, 0.0000000000000000000 ) ;
#126 = CYLINDRICAL_SURFACE ( 'NONE', #204, 0.06243750000000001382 ) ;
#127 = EDGE_CURVE ( 'NONE', #268, #75, #156, .T. ) ;
#128 = ORIENTED_EDGE ( 'NONE', *, *, #162, .T. ) ;
#129 = FILL_AREA_STYLE ('',( #271 ) ) ;
#130 =( LENGTH_UNIT ( ) NAMED_UNIT ( * ) SI_UNIT ( $, .METRE. ) );
#131 = LINE ( 'NONE', #199, #170 ) ;
#132 = CONICAL_SURFACE ( 'NONE', #69, 0.06243749999999999994, 0.1745329251994338637 ) ;
#133 = COLOUR_RGB ( '',0.7921568627450980005, 0.8196078431372548767, 0.9333333333333333481 ) ;
#134 = CARTESIAN_POINT ( 'NONE',  ( 0.1099999999999996397, 1.438959988998137757E-17, 2.000000000000000000 ) ) ;
#135 = DIRECTION ( 'NONE',  ( -1.000000000000000000, 0.0000000000000000000, 0.0000000000000000000 ) ) ;
#136 = SURFACE_SIDE_STYLE ('',( #38 ) ) ;
#137 = DIRECTION ( 'NONE',  ( 1.000000000000000000, 0.0000000000000000000, 0.0000000000000000000 ) ) ;
#138 = CARTESIAN_POINT ( 'NONE',  ( -0.1250000000000000000, 0.0000000000000000000, 2.000000000000000000 ) ) ;
#139 = AXIS2_PLACEMENT_3D ( 'NONE', #106, #80, #58 ) ;
#140 = PLANE ( 'NONE',  #93 ) ;
#141 = ADVANCED_BREP_SHAPE_REPRESENTATION ( 'Micro_SFP-125-44', ( #246, #53 ), #213 ) ;
#142 = EDGE_LOOP ( 'NONE', ( #169, #49, #233, #202 ) ) ;
#143 = COLOUR_RGB ( '',0.7921568627450980005, 0.8196078431372548767, 0.9333333333333333481 ) ;
#144 = VERTEX_POINT ( 'NONE', #184 ) ;
#145 = FACE_OUTER_BOUND ( 'NONE', #168, .T. ) ;
#146 = ORIENTED_EDGE ( 'NONE', *, *, #65, .T. ) ;
#147 = EDGE_CURVE ( 'NONE', #252, #117, #45, .T. ) ;
#148 = DIRECTION ( 'NONE',  ( -1.000000000000000000, 0.0000000000000000000, 0.0000000000000000000 ) ) ;
#149 = CARTESIAN_POINT ( 'NONE',  ( 0.06243750000000006239, 0.0000000000000000000, 0.5000000000000000000 ) ) ;
#150 = CARTESIAN_POINT ( 'NONE',  ( 0.0000000000000000000, 0.0000000000000000000, 2.000000000000000000 ) ) ;
#151 = AXIS2_PLACEMENT_3D ( 'NONE', #64, #222, #137 ) ;
#152 = FACE_OUTER_BOUND ( 'NONE', #142, .T. ) ;
#153 = DIRECTION ( 'NONE',  ( 0.0000000000000000000, 0.0000000000000000000, 1.000000000000000000 ) ) ;
#154 = APPLICATION_CONTEXT ( 'automotive_design' ) ;
#155 = DIRECTION ( 'NONE',  ( 0.0000000000000000000, 0.0000000000000000000, -1.000000000000000000 ) ) ;
#156 = CIRCLE ( 'NONE', #182, 0.06243750000000001382 ) ;
#157 = DIRECTION ( 'NONE',  ( 1.224646799147353207E-16, 0.0000000000000000000, 1.000000000000000000 ) ) ;
#158 = CARTESIAN_POINT ( 'NONE',  ( 6.123233995736766036E-17, 0.0000000000000000000, 0.5000000000000000000 ) ) ;
#159 = DIRECTION ( 'NONE',  ( -1.000000000000000000, 0.0000000000000000000, 1.224646799147353207E-16 ) ) ;
#160 = AXIS2_PLACEMENT_3D ( 'NONE', #158, #157, #220 ) ;
#161 = SURFACE_STYLE_USAGE ( .BOTH. , #166 ) ;
#162 = EDGE_CURVE ( 'NONE', #117, #144, #56, .T. ) ;
#163 = CIRCLE ( 'NONE', #259, 0.06243750000000001382 ) ;
#164 =( GEOMETRIC_REPRESENTATION_CONTEXT ( 3 ) GLOBAL_UNCERTAINTY_ASSIGNED_CONTEXT ( ( #288 ) ) GLOBAL_UNIT_ASSIGNED_CONTEXT ( ( #181, #260, #270 ) ) REPRESENTATION_CONTEXT ( 'NONE', 'WORKASPACE' ) );
#165 = PRODUCT_CONTEXT ( 'NONE', #154, 'mechanical' ) ;
#166 = SURFACE_SIDE_STYLE ('',( #63 ) ) ;
#167 = ORIENTED_EDGE ( 'NONE', *, *, #262, .F. ) ;
#168 = EDGE_LOOP ( 'NONE', ( #211, #276, #277, #71 ) ) ;
#169 = ORIENTED_EDGE ( 'NONE', *, *, #298, .F. ) ;
#170 = VECTOR ( 'NONE', #258, 39.37007874015747433 ) ;
#171 = ORIENTED_EDGE ( 'NONE', *, *, #31, .F. ) ;
#172 = EDGE_CURVE ( 'NONE', #5, #51, #52, .T. ) ;
#173 = DIRECTION ( 'NONE',  ( 1.224646799147353207E-16, 0.0000000000000000000, 1.000000000000000000 ) ) ;
#174 = PRODUCT_DEFINITION_FORMATION_WITH_SPECIFIED_SOURCE ( 'ANY', '', #116, .NOT_KNOWN. ) ;
#175 = LINE ( 'NONE', #57, #266 ) ;
#176 = LENGTH_MEASURE_WITH_UNIT ( LENGTH_MEASURE( 0.02539999999999999897 ), #292 );
#177 = EDGE_CURVE ( 'NONE', #189, #98, #44, .T. ) ;
#178 = CARTESIAN_POINT ( 'NONE',  ( 1.046839802360228124E-16, 0.0000000000000000000, 0.8548095688398309466 ) ) ;
#179 = PRODUCT_DEFINITION_CONTEXT ( 'detailed design', #27, 'design' ) ;
#180 = CIRCLE ( 'NONE', #19, 0.1250000000000000000 ) ;
#181 =( CONVERSION_BASED_UNIT ( 'INCH', #176 ) LENGTH_UNIT ( ) NAMED_UNIT ( #234 ) );
#182 = AXIS2_PLACEMENT_3D ( 'NONE', #269, #297, #159 ) ;
#183 = ORIENTED_EDGE ( 'NONE', *, *, #162, .F. ) ;
#184 = CARTESIAN_POINT ( 'NONE',  ( 0.1250000000000001110, 1.530808498934192742E-17, 0.8548095688398309466 ) ) ;
#185 = AXIS2_PLACEMENT_3D ( 'NONE', #13, #155, #86 ) ;
#186 = EDGE_LOOP ( 'NONE', ( #118, #167, #96, #295 ) ) ;
#187 = FACE_OUTER_BOUND ( 'NONE', #186, .T. ) ;
#188 = EDGE_CURVE ( 'NONE', #189, #75, #285, .T. ) ;
#189 = VERTEX_POINT ( 'NONE', #293 ) ;
#190 = ORIENTED_EDGE ( 'NONE', *, *, #147, .F. ) ;
#191 = CARTESIAN_POINT ( 'NONE',  ( 0.0000000000000000000, 0.0000000000000000000, 2.000000000000000000 ) ) ;
#192 = CIRCLE ( 'NONE', #278, 0.06243749999999999994 ) ;
#193 = DIRECTION ( 'NONE',  ( -1.224646799147353207E-16, -0.0000000000000000000, -1.000000000000000000 ) ) ;
#194 = ORIENTED_EDGE ( 'NONE', *, *, #298, .T. ) ;
#195 = CARTESIAN_POINT ( 'NONE',  ( -0.1099999999999996397, 0.0000000000000000000, 2.000000000000000000 ) ) ;
#196 = MECHANICAL_DESIGN_GEOMETRIC_PRESENTATION_REPRESENTATION (  '', ( #30 ), #164 ) ;
#197 = LENGTH_MEASURE_WITH_UNIT ( LENGTH_MEASURE( 0.02539999999999999897 ), #130 );
#198 = DIRECTION ( 'NONE',  ( 1.000000000000000000, 0.0000000000000000000, 0.0000000000000000000 ) ) ;
#199 = CARTESIAN_POINT ( 'NONE',  ( -0.06243749999999994443, 7.646388452176287375E-18, 0.5000000000000000000 ) ) ;
#200 = CARTESIAN_POINT ( 'NONE',  ( 0.1099999999999996397, 1.347111479062084158E-17, 2.000000000000000000 ) ) ;
#201 = DIRECTION ( 'NONE',  ( -1.224646799147353207E-16, -0.0000000000000000000, -1.000000000000000000 ) ) ;
#202 = ORIENTED_EDGE ( 'NONE', *, *, #127, .F. ) ;
#203 =( NAMED_UNIT ( * ) PLANE_ANGLE_UNIT ( ) SI_UNIT ( $, .RADIAN. ) );
#204 = AXIS2_PLACEMENT_3D ( 'NONE', #76, #272, #207 ) ;
#205 = ORIENTED_EDGE ( 'NONE', *, *, #177, .T. ) ;
#206 = ORIENTED_EDGE ( 'NONE', *, *, #25, .T. ) ;
#207 = DIRECTION ( 'NONE',  ( -1.000000000000000000, 0.0000000000000000000, 1.224646799147353207E-16 ) ) ;
#208 = ADVANCED_FACE ( 'NONE', ( #40 ), #140, .T. ) ;
#209 = ORIENTED_EDGE ( 'NONE', *, *, #177, .F. ) ;
#210 = ORIENTED_EDGE ( 'NONE', *, *, #281, .T. ) ;
#211 = ORIENTED_EDGE ( 'NONE', *, *, #10, .F. ) ;
#212 = CONICAL_SURFACE ( 'NONE', #67, 0.1099999999999996397, 0.7853981633974426169 ) ;
#213 =( GEOMETRIC_REPRESENTATION_CONTEXT ( 3 ) GLOBAL_UNCERTAINTY_ASSIGNED_CONTEXT ( ( #37 ) ) GLOBAL_UNIT_ASSIGNED_CONTEXT ( ( #36, #242, #60 ) ) REPRESENTATION_CONTEXT ( 'NONE', 'WORKASPACE' ) );
#214 = DIRECTION ( 'NONE',  ( 1.000000000000000000, 0.0000000000000000000, -0.0000000000000000000 ) ) ;
#215 = DIRECTION ( 'NONE',  ( 0.0000000000000000000, 0.0000000000000000000, -1.000000000000000000 ) ) ;
#216 = CARTESIAN_POINT ( 'NONE',  ( 0.0000000000000000000, 0.0000000000000000000, 0.0000000000000000000 ) ) ;
#217 = AXIS2_PLACEMENT_3D ( 'NONE', #245, #265, #243 ) ;
#218 = DIRECTION ( 'NONE',  ( 0.0000000000000000000, 0.0000000000000000000, -1.000000000000000000 ) ) ;
#219 = DIRECTION ( 'NONE',  ( 1.000000000000000000, 0.0000000000000000000, 0.0000000000000000000 ) ) ;
#220 = DIRECTION ( 'NONE',  ( 1.000000000000000000, 0.0000000000000000000, 0.0000000000000000000 ) ) ;
#221 = CARTESIAN_POINT ( 'NONE',  ( 9.364125142994975765E-34, 0.0000000000000000000, 7.646388452176288915E-18 ) ) ;
#222 = DIRECTION ( 'NONE',  ( 0.0000000000000000000, 0.0000000000000000000, 1.000000000000000000 ) ) ;
#223 = EDGE_CURVE ( 'NONE', #75, #268, #163, .T. ) ;
#224 = VECTOR ( 'NONE', #261, 39.37007874015748143 ) ;
#225 = PRESENTATION_LAYER_ASSIGNMENT (  '', '', ( #30 ) ) ;
#226 = ADVANCED_FACE ( 'NONE', ( #264 ), #32, .F. ) ;
#227 = SHAPE_DEFINITION_REPRESENTATION ( #290, #141 ) ;
#228 = DIRECTION ( 'NONE',  ( -1.000000000000000000, 0.0000000000000000000, 0.0000000000000000000 ) ) ;
#229 = EDGE_LOOP ( 'NONE', ( #73, #210, #231, #171 ) ) ;
#230 = CONICAL_SURFACE ( 'NONE', #119, 0.1099999999999996397, 0.7853981633974426169 ) ;
#231 = ORIENTED_EDGE ( 'NONE', *, *, #65, .F. ) ;
#232 = DIRECTION ( 'NONE',  ( 0.0000000000000000000, 0.0000000000000000000, 1.000000000000000000 ) ) ;
#233 = ORIENTED_EDGE ( 'NONE', *, *, #188, .T. ) ;
#234 = DIMENSIONAL_EXPONENTS ( 1.000000000000000000, 0.0000000000000000000, 0.0000000000000000000, 0.0000000000000000000, 0.0000000000000000000, 0.0000000000000000000, 0.0000000000000000000 ) ;
#235 = CARTESIAN_POINT ( 'NONE',  ( 0.0000000000000000000, 0.0000000000000000000, 2.000000000000000000 ) ) ;
#236 = CARTESIAN_POINT ( 'NONE',  ( 0.0000000000000000000, 0.0000000000000000000, 0.0000000000000000000 ) ) ;
#237 = ADVANCED_FACE ( 'NONE', ( #99 ), #104, .T. ) ;
#238 = LINE ( 'NONE', #289, #102 ) ;
#239 = CYLINDRICAL_SURFACE ( 'NONE', #122, 0.06243750000000001382 ) ;
#240 = FILL_AREA_STYLE ('',( #39 ) ) ;
#241 = LINE ( 'NONE', #12, #3 ) ;
#242 =( NAMED_UNIT ( * ) PLANE_ANGLE_UNIT ( ) SI_UNIT ( $, .RADIAN. ) );
#243 = DIRECTION ( 'NONE',  ( 1.000000000000000000, 0.0000000000000000000, 0.0000000000000000000 ) ) ;
#244 = CARTESIAN_POINT ( 'NONE',  ( 0.06243750000000001382, 7.646388452176288915E-18, 0.0000000000000000000 ) ) ;
#245 = CARTESIAN_POINT ( 'NONE',  ( 0.0000000000000000000, 0.0000000000000000000, 2.000000000000000000 ) ) ;
#246 = MANIFOLD_SOLID_BREP ( 'Cut-Revolve1', #95 ) ;
#247 = CIRCLE ( 'NONE', #185, 0.1250000000000000000 ) ;
#248 = PRESENTATION_STYLE_ASSIGNMENT (( #161 ) ) ;
#249 = VECTOR ( 'NONE', #33, 39.37007874015748143 ) ;
#250 = EDGE_CURVE ( 'NONE', #98, #144, #113, .T. ) ;
#251 = ORIENTED_EDGE ( 'NONE', *, *, #250, .F. ) ;
#252 = VERTEX_POINT ( 'NONE', #263 ) ;
#253 = VERTEX_POINT ( 'NONE', #91 ) ;
#254 = ORIENTED_EDGE ( 'NONE', *, *, #121, .F. ) ;
#255 = FACE_OUTER_BOUND ( 'NONE', #2, .T. ) ;
#256 = ORIENTED_EDGE ( 'NONE', *, *, #223, .T. ) ;
#257 = DIRECTION ( 'NONE',  ( 0.0000000000000000000, 0.0000000000000000000, 1.000000000000000000 ) ) ;
#258 = DIRECTION ( 'NONE',  ( -0.1736481776669311639, 2.126576849575783008E-17, 0.9848077530122080203 ) ) ;
#259 = AXIS2_PLACEMENT_3D ( 'NONE', #221, #201, #90 ) ;
#260 =( NAMED_UNIT ( * ) PLANE_ANGLE_UNIT ( ) SI_UNIT ( $, .RADIAN. ) );
#261 = DIRECTION ( 'NONE',  ( -1.224646799147353207E-16, -0.0000000000000000000, -1.000000000000000000 ) ) ;
#262 = EDGE_CURVE ( 'NONE', #51, #5, #24, .T. ) ;
#263 = CARTESIAN_POINT ( 'NONE',  ( -0.1250000000000000000, 0.0000000000000000000, 1.984999999999999432 ) ) ;
#264 = FACE_OUTER_BOUND ( 'NONE', #8, .T. ) ;
#265 = DIRECTION ( 'NONE',  ( 0.0000000000000000000, 0.0000000000000000000, 1.000000000000000000 ) ) ;
#266 = VECTOR ( 'NONE', #81, 39.37007874015748143 ) ;
#267 = ADVANCED_FACE ( 'NONE', ( #112 ), #61, .T. ) ;
#268 = VERTEX_POINT ( 'NONE', #244 ) ;
#269 = CARTESIAN_POINT ( 'NONE',  ( 9.364125142994975765E-34, 0.0000000000000000000, 7.646388452176288915E-18 ) ) ;
#270 =( NAMED_UNIT ( * ) SI_UNIT ( $, .STERADIAN. ) SOLID_ANGLE_UNIT ( ) );
#271 = FILL_AREA_STYLE_COLOUR ( '', #143 ) ;
#272 = DIRECTION ( 'NONE',  ( -1.224646799147353207E-16, -0.0000000000000000000, -1.000000000000000000 ) ) ;
#273 = EDGE_LOOP ( 'NONE', ( #209, #97, #128, #251 ) ) ;
#274 = ORIENTED_EDGE ( 'NONE', *, *, #223, .F. ) ;
#275 = DIRECTION ( 'NONE',  ( 0.0000000000000000000, 0.0000000000000000000, -1.000000000000000000 ) ) ;
#276 = ORIENTED_EDGE ( 'NONE', *, *, #287, .T. ) ;
#277 = ORIENTED_EDGE ( 'NONE', *, *, #147, .T. ) ;
#278 = AXIS2_PLACEMENT_3D ( 'NONE', #66, #26, #228 ) ;
#279 = DIRECTION ( 'NONE',  ( -1.224646799147353207E-16, -0.0000000000000000000, -1.000000000000000000 ) ) ;
#280 = EDGE_LOOP ( 'NONE', ( #23, #28 ) ) ;
#281 = EDGE_CURVE ( 'NONE', #5, #253, #284, .T. ) ;
#282 = CARTESIAN_POINT ( 'NONE',  ( 0.0000000000000000000, 0.0000000000000000000, 1.984999999999999432 ) ) ;
#283 = DIRECTION ( 'NONE',  ( 1.000000000000000000, 0.0000000000000000000, 0.0000000000000000000 ) ) ;
#284 = LINE ( 'NONE', #200, #20 ) ;
#285 = LINE ( 'NONE', #85, #224 ) ;
#286 = CARTESIAN_POINT ( 'NONE',  ( -0.06243750000000001382, 0.0000000000000000000, 1.529277690435257783E-17 ) ) ;
#287 = EDGE_CURVE ( 'NONE', #253, #252, #247, .T. ) ;
#288 = UNCERTAINTY_MEASURE_WITH_UNIT (LENGTH_MEASURE( 1.000000000000000082E-05 ), #181, 'distance_accuracy_value', 'NONE');
#289 = CARTESIAN_POINT ( 'NONE',  ( 0.06243750000000001382, 7.646388452176288915E-18, -7.646388452176288915E-18 ) ) ;
#290 = PRODUCT_DEFINITION_SHAPE ( 'NONE', 'NONE',  #294 ) ;
#291 = DIRECTION ( 'NONE',  ( -0.0000000000000000000, -0.0000000000000000000, -1.000000000000000000 ) ) ;
#292 =( LENGTH_UNIT ( ) NAMED_UNIT ( * ) SI_UNIT ( $, .METRE. ) );
#293 = CARTESIAN_POINT ( 'NONE',  ( -0.06243749999999994443, 1.147723672075910277E-17, 0.5000000000000000000 ) ) ;
#294 = PRODUCT_DEFINITION ( 'UNKNOWN', '', #174, #179 ) ;
#295 = ORIENTED_EDGE ( 'NONE', *, *, #287, .F. ) ;
#296 = CARTESIAN_POINT ( 'NONE',  ( 0.0000000000000000000, 0.0000000000000000000, 0.0000000000000000000 ) ) ;
#297 = DIRECTION ( 'NONE',  ( -1.224646799147353207E-16, -0.0000000000000000000, -1.000000000000000000 ) ) ;
#298 = EDGE_CURVE ( 'NONE', #98, #268, #238, .T. ) ;
#299 = EDGE_LOOP ( 'NONE', ( #4, #254, #120, #206 ) ) ;
ENDSEC;
END-ISO-10303-21;
