ISO-10303-21;
HEADER;
FILE_DESCRIPTION (( 'STEP AP214' ),
    '1' );
FILE_NAME ('Micro_SEM-093-03X.STEP',
    '2021-09-02T01:10:17',
    ( '' ),
    ( '' ),
    'SwSTEP 2.0',
    'SolidWorks 2020',
    '' );
FILE_SCHEMA (( 'AUTOMOTIVE_DESIGN' ));
ENDSEC;

DATA;
#1 = DIRECTION ( 'NONE',  ( -1.000000000000000000, 0.0000000000000000000, 0.0000000000000000000 ) ) ;
#2 =( GEOMETRIC_REPRESENTATION_CONTEXT ( 3 ) GLOBAL_UNCERTAINTY_ASSIGNED_CONTEXT ( ( #133 ) ) GLOBAL_UNIT_ASSIGNED_CONTEXT ( ( #137, #64, #37 ) ) REPRESENTATION_CONTEXT ( 'NONE', 'WORKASPACE' ) );
#3 = VERTEX_POINT ( 'NONE', #71 ) ;
#4 = DIRECTION ( 'NONE',  ( -1.000000000000000000, 0.0000000000000000000, 1.224646799147353454E-16 ) ) ;
#5 = DIRECTION ( 'NONE',  ( 1.000000000000000000, 0.0000000000000000000, 0.0000000000000000000 ) ) ;
#6 = EDGE_LOOP ( 'NONE', ( #218, #245 ) ) ;
#7 = DIRECTION ( 'NONE',  ( -0.0000000000000000000, -0.0000000000000000000, -1.000000000000000000 ) ) ;
#8 = CARTESIAN_POINT ( 'NONE',  ( 3.389062808013151311E-17, 0.0000000000000000000, 0.2767379795033758083 ) ) ;
#9 = COLOUR_RGB ( '',0.7921568627450980005, 0.8196078431372548767, 0.9333333333333333481 ) ;
#10 = LINE ( 'NONE', #141, #294 ) ;
#11 = FACE_OUTER_BOUND ( 'NONE', #6, .T. ) ;
#12 = CARTESIAN_POINT ( 'NONE',  ( -0.06250000000000000000, 0.0000000000000000000, 1.500000000000000222 ) ) ;
#13 = AXIS2_PLACEMENT_3D ( 'NONE', #104, #57, #159 ) ;
#14 = CARTESIAN_POINT ( 'NONE',  ( 0.0000000000000000000, 0.0000000000000000000, 0.0000000000000000000 ) ) ;
#15 = EDGE_CURVE ( 'NONE', #50, #48, #238, .T. ) ;
#16 = ADVANCED_FACE ( 'NONE', ( #281 ), #163, .T. ) ;
#17 = PRODUCT ( 'Micro_SEM-093-03X', 'Micro_SEM-093-03X', '', ( #148 ) ) ;
#18 = MECHANICAL_DESIGN_GEOMETRIC_PRESENTATION_REPRESENTATION (  '', ( #283 ), #2 ) ;
#19 = ORIENTED_EDGE ( 'NONE', *, *, #28, .F. ) ;
#20 = AXIS2_PLACEMENT_3D ( 'NONE', #209, #112, #229 ) ;
#21 = ORIENTED_EDGE ( 'NONE', *, *, #98, .F. ) ;
#22 = CARTESIAN_POINT ( 'NONE',  ( 0.06250000000000000000, 7.654042494670956004E-18, 1.485000000000000764 ) ) ;
#23 = EDGE_LOOP ( 'NONE', ( #180, #25, #177, #43 ) ) ;
#24 = DIRECTION ( 'NONE',  ( 0.0000000000000000000, 0.0000000000000000000, 1.000000000000000000 ) ) ;
#25 = ORIENTED_EDGE ( 'NONE', *, *, #47, .F. ) ;
#26 = FACE_OUTER_BOUND ( 'NONE', #298, .T. ) ;
#27 = ORIENTED_EDGE ( 'NONE', *, *, #45, .T. ) ;
#28 = EDGE_CURVE ( 'NONE', #222, #101, #158, .T. ) ;
#29 = CARTESIAN_POINT ( 'NONE',  ( -0.06250000000000000000, 0.0000000000000000000, 1.485000000000000764 ) ) ;
#30 = CARTESIAN_POINT ( 'NONE',  ( 3.389062808013151311E-17, 0.0000000000000000000, 0.2767379795033758083 ) ) ;
#31 = CYLINDRICAL_SURFACE ( 'NONE', #293, 0.06250000000000000000 ) ;
#32 = CARTESIAN_POINT ( 'NONE',  ( 0.04685310000000000169, 5.737849894513085128E-18, -5.737849894513086668E-18 ) ) ;
#33 = EDGE_CURVE ( 'NONE', #3, #74, #203, .T. ) ;
#34 = DIRECTION ( 'NONE',  ( 0.0000000000000000000, 0.0000000000000000000, -1.000000000000000000 ) ) ;
#35 = EDGE_CURVE ( 'NONE', #46, #284, #147, .T. ) ;
#36 = CARTESIAN_POINT ( 'NONE',  ( 0.0000000000000000000, 0.0000000000000000000, 1.500000000000000222 ) ) ;
#37 =( NAMED_UNIT ( * ) SI_UNIT ( $, .STERADIAN. ) SOLID_ANGLE_UNIT ( ) );
#38 = LINE ( 'NONE', #139, #130 ) ;
#39 = VECTOR ( 'NONE', #7, 39.37007874015748143 ) ;
#40 = DIRECTION ( 'NONE',  ( -1.224646799147353454E-16, -0.0000000000000000000, -1.000000000000000000 ) ) ;
#41 = CIRCLE ( 'NONE', #269, 0.06250000000000000000 ) ;
#42 = DIRECTION ( 'NONE',  ( 1.000000000000000000, 0.0000000000000000000, -0.0000000000000000000 ) ) ;
#43 = ORIENTED_EDGE ( 'NONE', *, *, #282, .F. ) ;
#44 = EDGE_CURVE ( 'NONE', #101, #222, #90, .T. ) ;
#45 = EDGE_CURVE ( 'NONE', #74, #3, #83, .T. ) ;
#46 = VERTEX_POINT ( 'NONE', #66 ) ;
#47 = EDGE_CURVE ( 'NONE', #46, #262, #249, .T. ) ;
#48 = VERTEX_POINT ( 'NONE', #291 ) ;
#49 = DIRECTION ( 'NONE',  ( -0.0000000000000000000, -0.0000000000000000000, -1.000000000000000000 ) ) ;
#50 = VERTEX_POINT ( 'NONE', #82 ) ;
#51 = SURFACE_SIDE_STYLE ('',( #288 ) ) ;
#52 = ORIENTED_EDGE ( 'NONE', *, *, #212, .F. ) ;
#53 = AXIS2_PLACEMENT_3D ( 'NONE', #152, #239, #297 ) ;
#54 =( GEOMETRIC_REPRESENTATION_CONTEXT ( 3 ) GLOBAL_UNCERTAINTY_ASSIGNED_CONTEXT ( ( #253 ) ) GLOBAL_UNIT_ASSIGNED_CONTEXT ( ( #191, #252, #234 ) ) REPRESENTATION_CONTEXT ( 'NONE', 'WORKASPACE' ) );
#55 = DIRECTION ( 'NONE',  ( -1.224646799147353454E-16, -0.0000000000000000000, -1.000000000000000000 ) ) ;
#56 = DIRECTION ( 'NONE',  ( 0.0000000000000000000, 0.0000000000000000000, -1.000000000000000000 ) ) ;
#57 = DIRECTION ( 'NONE',  ( 1.224646799147353454E-16, 0.0000000000000000000, 1.000000000000000000 ) ) ;
#58 = UNCERTAINTY_MEASURE_WITH_UNIT (LENGTH_MEASURE( 1.000000000000000082E-05 ), #186, 'distance_accuracy_value', 'NONE');
#59 = DIRECTION ( 'NONE',  ( 1.000000000000000000, 0.0000000000000000000, 0.0000000000000000000 ) ) ;
#60 = DIRECTION ( 'NONE',  ( 1.000000000000000000, 0.0000000000000000000, 0.0000000000000000000 ) ) ;
#61 = AXIS2_PLACEMENT_3D ( 'NONE', #144, #40, #233 ) ;
#62 = CARTESIAN_POINT ( 'NONE',  ( 0.04685310000000002945, 0.0000000000000000000, 0.1880000000000000282 ) ) ;
#63 = DIRECTION ( 'NONE',  ( -1.224646799147353454E-16, -0.0000000000000000000, -1.000000000000000000 ) ) ;
#64 =( NAMED_UNIT ( * ) PLANE_ANGLE_UNIT ( ) SI_UNIT ( $, .RADIAN. ) );
#65 = CARTESIAN_POINT ( 'NONE',  ( 0.06250000000000002776, 7.654042494670959086E-18, 0.2767379795033758083 ) ) ;
#66 = CARTESIAN_POINT ( 'NONE',  ( -0.04750000000000064587, 0.0000000000000000000, 1.500000000000000222 ) ) ;
#67 = PRODUCT_DEFINITION ( 'UNKNOWN', '', #267, #260 ) ;
#68 = APPLICATION_PROTOCOL_DEFINITION ( 'draft international standard', 'automotive_design', 1998, #266 ) ;
#69 = VECTOR ( 'NONE', #162, 39.37007874015748143 ) ;
#70 = ORIENTED_EDGE ( 'NONE', *, *, #212, .T. ) ;
#71 = CARTESIAN_POINT ( 'NONE',  ( -0.04685309999999998087, 6.695946194592021721E-18, 0.1880000000000000282 ) ) ;
#72 = ORIENTED_EDGE ( 'NONE', *, *, #256, .T. ) ;
#73 = DIRECTION ( 'NONE',  ( -1.000000000000000000, 0.0000000000000000000, 0.0000000000000000000 ) ) ;
#74 = VERTEX_POINT ( 'NONE', #76 ) ;
#75 = EDGE_LOOP ( 'NONE', ( #154, #194, #19, #124 ) ) ;
#76 = CARTESIAN_POINT ( 'NONE',  ( 0.04685310000000002945, 0.0000000000000000000, 0.1880000000000000282 ) ) ;
#77 = DIRECTION ( 'NONE',  ( 0.7071067811865456854, 8.659560562354911904E-17, -0.7071067811865493491 ) ) ;
#78 = PLANE ( 'NONE',  #20 ) ;
#79 =( NAMED_UNIT ( * ) SI_UNIT ( $, .STERADIAN. ) SOLID_ANGLE_UNIT ( ) );
#80 = CARTESIAN_POINT ( 'NONE',  ( 0.04750000000000064587, 6.735557395310482421E-18, 1.500000000000000222 ) ) ;
#81 = CARTESIAN_POINT ( 'NONE',  ( 0.0000000000000000000, 0.0000000000000000000, 0.0000000000000000000 ) ) ;
#82 = CARTESIAN_POINT ( 'NONE',  ( -0.04685310000000000169, 0.0000000000000000000, 1.147569978902617334E-17 ) ) ;
#83 = CIRCLE ( 'NONE', #97, 0.04685310000000000863 ) ;
#84 = LINE ( 'NONE', #62, #69 ) ;
#85 = VECTOR ( 'NONE', #55, 39.37007874015748143 ) ;
#86 = FILL_AREA_STYLE ('',( #142 ) ) ;
#87 = LENGTH_MEASURE_WITH_UNIT ( LENGTH_MEASURE( 0.02539999999999999897 ), #166 );
#88 = DIMENSIONAL_EXPONENTS ( 1.000000000000000000, 0.0000000000000000000, 0.0000000000000000000, 0.0000000000000000000, 0.0000000000000000000, 0.0000000000000000000, 0.0000000000000000000 ) ;
#89 = DIRECTION ( 'NONE',  ( -1.224646799147353454E-16, -0.0000000000000000000, -1.000000000000000000 ) ) ;
#90 = CIRCLE ( 'NONE', #213, 0.06250000000000000000 ) ;
#91 = ADVANCED_FACE ( 'NONE', ( #127 ), #103, .T. ) ;
#92 = ADVANCED_FACE ( 'NONE', ( #156 ), #31, .T. ) ;
#93 = EDGE_LOOP ( 'NONE', ( #96, #27, #70, #21 ) ) ;
#94 = ORIENTED_EDGE ( 'NONE', *, *, #138, .F. ) ;
#95 = DIRECTION ( 'NONE',  ( 0.0000000000000000000, 0.0000000000000000000, 1.000000000000000000 ) ) ;
#96 = ORIENTED_EDGE ( 'NONE', *, *, #256, .F. ) ;
#97 = AXIS2_PLACEMENT_3D ( 'NONE', #117, #89, #230 ) ;
#98 = EDGE_CURVE ( 'NONE', #48, #50, #175, .T. ) ;
#99 = ORIENTED_EDGE ( 'NONE', *, *, #236, .T. ) ;
#100 = CARTESIAN_POINT ( 'NONE',  ( 0.0000000000000000000, 0.0000000000000000000, 1.485000000000000764 ) ) ;
#101 = VERTEX_POINT ( 'NONE', #65 ) ;
#102 = FILL_AREA_STYLE ('',( #181 ) ) ;
#103 = CYLINDRICAL_SURFACE ( 'NONE', #129, 0.04685310000000000169 ) ;
#104 = CARTESIAN_POINT ( 'NONE',  ( 2.302335982397024786E-17, 0.0000000000000000000, 0.1880000000000000282 ) ) ;
#105 = ADVANCED_FACE ( 'NONE', ( #111 ), #118, .T. ) ;
#106 = VECTOR ( 'NONE', #228, 39.37007874015748143 ) ;
#107 = CONICAL_SURFACE ( 'NONE', #13, 0.04685310000000000863, 0.1745329251994339192 ) ;
#108 = DIRECTION ( 'NONE',  ( -0.0000000000000000000, -0.0000000000000000000, -1.000000000000000000 ) ) ;
#109 = DIRECTION ( 'NONE',  ( 1.000000000000000000, 0.0000000000000000000, 0.0000000000000000000 ) ) ;
#110 = DIRECTION ( 'NONE',  ( -1.000000000000000000, 0.0000000000000000000, 0.0000000000000000000 ) ) ;
#111 = FACE_OUTER_BOUND ( 'NONE', #258, .T. ) ;
#112 = DIRECTION ( 'NONE',  ( 0.0000000000000000000, 0.0000000000000000000, 1.000000000000000000 ) ) ;
#113 = DIRECTION ( 'NONE',  ( -1.224646799147353454E-16, -0.0000000000000000000, -1.000000000000000000 ) ) ;
#114 = AXIS2_PLACEMENT_3D ( 'NONE', #81, #113, #4 ) ;
#115 = LENGTH_MEASURE_WITH_UNIT ( LENGTH_MEASURE( 0.02539999999999999897 ), #251 );
#116 = COLOUR_RGB ( '',0.7921568627450980005, 0.8196078431372548767, 0.9333333333333333481 ) ;
#117 = CARTESIAN_POINT ( 'NONE',  ( 2.302335982397024786E-17, 0.0000000000000000000, 0.1880000000000000282 ) ) ;
#118 = CYLINDRICAL_SURFACE ( 'NONE', #114, 0.04685310000000000169 ) ;
#119 = SHAPE_DEFINITION_REPRESENTATION ( #174, #193 ) ;
#120 = DIRECTION ( 'NONE',  ( 0.0000000000000000000, 0.0000000000000000000, 1.000000000000000000 ) ) ;
#121 = AXIS2_PLACEMENT_3D ( 'NONE', #170, #270, #211 ) ;
#122 = EDGE_CURVE ( 'NONE', #262, #46, #244, .T. ) ;
#123 = ORIENTED_EDGE ( 'NONE', *, *, #210, .T. ) ;
#124 = ORIENTED_EDGE ( 'NONE', *, *, #236, .F. ) ;
#125 = DIRECTION ( 'NONE',  ( 0.0000000000000000000, 0.0000000000000000000, -1.000000000000000000 ) ) ;
#126 = ORIENTED_EDGE ( 'NONE', *, *, #254, .F. ) ;
#127 = FACE_OUTER_BOUND ( 'NONE', #93, .T. ) ;
#128 = VERTEX_POINT ( 'NONE', #22 ) ;
#129 = AXIS2_PLACEMENT_3D ( 'NONE', #286, #247, #182 ) ;
#130 = VECTOR ( 'NONE', #292, 39.37007874015748143 ) ;
#131 = DIRECTION ( 'NONE',  ( 1.224646799147353454E-16, 0.0000000000000000000, 1.000000000000000000 ) ) ;
#132 = CARTESIAN_POINT ( 'NONE',  ( 0.0000000000000000000, 0.0000000000000000000, 1.500000000000000222 ) ) ;
#133 = UNCERTAINTY_MEASURE_WITH_UNIT (LENGTH_MEASURE( 1.000000000000000082E-05 ), #137, 'distance_accuracy_value', 'NONE');
#134 = DIRECTION ( 'NONE',  ( -1.224646799147353454E-16, -0.0000000000000000000, -1.000000000000000000 ) ) ;
#135 = DIRECTION ( 'NONE',  ( -1.000000000000000000, 0.0000000000000000000, 0.0000000000000000000 ) ) ;
#136 = CONICAL_SURFACE ( 'NONE', #172, 0.04685310000000000863, 0.1745329251994339192 ) ;
#137 =( CONVERSION_BASED_UNIT ( 'INCH', #87 ) LENGTH_UNIT ( ) NAMED_UNIT ( #88 ) );
#138 = EDGE_CURVE ( 'NONE', #284, #128, #41, .T. ) ;
#139 = CARTESIAN_POINT ( 'NONE',  ( 0.06250000000000000000, 7.654042494670956004E-18, 1.500000000000000222 ) ) ;
#140 = DIRECTION ( 'NONE',  ( -1.000000000000000000, 0.0000000000000000000, 1.224646799147353454E-16 ) ) ;
#141 = CARTESIAN_POINT ( 'NONE',  ( 0.04750000000000064587, 5.817072295950006528E-18, 1.500000000000000222 ) ) ;
#142 = FILL_AREA_STYLE_COLOUR ( '', #116 ) ;
#143 = PRESENTATION_LAYER_ASSIGNMENT (  '', '', ( #283 ) ) ;
#144 = CARTESIAN_POINT ( 'NONE',  ( 2.302335982397024786E-17, 0.0000000000000000000, 0.1880000000000000282 ) ) ;
#145 = SURFACE_STYLE_FILL_AREA ( #86 ) ;
#146 = CARTESIAN_POINT ( 'NONE',  ( 0.0000000000000000000, 0.0000000000000000000, 0.0000000000000000000 ) ) ;
#147 = LINE ( 'NONE', #187, #106 ) ;
#148 = PRODUCT_CONTEXT ( 'NONE', #196, 'mechanical' ) ;
#149 = CONICAL_SURFACE ( 'NONE', #171, 0.04750000000000064587, 0.7853981633974457255 ) ;
#150 = ADVANCED_FACE ( 'NONE', ( #219 ), #149, .T. ) ;
#151 = ORIENTED_EDGE ( 'NONE', *, *, #257, .F. ) ;
#152 = CARTESIAN_POINT ( 'NONE',  ( 7.026839507303431300E-34, 0.0000000000000000000, 5.737849894513086668E-18 ) ) ;
#153 = MECHANICAL_DESIGN_GEOMETRIC_PRESENTATION_REPRESENTATION (  '', ( #278 ), #54 ) ;
#154 = ORIENTED_EDGE ( 'NONE', *, *, #138, .T. ) ;
#155 = EDGE_LOOP ( 'NONE', ( #126, #241, #123, #157 ) ) ;
#156 = FACE_OUTER_BOUND ( 'NONE', #265, .T. ) ;
#157 = ORIENTED_EDGE ( 'NONE', *, *, #44, .T. ) ;
#158 = CIRCLE ( 'NONE', #221, 0.06250000000000000000 ) ;
#159 = DIRECTION ( 'NONE',  ( 1.000000000000000000, 0.0000000000000000000, 0.0000000000000000000 ) ) ;
#160 = MANIFOLD_SOLID_BREP ( 'Cut-Revolve1', #188 ) ;
#161 =( NAMED_UNIT ( * ) PLANE_ANGLE_UNIT ( ) SI_UNIT ( $, .RADIAN. ) );
#162 = DIRECTION ( 'NONE',  ( 0.1736481776669314137, 0.0000000000000000000, 0.9848077530122077983 ) ) ;
#163 = CONICAL_SURFACE ( 'NONE', #179, 0.04750000000000064587, 0.7853981633974457255 ) ;
#164 = CARTESIAN_POINT ( 'NONE',  ( -0.04685310000000000169, 0.0000000000000000000, 5.737849894513086668E-18 ) ) ;
#165 = PRODUCT_RELATED_PRODUCT_CATEGORY ( 'part', '', ( #17 ) ) ;
#166 =( LENGTH_UNIT ( ) NAMED_UNIT ( * ) SI_UNIT ( $, .METRE. ) );
#167 = DIMENSIONAL_EXPONENTS ( 1.000000000000000000, 0.0000000000000000000, 0.0000000000000000000, 0.0000000000000000000, 0.0000000000000000000, 0.0000000000000000000, 0.0000000000000000000 ) ;
#168 = DIRECTION ( 'NONE',  ( -1.224646799147353454E-16, -0.0000000000000000000, -1.000000000000000000 ) ) ;
#169 = ADVANCED_FACE ( 'NONE', ( #250 ), #299, .F. ) ;
#170 = CARTESIAN_POINT ( 'NONE',  ( 0.0000000000000000000, 0.0000000000000000000, 1.500000000000000222 ) ) ;
#171 = AXIS2_PLACEMENT_3D ( 'NONE', #132, #225, #73 ) ;
#172 = AXIS2_PLACEMENT_3D ( 'NONE', #178, #131, #5 ) ;
#173 = SURFACE_STYLE_USAGE ( .BOTH. , #273 ) ;
#174 = PRODUCT_DEFINITION_SHAPE ( 'NONE', 'NONE',  #67 ) ;
#175 = CIRCLE ( 'NONE', #208, 0.04685310000000000169 ) ;
#176 = FACE_OUTER_BOUND ( 'NONE', #75, .T. ) ;
#177 = ORIENTED_EDGE ( 'NONE', *, *, #35, .T. ) ;
#178 = CARTESIAN_POINT ( 'NONE',  ( 2.302335982397024786E-17, 0.0000000000000000000, 0.1880000000000000282 ) ) ;
#179 = AXIS2_PLACEMENT_3D ( 'NONE', #36, #56, #110 ) ;
#180 = ORIENTED_EDGE ( 'NONE', *, *, #296, .F. ) ;
#181 = FILL_AREA_STYLE_COLOUR ( '', #9 ) ;
#182 = DIRECTION ( 'NONE',  ( -1.000000000000000000, 0.0000000000000000000, 1.224646799147353454E-16 ) ) ;
#183 = ORIENTED_EDGE ( 'NONE', *, *, #15, .F. ) ;
#184 = ORIENTED_EDGE ( 'NONE', *, *, #28, .T. ) ;
#185 = ADVANCED_FACE ( 'NONE', ( #26 ), #136, .T. ) ;
#186 =( CONVERSION_BASED_UNIT ( 'INCH', #115 ) LENGTH_UNIT ( ) NAMED_UNIT ( #226 ) );
#187 = CARTESIAN_POINT ( 'NONE',  ( -0.04750000000000064587, 0.0000000000000000000, 1.500000000000000222 ) ) ;
#188 = CLOSED_SHELL ( 'NONE', ( #105, #185, #150, #206, #92, #287, #16, #276, #91, #169 ) ) ;
#189 = LINE ( 'NONE', #12, #39 ) ;
#190 = LENGTH_MEASURE_WITH_UNIT ( LENGTH_MEASURE( 0.02539999999999999897 ), #272 );
#191 =( CONVERSION_BASED_UNIT ( 'INCH', #190 ) LENGTH_UNIT ( ) NAMED_UNIT ( #167 ) );
#192 = CIRCLE ( 'NONE', #290, 0.06250000000000000000 ) ;
#193 = ADVANCED_BREP_SHAPE_REPRESENTATION ( 'Micro_SEM-093-03X', ( #160, #232 ), #246 ) ;
#194 = ORIENTED_EDGE ( 'NONE', *, *, #257, .T. ) ;
#195 = ORIENTED_EDGE ( 'NONE', *, *, #33, .F. ) ;
#196 = APPLICATION_CONTEXT ( 'automotive_design' ) ;
#197 = ORIENTED_EDGE ( 'NONE', *, *, #44, .F. ) ;
#198 = PRESENTATION_LAYER_ASSIGNMENT (  '', '', ( #278 ) ) ;
#199 = ORIENTED_EDGE ( 'NONE', *, *, #33, .T. ) ;
#200 = DIRECTION ( 'NONE',  ( 1.000000000000000000, 0.0000000000000000000, 0.0000000000000000000 ) ) ;
#201 = PRESENTATION_STYLE_ASSIGNMENT (( #263 ) ) ;
#202 = CARTESIAN_POINT ( 'NONE',  ( 0.0000000000000000000, 0.0000000000000000000, 1.485000000000000764 ) ) ;
#203 = CIRCLE ( 'NONE', #61, 0.04685310000000000863 ) ;
#204 = CARTESIAN_POINT ( 'NONE',  ( -0.06249999999999996531, 0.0000000000000000000, 0.2767379795033758083 ) ) ;
#205 = DIRECTION ( 'NONE',  ( -1.224646799147353454E-16, -0.0000000000000000000, -1.000000000000000000 ) ) ;
#206 = ADVANCED_FACE ( 'NONE', ( #176 ), #235, .T. ) ;
#207 = LINE ( 'NONE', #32, #274 ) ;
#208 = AXIS2_PLACEMENT_3D ( 'NONE', #243, #205, #140 ) ;
#209 = CARTESIAN_POINT ( 'NONE',  ( 0.0000000000000000000, 0.0000000000000000000, 1.500000000000000222 ) ) ;
#210 = EDGE_CURVE ( 'NONE', #74, #101, #84, .T. ) ;
#211 = DIRECTION ( 'NONE',  ( 1.000000000000000000, 0.0000000000000000000, 0.0000000000000000000 ) ) ;
#212 = EDGE_CURVE ( 'NONE', #3, #50, #227, .T. ) ;
#213 = AXIS2_PLACEMENT_3D ( 'NONE', #8, #168, #60 ) ;
#214 = DIRECTION ( 'NONE',  ( 1.000000000000000000, 0.0000000000000000000, 0.0000000000000000000 ) ) ;
#215 = ORIENTED_EDGE ( 'NONE', *, *, #15, .T. ) ;
#216 = ORIENTED_EDGE ( 'NONE', *, *, #282, .T. ) ;
#217 = CARTESIAN_POINT ( 'NONE',  ( 0.0000000000000000000, 0.0000000000000000000, 1.500000000000000222 ) ) ;
#218 = ORIENTED_EDGE ( 'NONE', *, *, #47, .T. ) ;
#219 = FACE_OUTER_BOUND ( 'NONE', #224, .T. ) ;
#220 = CARTESIAN_POINT ( 'NONE',  ( 0.0000000000000000000, 0.0000000000000000000, 1.500000000000000222 ) ) ;
#221 = AXIS2_PLACEMENT_3D ( 'NONE', #30, #134, #109 ) ;
#222 = VERTEX_POINT ( 'NONE', #204 ) ;
#223 = AXIS2_PLACEMENT_3D ( 'NONE', #261, #108, #135 ) ;
#224 = EDGE_LOOP ( 'NONE', ( #280, #264, #94, #259 ) ) ;
#225 = DIRECTION ( 'NONE',  ( 0.0000000000000000000, 0.0000000000000000000, -1.000000000000000000 ) ) ;
#226 = DIMENSIONAL_EXPONENTS ( 1.000000000000000000, 0.0000000000000000000, 0.0000000000000000000, 0.0000000000000000000, 0.0000000000000000000, 0.0000000000000000000, 0.0000000000000000000 ) ;
#227 = LINE ( 'NONE', #164, #85 ) ;
#228 = DIRECTION ( 'NONE',  ( -0.7071067811865456854, 0.0000000000000000000, -0.7071067811865493491 ) ) ;
#229 = DIRECTION ( 'NONE',  ( 1.000000000000000000, 0.0000000000000000000, -0.0000000000000000000 ) ) ;
#230 = DIRECTION ( 'NONE',  ( -1.000000000000000000, 0.0000000000000000000, 0.0000000000000000000 ) ) ;
#231 = FACE_OUTER_BOUND ( 'NONE', #155, .T. ) ;
#232 = AXIS2_PLACEMENT_3D ( 'NONE', #14, #120, #214 ) ;
#233 = DIRECTION ( 'NONE',  ( -1.000000000000000000, 0.0000000000000000000, 0.0000000000000000000 ) ) ;
#234 =( NAMED_UNIT ( * ) SI_UNIT ( $, .STERADIAN. ) SOLID_ANGLE_UNIT ( ) );
#235 = CYLINDRICAL_SURFACE ( 'NONE', #223, 0.06250000000000000000 ) ;
#236 = EDGE_CURVE ( 'NONE', #284, #222, #189, .T. ) ;
#237 = ORIENTED_EDGE ( 'NONE', *, *, #210, .F. ) ;
#238 = CIRCLE ( 'NONE', #53, 0.04685310000000000169 ) ;
#239 = DIRECTION ( 'NONE',  ( -1.224646799147353454E-16, -0.0000000000000000000, -1.000000000000000000 ) ) ;
#240 = DIRECTION ( 'NONE',  ( 1.000000000000000000, 0.0000000000000000000, 0.0000000000000000000 ) ) ;
#241 = ORIENTED_EDGE ( 'NONE', *, *, #45, .F. ) ;
#242 = ORIENTED_EDGE ( 'NONE', *, *, #98, .T. ) ;
#243 = CARTESIAN_POINT ( 'NONE',  ( 7.026839507303431300E-34, 0.0000000000000000000, 5.737849894513086668E-18 ) ) ;
#244 = CIRCLE ( 'NONE', #277, 0.04750000000000064587 ) ;
#245 = ORIENTED_EDGE ( 'NONE', *, *, #122, .T. ) ;
#246 =( GEOMETRIC_REPRESENTATION_CONTEXT ( 3 ) GLOBAL_UNCERTAINTY_ASSIGNED_CONTEXT ( ( #58 ) ) GLOBAL_UNIT_ASSIGNED_CONTEXT ( ( #186, #161, #79 ) ) REPRESENTATION_CONTEXT ( 'NONE', 'WORKASPACE' ) );
#247 = DIRECTION ( 'NONE',  ( -1.224646799147353454E-16, -0.0000000000000000000, -1.000000000000000000 ) ) ;
#248 = CARTESIAN_POINT ( 'NONE',  ( -0.04685309999999998087, 5.737849894513086668E-18, 0.1880000000000000282 ) ) ;
#249 = CIRCLE ( 'NONE', #121, 0.04750000000000064587 ) ;
#250 = FACE_OUTER_BOUND ( 'NONE', #285, .T. ) ;
#251 =( LENGTH_UNIT ( ) NAMED_UNIT ( * ) SI_UNIT ( $, .METRE. ) );
#252 =( NAMED_UNIT ( * ) PLANE_ANGLE_UNIT ( ) SI_UNIT ( $, .RADIAN. ) );
#253 = UNCERTAINTY_MEASURE_WITH_UNIT (LENGTH_MEASURE( 1.000000000000000082E-05 ), #191, 'distance_accuracy_value', 'NONE');
#254 = EDGE_CURVE ( 'NONE', #3, #222, #271, .T. ) ;
#255 = VECTOR ( 'NONE', #268, 39.37007874015747433 ) ;
#256 = EDGE_CURVE ( 'NONE', #74, #48, #207, .T. ) ;
#257 = EDGE_CURVE ( 'NONE', #128, #101, #38, .T. ) ;
#258 = EDGE_LOOP ( 'NONE', ( #199, #72, #183, #52 ) ) ;
#259 = ORIENTED_EDGE ( 'NONE', *, *, #35, .F. ) ;
#260 = PRODUCT_DEFINITION_CONTEXT ( 'detailed design', #266, 'design' ) ;
#261 = CARTESIAN_POINT ( 'NONE',  ( 0.0000000000000000000, 0.0000000000000000000, 1.500000000000000222 ) ) ;
#262 = VERTEX_POINT ( 'NONE', #80 ) ;
#263 = SURFACE_STYLE_USAGE ( .BOTH. , #51 ) ;
#264 = ORIENTED_EDGE ( 'NONE', *, *, #296, .T. ) ;
#265 = EDGE_LOOP ( 'NONE', ( #151, #216, #99, #197 ) ) ;
#266 = APPLICATION_CONTEXT ( 'automotive_design' ) ;
#267 = PRODUCT_DEFINITION_FORMATION_WITH_SPECIFIED_SOURCE ( 'ANY', '', #17, .NOT_KNOWN. ) ;
#268 = DIRECTION ( 'NONE',  ( -0.1736481776669312194, 2.126576849575783625E-17, 0.9848077530122080203 ) ) ;
#269 = AXIS2_PLACEMENT_3D ( 'NONE', #100, #125, #200 ) ;
#270 = DIRECTION ( 'NONE',  ( 0.0000000000000000000, 0.0000000000000000000, 1.000000000000000000 ) ) ;
#271 = LINE ( 'NONE', #248, #255 ) ;
#272 =( LENGTH_UNIT ( ) NAMED_UNIT ( * ) SI_UNIT ( $, .METRE. ) );
#273 = SURFACE_SIDE_STYLE ('',( #145 ) ) ;
#274 = VECTOR ( 'NONE', #63, 39.37007874015748143 ) ;
#275 = APPLICATION_PROTOCOL_DEFINITION ( 'draft international standard', 'automotive_design', 1998, #196 ) ;
#276 = ADVANCED_FACE ( 'NONE', ( #231 ), #107, .T. ) ;
#277 = AXIS2_PLACEMENT_3D ( 'NONE', #217, #24, #240 ) ;
#278 = STYLED_ITEM ( 'NONE', ( #295 ), #193 ) ;
#279 = ORIENTED_EDGE ( 'NONE', *, *, #254, .T. ) ;
#280 = ORIENTED_EDGE ( 'NONE', *, *, #122, .F. ) ;
#281 = FACE_OUTER_BOUND ( 'NONE', #23, .T. ) ;
#282 = EDGE_CURVE ( 'NONE', #128, #284, #192, .T. ) ;
#283 = STYLED_ITEM ( 'NONE', ( #201 ), #160 ) ;
#284 = VERTEX_POINT ( 'NONE', #29 ) ;
#285 = EDGE_LOOP ( 'NONE', ( #215, #242 ) ) ;
#286 = CARTESIAN_POINT ( 'NONE',  ( 0.0000000000000000000, 0.0000000000000000000, 0.0000000000000000000 ) ) ;
#287 = ADVANCED_FACE ( 'NONE', ( #11 ), #78, .T. ) ;
#288 = SURFACE_STYLE_FILL_AREA ( #102 ) ;
#289 = AXIS2_PLACEMENT_3D ( 'NONE', #146, #95, #42 ) ;
#290 = AXIS2_PLACEMENT_3D ( 'NONE', #202, #34, #59 ) ;
#291 = CARTESIAN_POINT ( 'NONE',  ( 0.04685310000000000169, 5.737849894513085128E-18, 0.0000000000000000000 ) ) ;
#292 = DIRECTION ( 'NONE',  ( -0.0000000000000000000, -0.0000000000000000000, -1.000000000000000000 ) ) ;
#293 = AXIS2_PLACEMENT_3D ( 'NONE', #220, #49, #1 ) ;
#294 = VECTOR ( 'NONE', #77, 39.37007874015748143 ) ;
#295 = PRESENTATION_STYLE_ASSIGNMENT (( #173 ) ) ;
#296 = EDGE_CURVE ( 'NONE', #262, #128, #10, .T. ) ;
#297 = DIRECTION ( 'NONE',  ( -1.000000000000000000, 0.0000000000000000000, 1.224646799147353454E-16 ) ) ;
#298 = EDGE_LOOP ( 'NONE', ( #195, #279, #184, #237 ) ) ;
#299 = PLANE ( 'NONE',  #289 ) ;
ENDSEC;
END-ISO-10303-21;
