ISO-10303-21;
HEADER;
FILE_DESCRIPTION (( 'STEP AP214' ),
    '1' );
FILE_NAME ('Micro_RMEM-004-2.STEP',
    '2021-09-01T23:34:45',
    ( '' ),
    ( '' ),
    'SwSTEP 2.0',
    'SolidWorks 2020',
    '' );
FILE_SCHEMA (( 'AUTOMOTIVE_DESIGN' ));
ENDSEC;

DATA;
#1 = DIRECTION ( 'NONE',  ( 1.000000000000000000, 0.0000000000000000000, 0.0000000000000000000 ) ) ;
#2 = FILL_AREA_STYLE_COLOUR ( '', #28 ) ;
#3 = DIRECTION ( 'NONE',  ( -0.1736481776669311639, 2.126576849575783008E-17, 0.9848077530122080203 ) ) ;
#4 = DIRECTION ( 'NONE',  ( -0.0000000000000000000, -0.0000000000000000000, -1.000000000000000000 ) ) ;
#5 = LINE ( 'NONE', #29, #282 ) ;
#6 = CARTESIAN_POINT ( 'NONE',  ( -0.05905500000000000332, 0.0000000000000000000, 1.481062999999999574 ) ) ;
#7 = CARTESIAN_POINT ( 'NONE',  ( 0.05905500000000000332, 7.232151672364695422E-18, 1.481062999999999574 ) ) ;
#8 = DIRECTION ( 'NONE',  ( -1.224646799147353207E-16, -0.0000000000000000000, -1.000000000000000000 ) ) ;
#9 = CARTESIAN_POINT ( 'NONE',  ( 5.785721337891755876E-18, 0.0000000000000000000, 0.04724400000000000127 ) ) ;
#10 = FILL_AREA_STYLE_COLOUR ( '', #38 ) ;
#11 =( LENGTH_UNIT ( ) NAMED_UNIT ( * ) SI_UNIT ( $, .METRE. ) );
#12 = ORIENTED_EDGE ( 'NONE', *, *, #180, .F. ) ;
#13 = VERTEX_POINT ( 'NONE', #294 ) ;
#14 = EDGE_CURVE ( 'NONE', #20, #219, #89, .T. ) ;
#15 = ORIENTED_EDGE ( 'NONE', *, *, #115, .T. ) ;
#16 = VECTOR ( 'NONE', #278, 39.37007874015748143 ) ;
#17 =( LENGTH_UNIT ( ) NAMED_UNIT ( * ) SI_UNIT ( $, .METRE. ) );
#18 = PRODUCT_DEFINITION_SHAPE ( 'NONE', 'NONE',  #127 ) ;
#19 = VERTEX_POINT ( 'NONE', #252 ) ;
#20 = VERTEX_POINT ( 'NONE', #166 ) ;
#21 = CARTESIAN_POINT ( 'NONE',  ( 0.0000000000000000000, 0.0000000000000000000, 1.496062999999999921 ) ) ;
#22 = EDGE_CURVE ( 'NONE', #219, #131, #251, .T. ) ;
#23 =( GEOMETRIC_REPRESENTATION_CONTEXT ( 3 ) GLOBAL_UNCERTAINTY_ASSIGNED_CONTEXT ( ( #237 ) ) GLOBAL_UNIT_ASSIGNED_CONTEXT ( ( #297, #61, #272 ) ) REPRESENTATION_CONTEXT ( 'NONE', 'WORKASPACE' ) );
#24 = LINE ( 'NONE', #229, #159 ) ;
#25 = APPLICATION_CONTEXT ( 'automotive_design' ) ;
#26 = DIRECTION ( 'NONE',  ( 1.000000000000000000, 0.0000000000000000000, 0.0000000000000000000 ) ) ;
#27 = DIRECTION ( 'NONE',  ( -1.000000000000000000, 0.0000000000000000000, 0.0000000000000000000 ) ) ;
#28 = COLOUR_RGB ( '',0.7921568627450980005, 0.8196078431372548767, 0.9333333333333333481 ) ;
#29 = CARTESIAN_POINT ( 'NONE',  ( 0.007866126000000004531, 0.0000000000000000000, 0.04724400000000000127 ) ) ;
#30 = DIRECTION ( 'NONE',  ( -0.0000000000000000000, -0.0000000000000000000, -1.000000000000000000 ) ) ;
#31 = DIRECTION ( 'NONE',  ( -1.000000000000000000, 0.0000000000000000000, 0.0000000000000000000 ) ) ;
#32 = DIMENSIONAL_EXPONENTS ( 1.000000000000000000, 0.0000000000000000000, 0.0000000000000000000, 0.0000000000000000000, 0.0000000000000000000, 0.0000000000000000000, 0.0000000000000000000 ) ;
#33 = VECTOR ( 'NONE', #8, 39.37007874015748143 ) ;
#34 =( GEOMETRIC_REPRESENTATION_CONTEXT ( 3 ) GLOBAL_UNCERTAINTY_ASSIGNED_CONTEXT ( ( #194 ) ) GLOBAL_UNIT_ASSIGNED_CONTEXT ( ( #242, #238, #293 ) ) REPRESENTATION_CONTEXT ( 'NONE', 'WORKASPACE' ) );
#35 = DIRECTION ( 'NONE',  ( 1.000000000000000000, 0.0000000000000000000, 0.0000000000000000000 ) ) ;
#36 = EDGE_LOOP ( 'NONE', ( #245, #158, #116, #41 ) ) ;
#37 = AXIS2_PLACEMENT_3D ( 'NONE', #126, #58, #128 ) ;
#38 = COLOUR_RGB ( '',0.7921568627450980005, 0.8196078431372548767, 0.9333333333333333481 ) ;
#39 = DIRECTION ( 'NONE',  ( 1.000000000000000000, 0.0000000000000000000, 0.0000000000000000000 ) ) ;
#40 = ORIENTED_EDGE ( 'NONE', *, *, #45, .F. ) ;
#41 = ORIENTED_EDGE ( 'NONE', *, *, #146, .F. ) ;
#42 = EDGE_LOOP ( 'NONE', ( #273, #15, #178, #40 ) ) ;
#43 = AXIS2_PLACEMENT_3D ( 'NONE', #107, #30, #281 ) ;
#44 = EDGE_LOOP ( 'NONE', ( #226, #298, #63, #92 ) ) ;
#45 = EDGE_CURVE ( 'NONE', #13, #299, #196, .T. ) ;
#46 = DIRECTION ( 'NONE',  ( 1.224646799147353207E-16, 0.0000000000000000000, 1.000000000000000000 ) ) ;
#47 = DIRECTION ( 'NONE',  ( -1.000000000000000000, 0.0000000000000000000, 1.224646799147353207E-16 ) ) ;
#48 = CIRCLE ( 'NONE', #295, 0.05905500000000000332 ) ;
#49 = CARTESIAN_POINT ( 'NONE',  ( 5.785721337891755876E-18, 0.0000000000000000000, 0.04724400000000000127 ) ) ;
#50 = PRESENTATION_STYLE_ASSIGNMENT (( #162 ) ) ;
#51 = EDGE_CURVE ( 'NONE', #204, #20, #187, .T. ) ;
#52 = DIRECTION ( 'NONE',  ( 1.000000000000000000, 0.0000000000000000000, 0.0000000000000000000 ) ) ;
#53 = AXIS2_PLACEMENT_3D ( 'NONE', #9, #108, #125 ) ;
#54 = DIRECTION ( 'NONE',  ( 0.0000000000000000000, 0.0000000000000000000, 1.000000000000000000 ) ) ;
#55 = CARTESIAN_POINT ( 'NONE',  ( 0.007866126000000004531, 0.0000000000000000000, 0.04724400000000000127 ) ) ;
#56 = DIRECTION ( 'NONE',  ( 1.000000000000000000, 0.0000000000000000000, -0.0000000000000000000 ) ) ;
#57 = CYLINDRICAL_SURFACE ( 'NONE', #240, 0.05905500000000000332 ) ;
#58 = DIRECTION ( 'NONE',  ( 0.0000000000000000000, 0.0000000000000000000, -1.000000000000000000 ) ) ;
#59 = ADVANCED_FACE ( 'NONE', ( #274 ), #99, .T. ) ;
#60 = UNCERTAINTY_MEASURE_WITH_UNIT (LENGTH_MEASURE( 1.000000000000000082E-05 ), #145, 'distance_accuracy_value', 'NONE');
#61 =( NAMED_UNIT ( * ) PLANE_ANGLE_UNIT ( ) SI_UNIT ( $, .RADIAN. ) );
#62 = EDGE_CURVE ( 'NONE', #20, #204, #164, .T. ) ;
#63 = ORIENTED_EDGE ( 'NONE', *, *, #182, .F. ) ;
#64 = SURFACE_STYLE_USAGE ( .BOTH. , #175 ) ;
#65 = AXIS2_PLACEMENT_3D ( 'NONE', #279, #147, #264 ) ;
#66 = VERTEX_POINT ( 'NONE', #96 ) ;
#67 = ORIENTED_EDGE ( 'NONE', *, *, #257, .T. ) ;
#68 = ORIENTED_EDGE ( 'NONE', *, *, #22, .T. ) ;
#69 = ORIENTED_EDGE ( 'NONE', *, *, #280, .F. ) ;
#70 =( LENGTH_UNIT ( ) NAMED_UNIT ( * ) SI_UNIT ( $, .METRE. ) );
#71 = PLANE ( 'NONE',  #94 ) ;
#72 = CARTESIAN_POINT ( 'NONE',  ( -0.05905500000000000332, 0.0000000000000000000, 1.496062999999999921 ) ) ;
#73 = AXIS2_PLACEMENT_3D ( 'NONE', #287, #217, #35 ) ;
#74 = ADVANCED_FACE ( 'NONE', ( #212 ), #210, .T. ) ;
#75 = FACE_OUTER_BOUND ( 'NONE', #292, .T. ) ;
#76 = DIRECTION ( 'NONE',  ( -1.224646799147353207E-16, -0.0000000000000000000, -1.000000000000000000 ) ) ;
#77 = CYLINDRICAL_SURFACE ( 'NONE', #43, 0.05905500000000000332 ) ;
#78 = EDGE_CURVE ( 'NONE', #296, #19, #24, .T. ) ;
#79 = AXIS2_PLACEMENT_3D ( 'NONE', #101, #76, #47 ) ;
#80 = DIRECTION ( 'NONE',  ( 1.000000000000000000, 0.0000000000000000000, 0.0000000000000000000 ) ) ;
#81 = PLANE ( 'NONE',  #249 ) ;
#82 = PRODUCT_DEFINITION_CONTEXT ( 'detailed design', #25, 'design' ) ;
#83 = AXIS2_PLACEMENT_3D ( 'NONE', #163, #137, #254 ) ;
#84 = CARTESIAN_POINT ( 'NONE',  ( 0.04405499999999973326, 6.313666573004162521E-18, 1.496062999999999921 ) ) ;
#85 = AXIS2_PLACEMENT_3D ( 'NONE', #221, #268, #39 ) ;
#86 = APPLICATION_PROTOCOL_DEFINITION ( 'draft international standard', 'automotive_design', 1998, #179 ) ;
#87 = EDGE_LOOP ( 'NONE', ( #243, #200, #265, #111 ) ) ;
#88 = AXIS2_PLACEMENT_3D ( 'NONE', #232, #95, #27 ) ;
#89 = LINE ( 'NONE', #156, #222 ) ;
#90 = LENGTH_MEASURE_WITH_UNIT ( LENGTH_MEASURE( 0.02539999999999999897 ), #11 );
#91 = ORIENTED_EDGE ( 'NONE', *, *, #253, .F. ) ;
#92 = ORIENTED_EDGE ( 'NONE', *, *, #14, .F. ) ;
#93 = ORIENTED_EDGE ( 'NONE', *, *, #22, .F. ) ;
#94 = AXIS2_PLACEMENT_3D ( 'NONE', #188, #183, #165 ) ;
#95 = DIRECTION ( 'NONE',  ( -1.224646799147353207E-16, -0.0000000000000000000, -1.000000000000000000 ) ) ;
#96 = CARTESIAN_POINT ( 'NONE',  ( -0.007866125999999994123, 4.097737137561835638E-18, 0.04724400000000000127 ) ) ;
#97 = EDGE_CURVE ( 'NONE', #248, #13, #141, .T. ) ;
#98 = CARTESIAN_POINT ( 'NONE',  ( 5.785721337891755876E-18, 0.0000000000000000000, 0.04724400000000000127 ) ) ;
#99 = CONICAL_SURFACE ( 'NONE', #154, 0.007866125999999999327, 0.1745329251994338637 ) ;
#100 = DIMENSIONAL_EXPONENTS ( 1.000000000000000000, 0.0000000000000000000, 0.0000000000000000000, 0.0000000000000000000, 0.0000000000000000000, 0.0000000000000000000, 0.0000000000000000000 ) ;
#101 = CARTESIAN_POINT ( 'NONE',  ( 0.0000000000000000000, 0.0000000000000000000, 0.0000000000000000000 ) ) ;
#102 = ADVANCED_FACE ( 'NONE', ( #227 ), #231, .T. ) ;
#103 = DIRECTION ( 'NONE',  ( 0.0000000000000000000, 0.0000000000000000000, -1.000000000000000000 ) ) ;
#104 = EDGE_CURVE ( 'NONE', #66, #131, #142, .T. ) ;
#105 = DIRECTION ( 'NONE',  ( -1.224646799147353207E-16, -0.0000000000000000000, -1.000000000000000000 ) ) ;
#106 = DIRECTION ( 'NONE',  ( -1.000000000000000000, 0.0000000000000000000, 1.224646799147353207E-16 ) ) ;
#107 = CARTESIAN_POINT ( 'NONE',  ( 0.0000000000000000000, 0.0000000000000000000, 1.496062999999999921 ) ) ;
#108 = DIRECTION ( 'NONE',  ( -1.224646799147353207E-16, -0.0000000000000000000, -1.000000000000000000 ) ) ;
#109 = ADVANCED_FACE ( 'NONE', ( #117 ), #218, .T. ) ;
#110 = FILL_AREA_STYLE ('',( #10 ) ) ;
#111 = ORIENTED_EDGE ( 'NONE', *, *, #244, .F. ) ;
#112 = AXIS2_PLACEMENT_3D ( 'NONE', #171, #103, #31 ) ;
#113 = ORIENTED_EDGE ( 'NONE', *, *, #280, .T. ) ;
#114 = ORIENTED_EDGE ( 'NONE', *, *, #45, .T. ) ;
#115 = EDGE_CURVE ( 'NONE', #248, #66, #134, .T. ) ;
#116 = ORIENTED_EDGE ( 'NONE', *, *, #253, .T. ) ;
#117 = FACE_OUTER_BOUND ( 'NONE', #157, .T. ) ;
#118 = CARTESIAN_POINT ( 'NONE',  ( 0.007866125999999999327, 9.633226027589772019E-19, -9.633226027589772019E-19 ) ) ;
#119 = DIRECTION ( 'NONE',  ( -0.0000000000000000000, -0.0000000000000000000, -1.000000000000000000 ) ) ;
#120 = CIRCLE ( 'NONE', #289, 0.05905500000000000332 ) ;
#121 = FILL_AREA_STYLE ('',( #2 ) ) ;
#122 = CYLINDRICAL_SURFACE ( 'NONE', #148, 0.007866125999999999327 ) ;
#123 = DIRECTION ( 'NONE',  ( -1.000000000000000000, 0.0000000000000000000, 0.0000000000000000000 ) ) ;
#124 = AXIS2_PLACEMENT_3D ( 'NONE', #21, #256, #140 ) ;
#125 = DIRECTION ( 'NONE',  ( -1.000000000000000000, 0.0000000000000000000, 0.0000000000000000000 ) ) ;
#126 = CARTESIAN_POINT ( 'NONE',  ( 0.0000000000000000000, 0.0000000000000000000, 1.481062999999999574 ) ) ;
#127 = PRODUCT_DEFINITION ( 'UNKNOWN', '', #215, #82 ) ;
#128 = DIRECTION ( 'NONE',  ( 1.000000000000000000, 0.0000000000000000000, 0.0000000000000000000 ) ) ;
#129 = CONICAL_SURFACE ( 'NONE', #112, 0.04405499999999973326, 0.7853981633974491672 ) ;
#130 = PRODUCT_CONTEXT ( 'NONE', #179, 'mechanical' ) ;
#131 = VERTEX_POINT ( 'NONE', #186 ) ;
#132 = EDGE_LOOP ( 'NONE', ( #271, #67, #68, #69 ) ) ;
#133 = VECTOR ( 'NONE', #4, 39.37007874015748143 ) ;
#134 = CIRCLE ( 'NONE', #88, 0.007866125999999999327 ) ;
#135 = ORIENTED_EDGE ( 'NONE', *, *, #146, .T. ) ;
#136 = ADVANCED_FACE ( 'NONE', ( #75 ), #71, .T. ) ;
#137 = DIRECTION ( 'NONE',  ( -1.224646799147353207E-16, -0.0000000000000000000, -1.000000000000000000 ) ) ;
#138 = DIRECTION ( 'NONE',  ( 1.000000000000000000, 0.0000000000000000000, 0.0000000000000000000 ) ) ;
#139 = STYLED_ITEM ( 'NONE', ( #247 ), #286 ) ;
#140 = DIRECTION ( 'NONE',  ( -1.000000000000000000, 0.0000000000000000000, 0.0000000000000000000 ) ) ;
#141 = LINE ( 'NONE', #118, #16 ) ;
#142 = LINE ( 'NONE', #208, #262 ) ;
#143 = CIRCLE ( 'NONE', #53, 0.007866125999999999327 ) ;
#144 = FACE_OUTER_BOUND ( 'NONE', #42, .T. ) ;
#145 =( CONVERSION_BASED_UNIT ( 'INCH', #285 ) LENGTH_UNIT ( ) NAMED_UNIT ( #32 ) );
#146 = EDGE_CURVE ( 'NONE', #248, #19, #5, .T. ) ;
#147 = DIRECTION ( 'NONE',  ( -1.224646799147353207E-16, -0.0000000000000000000, -1.000000000000000000 ) ) ;
#148 = AXIS2_PLACEMENT_3D ( 'NONE', #213, #105, #106 ) ;
#149 = DIRECTION ( 'NONE',  ( -1.224646799147353207E-16, -0.0000000000000000000, -1.000000000000000000 ) ) ;
#150 = LINE ( 'NONE', #234, #33 ) ;
#151 = ORIENTED_EDGE ( 'NONE', *, *, #78, .T. ) ;
#152 = PRODUCT_RELATED_PRODUCT_CATEGORY ( 'part', '', ( #246 ) ) ;
#153 = MECHANICAL_DESIGN_GEOMETRIC_PRESENTATION_REPRESENTATION (  '', ( #205 ), #267 ) ;
#154 = AXIS2_PLACEMENT_3D ( 'NONE', #49, #46, #26 ) ;
#155 = PRESENTATION_LAYER_ASSIGNMENT (  '', '', ( #139 ) ) ;
#156 = CARTESIAN_POINT ( 'NONE',  ( -0.04405499999999973326, 0.0000000000000000000, 1.496062999999999921 ) ) ;
#157 = EDGE_LOOP ( 'NONE', ( #202, #266, #135, #113 ) ) ;
#158 = ORIENTED_EDGE ( 'NONE', *, *, #104, .T. ) ;
#159 = VECTOR ( 'NONE', #119, 39.37007874015748143 ) ;
#160 = ORIENTED_EDGE ( 'NONE', *, *, #174, .T. ) ;
#161 = SURFACE_STYLE_FILL_AREA ( #121 ) ;
#162 = SURFACE_STYLE_USAGE ( .BOTH. , #255 ) ;
#163 = CARTESIAN_POINT ( 'NONE',  ( 1.179729942015078535E-34, 0.0000000000000000000, 9.633226027589772019E-19 ) ) ;
#164 = CIRCLE ( 'NONE', #235, 0.04405499999999973326 ) ;
#165 = DIRECTION ( 'NONE',  ( 1.000000000000000000, 0.0000000000000000000, -0.0000000000000000000 ) ) ;
#166 = CARTESIAN_POINT ( 'NONE',  ( -0.04405499999999973326, 0.0000000000000000000, 1.496062999999999921 ) ) ;
#167 = DIRECTION ( 'NONE',  ( 0.7071067811865482389, 8.659560562354941486E-17, -0.7071067811865469066 ) ) ;
#168 = PRESENTATION_LAYER_ASSIGNMENT (  '', '', ( #205 ) ) ;
#169 = DIRECTION ( 'NONE',  ( -1.224646799147353207E-16, -0.0000000000000000000, -1.000000000000000000 ) ) ;
#170 = MANIFOLD_SOLID_BREP ( 'Cut-Revolve1', #185 ) ;
#171 = CARTESIAN_POINT ( 'NONE',  ( 0.0000000000000000000, 0.0000000000000000000, 1.496062999999999921 ) ) ;
#172 = FACE_OUTER_BOUND ( 'NONE', #220, .T. ) ;
#173 = SURFACE_STYLE_FILL_AREA ( #110 ) ;
#174 = EDGE_CURVE ( 'NONE', #299, #13, #224, .T. ) ;
#175 = SURFACE_SIDE_STYLE ('',( #173 ) ) ;
#176 = ORIENTED_EDGE ( 'NONE', *, *, #62, .T. ) ;
#177 = CIRCLE ( 'NONE', #37, 0.05905500000000000332 ) ;
#178 = ORIENTED_EDGE ( 'NONE', *, *, #244, .T. ) ;
#179 = APPLICATION_CONTEXT ( 'automotive_design' ) ;
#180 = EDGE_CURVE ( 'NONE', #204, #296, #236, .T. ) ;
#181 = ORIENTED_EDGE ( 'NONE', *, *, #51, .T. ) ;
#182 = EDGE_CURVE ( 'NONE', #219, #296, #177, .T. ) ;
#183 = DIRECTION ( 'NONE',  ( 0.0000000000000000000, 0.0000000000000000000, 1.000000000000000000 ) ) ;
#184 = DIRECTION ( 'NONE',  ( -0.7071067811865482389, 0.0000000000000000000, -0.7071067811865469066 ) ) ;
#185 = CLOSED_SHELL ( 'NONE', ( #102, #59, #74, #250, #263, #136, #259, #109, #277, #199 ) ) ;
#186 = CARTESIAN_POINT ( 'NONE',  ( -0.05905499999999996169, 0.0000000000000000000, 0.3375505304829001241 ) ) ;
#187 = CIRCLE ( 'NONE', #284, 0.04405499999999973326 ) ;
#188 = CARTESIAN_POINT ( 'NONE',  ( 0.0000000000000000000, 0.0000000000000000000, 1.496062999999999921 ) ) ;
#189 = EDGE_CURVE ( 'NONE', #66, #248, #143, .T. ) ;
#190 = CARTESIAN_POINT ( 'NONE',  ( 0.0000000000000000000, 0.0000000000000000000, 1.496062999999999921 ) ) ;
#191 =( NAMED_UNIT ( * ) PLANE_ANGLE_UNIT ( ) SI_UNIT ( $, .RADIAN. ) );
#192 = AXIS2_PLACEMENT_3D ( 'NONE', #98, #276, #138 ) ;
#193 = CARTESIAN_POINT ( 'NONE',  ( 4.133801767063746994E-17, 0.0000000000000000000, 0.3375505304829001241 ) ) ;
#194 = UNCERTAINTY_MEASURE_WITH_UNIT (LENGTH_MEASURE( 1.000000000000000082E-05 ), #242, 'distance_accuracy_value', 'NONE');
#195 = FACE_OUTER_BOUND ( 'NONE', #203, .T. ) ;
#196 = CIRCLE ( 'NONE', #83, 0.007866125999999999327 ) ;
#197 = ORIENTED_EDGE ( 'NONE', *, *, #257, .F. ) ;
#198 = APPLICATION_PROTOCOL_DEFINITION ( 'draft international standard', 'automotive_design', 1998, #25 ) ;
#199 = ADVANCED_FACE ( 'NONE', ( #195 ), #81, .F. ) ;
#200 = ORIENTED_EDGE ( 'NONE', *, *, #97, .T. ) ;
#201 = CIRCLE ( 'NONE', #73, 0.05905500000000000332 ) ;
#202 = ORIENTED_EDGE ( 'NONE', *, *, #104, .F. ) ;
#203 = EDGE_LOOP ( 'NONE', ( #160, #114 ) ) ;
#204 = VERTEX_POINT ( 'NONE', #84 ) ;
#205 = STYLED_ITEM ( 'NONE', ( #50 ), #170 ) ;
#206 = CARTESIAN_POINT ( 'NONE',  ( 0.0000000000000000000, 0.0000000000000000000, 1.496062999999999921 ) ) ;
#207 = DIRECTION ( 'NONE',  ( 0.1736481776669313581, 0.0000000000000000000, 0.9848077530122077983 ) ) ;
#208 = CARTESIAN_POINT ( 'NONE',  ( -0.007866125999999994123, 9.633226027589772019E-19, 0.04724400000000000127 ) ) ;
#209 = DIRECTION ( 'NONE',  ( 0.0000000000000000000, 0.0000000000000000000, 1.000000000000000000 ) ) ;
#210 = CONICAL_SURFACE ( 'NONE', #124, 0.04405499999999973326, 0.7853981633974491672 ) ;
#211 = DIMENSIONAL_EXPONENTS ( 1.000000000000000000, 0.0000000000000000000, 0.0000000000000000000, 0.0000000000000000000, 0.0000000000000000000, 0.0000000000000000000, 0.0000000000000000000 ) ;
#212 = FACE_OUTER_BOUND ( 'NONE', #44, .T. ) ;
#213 = CARTESIAN_POINT ( 'NONE',  ( 0.0000000000000000000, 0.0000000000000000000, 0.0000000000000000000 ) ) ;
#214 = DIRECTION ( 'NONE',  ( 1.000000000000000000, 0.0000000000000000000, 0.0000000000000000000 ) ) ;
#215 = PRODUCT_DEFINITION_FORMATION_WITH_SPECIFIED_SOURCE ( 'ANY', '', #246, .NOT_KNOWN. ) ;
#216 =( NAMED_UNIT ( * ) SI_UNIT ( $, .STERADIAN. ) SOLID_ANGLE_UNIT ( ) );
#217 = DIRECTION ( 'NONE',  ( 0.0000000000000000000, 0.0000000000000000000, -1.000000000000000000 ) ) ;
#218 = CONICAL_SURFACE ( 'NONE', #192, 0.007866125999999999327, 0.1745329251994338637 ) ;
#219 = VERTEX_POINT ( 'NONE', #6 ) ;
#220 = EDGE_LOOP ( 'NONE', ( #239, #151, #91, #93 ) ) ;
#221 = CARTESIAN_POINT ( 'NONE',  ( 0.0000000000000000000, 0.0000000000000000000, 0.0000000000000000000 ) ) ;
#222 = VECTOR ( 'NONE', #184, 39.37007874015748143 ) ;
#223 = EDGE_LOOP ( 'NONE', ( #12, #225, #269, #197 ) ) ;
#224 = CIRCLE ( 'NONE', #65, 0.007866125999999999327 ) ;
#225 = ORIENTED_EDGE ( 'NONE', *, *, #62, .F. ) ;
#226 = ORIENTED_EDGE ( 'NONE', *, *, #51, .F. ) ;
#227 = FACE_OUTER_BOUND ( 'NONE', #87, .T. ) ;
#228 = VECTOR ( 'NONE', #167, 39.37007874015748143 ) ;
#229 = CARTESIAN_POINT ( 'NONE',  ( 0.05905500000000000332, 7.232151672364695422E-18, 1.496062999999999921 ) ) ;
#230 = DIRECTION ( 'NONE',  ( 0.0000000000000000000, 0.0000000000000000000, 1.000000000000000000 ) ) ;
#231 = CYLINDRICAL_SURFACE ( 'NONE', #79, 0.007866125999999999327 ) ;
#232 = CARTESIAN_POINT ( 'NONE',  ( 5.785721337891755876E-18, 0.0000000000000000000, 0.04724400000000000127 ) ) ;
#233 = FACE_OUTER_BOUND ( 'NONE', #223, .T. ) ;
#234 = CARTESIAN_POINT ( 'NONE',  ( -0.007866125999999999327, 0.0000000000000000000, 9.633226027589772019E-19 ) ) ;
#235 = AXIS2_PLACEMENT_3D ( 'NONE', #275, #209, #1 ) ;
#236 = LINE ( 'NONE', #288, #228 ) ;
#237 = UNCERTAINTY_MEASURE_WITH_UNIT (LENGTH_MEASURE( 1.000000000000000082E-05 ), #297, 'distance_accuracy_value', 'NONE');
#238 =( NAMED_UNIT ( * ) PLANE_ANGLE_UNIT ( ) SI_UNIT ( $, .RADIAN. ) );
#239 = ORIENTED_EDGE ( 'NONE', *, *, #182, .T. ) ;
#240 = AXIS2_PLACEMENT_3D ( 'NONE', #190, #258, #123 ) ;
#241 = MECHANICAL_DESIGN_GEOMETRIC_PRESENTATION_REPRESENTATION (  '', ( #139 ), #34 ) ;
#242 =( CONVERSION_BASED_UNIT ( 'INCH', #90 ) LENGTH_UNIT ( ) NAMED_UNIT ( #100 ) );
#243 = ORIENTED_EDGE ( 'NONE', *, *, #189, .T. ) ;
#244 = EDGE_CURVE ( 'NONE', #66, #299, #150, .T. ) ;
#245 = ORIENTED_EDGE ( 'NONE', *, *, #189, .F. ) ;
#246 = PRODUCT ( 'Micro_RMEM-004-2', 'Micro_RMEM-004-2', '', ( #130 ) ) ;
#247 = PRESENTATION_STYLE_ASSIGNMENT (( #64 ) ) ;
#248 = VERTEX_POINT ( 'NONE', #55 ) ;
#249 = AXIS2_PLACEMENT_3D ( 'NONE', #260, #54, #56 ) ;
#250 = ADVANCED_FACE ( 'NONE', ( #172 ), #77, .T. ) ;
#251 = LINE ( 'NONE', #72, #133 ) ;
#252 = CARTESIAN_POINT ( 'NONE',  ( 0.05905500000000004496, 7.232151672364700045E-18, 0.3375505304829001241 ) ) ;
#253 = EDGE_CURVE ( 'NONE', #131, #19, #48, .T. ) ;
#254 = DIRECTION ( 'NONE',  ( -1.000000000000000000, 0.0000000000000000000, 1.224646799147353207E-16 ) ) ;
#255 = SURFACE_SIDE_STYLE ('',( #161 ) ) ;
#256 = DIRECTION ( 'NONE',  ( 0.0000000000000000000, 0.0000000000000000000, -1.000000000000000000 ) ) ;
#257 = EDGE_CURVE ( 'NONE', #296, #219, #201, .T. ) ;
#258 = DIRECTION ( 'NONE',  ( -0.0000000000000000000, -0.0000000000000000000, -1.000000000000000000 ) ) ;
#259 = ADVANCED_FACE ( 'NONE', ( #233 ), #129, .T. ) ;
#260 = CARTESIAN_POINT ( 'NONE',  ( 0.0000000000000000000, 0.0000000000000000000, 0.0000000000000000000 ) ) ;
#261 = FACE_OUTER_BOUND ( 'NONE', #132, .T. ) ;
#262 = VECTOR ( 'NONE', #3, 39.37007874015747433 ) ;
#263 = ADVANCED_FACE ( 'NONE', ( #261 ), #57, .T. ) ;
#264 = DIRECTION ( 'NONE',  ( -1.000000000000000000, 0.0000000000000000000, 1.224646799147353207E-16 ) ) ;
#265 = ORIENTED_EDGE ( 'NONE', *, *, #174, .F. ) ;
#266 = ORIENTED_EDGE ( 'NONE', *, *, #115, .F. ) ;
#267 =( GEOMETRIC_REPRESENTATION_CONTEXT ( 3 ) GLOBAL_UNCERTAINTY_ASSIGNED_CONTEXT ( ( #60 ) ) GLOBAL_UNIT_ASSIGNED_CONTEXT ( ( #145, #191, #216 ) ) REPRESENTATION_CONTEXT ( 'NONE', 'WORKASPACE' ) );
#268 = DIRECTION ( 'NONE',  ( 0.0000000000000000000, 0.0000000000000000000, 1.000000000000000000 ) ) ;
#269 = ORIENTED_EDGE ( 'NONE', *, *, #14, .T. ) ;
#270 = SHAPE_DEFINITION_REPRESENTATION ( #18, #286 ) ;
#271 = ORIENTED_EDGE ( 'NONE', *, *, #78, .F. ) ;
#272 =( NAMED_UNIT ( * ) SI_UNIT ( $, .STERADIAN. ) SOLID_ANGLE_UNIT ( ) );
#273 = ORIENTED_EDGE ( 'NONE', *, *, #97, .F. ) ;
#274 = FACE_OUTER_BOUND ( 'NONE', #36, .T. ) ;
#275 = CARTESIAN_POINT ( 'NONE',  ( 0.0000000000000000000, 0.0000000000000000000, 1.496062999999999921 ) ) ;
#276 = DIRECTION ( 'NONE',  ( 1.224646799147353207E-16, 0.0000000000000000000, 1.000000000000000000 ) ) ;
#277 = ADVANCED_FACE ( 'NONE', ( #144 ), #122, .T. ) ;
#278 = DIRECTION ( 'NONE',  ( -1.224646799147353207E-16, -0.0000000000000000000, -1.000000000000000000 ) ) ;
#279 = CARTESIAN_POINT ( 'NONE',  ( 1.179729942015078535E-34, 0.0000000000000000000, 9.633226027589772019E-19 ) ) ;
#280 = EDGE_CURVE ( 'NONE', #19, #131, #120, .T. ) ;
#281 = DIRECTION ( 'NONE',  ( -1.000000000000000000, 0.0000000000000000000, 0.0000000000000000000 ) ) ;
#282 = VECTOR ( 'NONE', #207, 39.37007874015748143 ) ;
#283 = CARTESIAN_POINT ( 'NONE',  ( 4.133801767063746994E-17, 0.0000000000000000000, 0.3375505304829001241 ) ) ;
#284 = AXIS2_PLACEMENT_3D ( 'NONE', #206, #230, #52 ) ;
#285 = LENGTH_MEASURE_WITH_UNIT ( LENGTH_MEASURE( 0.02539999999999999897 ), #70 );
#286 = ADVANCED_BREP_SHAPE_REPRESENTATION ( 'Micro_RMEM-004-2', ( #170, #85 ), #23 ) ;
#287 = CARTESIAN_POINT ( 'NONE',  ( 0.0000000000000000000, 0.0000000000000000000, 1.481062999999999574 ) ) ;
#288 = CARTESIAN_POINT ( 'NONE',  ( 0.04405499999999973326, 5.395181473643630390E-18, 1.496062999999999921 ) ) ;
#289 = AXIS2_PLACEMENT_3D ( 'NONE', #283, #169, #214 ) ;
#290 = CARTESIAN_POINT ( 'NONE',  ( -0.007866125999999999327, 0.0000000000000000000, 1.926645205517954404E-18 ) ) ;
#291 = LENGTH_MEASURE_WITH_UNIT ( LENGTH_MEASURE( 0.02539999999999999897 ), #17 );
#292 = EDGE_LOOP ( 'NONE', ( #176, #181 ) ) ;
#293 =( NAMED_UNIT ( * ) SI_UNIT ( $, .STERADIAN. ) SOLID_ANGLE_UNIT ( ) );
#294 = CARTESIAN_POINT ( 'NONE',  ( 0.007866125999999999327, 9.633226027589772019E-19, 0.0000000000000000000 ) ) ;
#295 = AXIS2_PLACEMENT_3D ( 'NONE', #193, #149, #80 ) ;
#296 = VERTEX_POINT ( 'NONE', #7 ) ;
#297 =( CONVERSION_BASED_UNIT ( 'INCH', #291 ) LENGTH_UNIT ( ) NAMED_UNIT ( #211 ) );
#298 = ORIENTED_EDGE ( 'NONE', *, *, #180, .T. ) ;
#299 = VERTEX_POINT ( 'NONE', #290 ) ;
ENDSEC;
END-ISO-10303-21;
