ISO-10303-21;
HEADER;
FILE_DESCRIPTION (( 'STEP AP214' ),
    '1' );
FILE_NAME ('82943.STEP',
    '2023-06-23T07:13:24',
    ( '' ),
    ( '' ),
    'SwSTEP 2.0',
    'SolidWorks 2023',
    '' );
FILE_SCHEMA (( 'AUTOMOTIVE_DESIGN' ));
ENDSEC;

DATA;
#1 = SURFACE_STYLE_FILL_AREA ( #190 ) ;
#2 = DIRECTION ( 'NONE',  ( 0.000000000000000000, 0.000000000000000000, -1.000000000000000000 ) ) ;
#3 = EDGE_CURVE ( 'NONE', #202, #166, #17, .T. ) ;
#4 = CARTESIAN_POINT ( 'NONE',  ( 2.296212748401287726E-17, 0.5000000000000000000, 0.1875000000000000278 ) ) ;
#5 = DIRECTION ( 'NONE',  ( 6.997981709413450420E-17, 1.000000000000000000, -0.000000000000000000 ) ) ;
#6 = MECHANICAL_DESIGN_GEOMETRIC_PRESENTATION_REPRESENTATION (  '', ( #195 ), #168 ) ;
#7 = AXIS2_PLACEMENT_3D ( 'NONE', #172, #272, #9 ) ;
#8 =( NAMED_UNIT ( * ) SI_UNIT ( $, .STERADIAN. ) SOLID_ANGLE_UNIT ( ) );
#9 = DIRECTION ( 'NONE',  ( -1.000000000000000000, 0.000000000000000000, 0.000000000000000000 ) ) ;
#10 = AXIS2_PLACEMENT_3D ( 'NONE', #163, #212, #266 ) ;
#11 = DIRECTION ( 'NONE',  ( -0.000000000000000000, -1.000000000000000000, -0.000000000000000000 ) ) ;
#12 = ORIENTED_EDGE ( 'NONE', *, *, #100, .T. ) ;
#13 = LENGTH_MEASURE_WITH_UNIT ( LENGTH_MEASURE( 0.02539999999999999897 ), #121 );
#14 = DIRECTION ( 'NONE',  ( 0.000000000000000000, 0.000000000000000000, 1.000000000000000000 ) ) ;
#15 =( LENGTH_UNIT ( ) NAMED_UNIT ( * ) SI_UNIT ( $, .METRE. ) );
#16 = DIRECTION ( 'NONE',  ( 6.997981709413450420E-17, 1.000000000000000000, -0.000000000000000000 ) ) ;
#17 = CIRCLE ( 'NONE', #182, 0.1875000000000000278 ) ;
#18 =( GEOMETRIC_REPRESENTATION_CONTEXT ( 3 ) GLOBAL_UNCERTAINTY_ASSIGNED_CONTEXT ( ( #177 ) ) GLOBAL_UNIT_ASSIGNED_CONTEXT ( ( #102, #208, #8 ) ) REPRESENTATION_CONTEXT ( 'NONE', 'WORKASPACE' ) );
#19 = FACE_OUTER_BOUND ( 'NONE', #249, .T. ) ;
#20 = EDGE_LOOP ( 'NONE', ( #251, #12, #253, #152 ) ) ;
#21 = ADVANCED_FACE ( 'NONE', ( #286 ), #184, .F. ) ;
#22 = VECTOR ( 'NONE', #38, 39.37007874015748143 ) ;
#23 =( LENGTH_UNIT ( ) NAMED_UNIT ( * ) SI_UNIT ( $, .METRE. ) );
#24 = SURFACE_STYLE_USAGE ( .BOTH. , #259 ) ;
#25 =( GEOMETRIC_REPRESENTATION_CONTEXT ( 3 ) GLOBAL_UNCERTAINTY_ASSIGNED_CONTEXT ( ( #33 ) ) GLOBAL_UNIT_ASSIGNED_CONTEXT ( ( #293, #291, #187 ) ) REPRESENTATION_CONTEXT ( 'NONE', 'WORKASPACE' ) );
#26 = SURFACE_STYLE_FILL_AREA ( #89 ) ;
#27 = DIRECTION ( 'NONE',  ( 0.000000000000000000, 0.000000000000000000, -1.000000000000000000 ) ) ;
#28 = CARTESIAN_POINT ( 'NONE',  ( 0.000000000000000000, 0.000000000000000000, 0.000000000000000000 ) ) ;
#29 = ADVANCED_FACE ( 'NONE', ( #86 ), #260, .T. ) ;
#30 = CARTESIAN_POINT ( 'NONE',  ( 4.591101375495488006E-34, 0.5000000000000000000, 0.000000000000000000 ) ) ;
#31 =( LENGTH_UNIT ( ) NAMED_UNIT ( * ) SI_UNIT ( $, .METRE. ) );
#32 = CYLINDRICAL_SURFACE ( 'NONE', #246, 0.1874999999999999167 ) ;
#33 = UNCERTAINTY_MEASURE_WITH_UNIT (LENGTH_MEASURE( 1.000000000000000082E-05 ), #293, 'distance_accuracy_value', 'NONE');
#34 = DIRECTION ( 'NONE',  ( 6.997981709413450420E-17, 1.000000000000000000, -0.000000000000000000 ) ) ;
#35 = CARTESIAN_POINT ( 'NONE',  ( -0.1875000000000000278, 0.5000000000000001110, 0.000000000000000000 ) ) ;
#36 = EDGE_CURVE ( 'NONE', #225, #63, #308, .T. ) ;
#37 = FILL_AREA_STYLE_COLOUR ( '', #210 ) ;
#38 = DIRECTION ( 'NONE',  ( 6.997981709413450420E-17, 1.000000000000000000, -0.000000000000000000 ) ) ;
#39 = ORIENTED_EDGE ( 'NONE', *, *, #80, .T. ) ;
#40 = EDGE_CURVE ( 'NONE', #160, #125, #289, .T. ) ;
#41 = DIRECTION ( 'NONE',  ( 6.997981709413450420E-17, 1.000000000000000000, -0.000000000000000000 ) ) ;
#42 = AXIS2_PLACEMENT_3D ( 'NONE', #224, #144, #218 ) ;
#43 = CYLINDRICAL_SURFACE ( 'NONE', #10, 0.1875000000000000278 ) ;
#44 = SURFACE_SIDE_STYLE ('',( #309 ) ) ;
#45 = COLOUR_RGB ( '',1.000000000000000000, 0.000000000000000000, 0.000000000000000000 ) ;
#46 = FILL_AREA_STYLE ('',( #37 ) ) ;
#47 = PRODUCT_DEFINITION_CONTEXT ( 'detailed design', #72, 'design' ) ;
#48 =( NAMED_UNIT ( * ) SI_UNIT ( $, .STERADIAN. ) SOLID_ANGLE_UNIT ( ) );
#49 = AXIS2_PLACEMENT_3D ( 'NONE', #306, #34, #117 ) ;
#50 = ORIENTED_EDGE ( 'NONE', *, *, #274, .T. ) ;
#51 = FACE_OUTER_BOUND ( 'NONE', #223, .T. ) ;
#52 = FACE_OUTER_BOUND ( 'NONE', #304, .T. ) ;
#53 = FACE_OUTER_BOUND ( 'NONE', #20, .T. ) ;
#54 = AXIS2_PLACEMENT_3D ( 'NONE', #30, #162, #242 ) ;
#55 = ADVANCED_BREP_SHAPE_REPRESENTATION ( '82943', ( #103, #216, #134 ), #277 ) ;
#56 = EDGE_CURVE ( 'NONE', #125, #63, #169, .T. ) ;
#57 = VECTOR ( 'NONE', #41, 39.37007874015748143 ) ;
#58 = EDGE_LOOP ( 'NONE', ( #257, #79 ) ) ;
#59 = STYLED_ITEM ( 'NONE', ( #76 ), #288 ) ;
#60 = LINE ( 'NONE', #148, #301 ) ;
#61 = ORIENTED_EDGE ( 'NONE', *, *, #56, .F. ) ;
#62 =( CONVERSION_BASED_UNIT ( 'INCH', #13 ) LENGTH_UNIT ( ) NAMED_UNIT ( #129 ) );
#63 = VERTEX_POINT ( 'NONE', #93 ) ;
#64 = PRESENTATION_LAYER_ASSIGNMENT (  '', '', ( #229 ) ) ;
#65 = CIRCLE ( 'NONE', #7, 0.1874999999999997780 ) ;
#66 = VERTEX_POINT ( 'NONE', #226 ) ;
#67 = CARTESIAN_POINT ( 'NONE',  ( 0.1875000000000000278, 0.5000000000000001110, 2.296212748401286493E-17 ) ) ;
#68 = ADVANCED_FACE ( 'NONE', ( #19 ), #99, .T. ) ;
#69 = LENGTH_MEASURE_WITH_UNIT ( LENGTH_MEASURE( 0.02539999999999999897 ), #217 );
#70 = SURFACE_STYLE_USAGE ( .BOTH. , #240 ) ;
#71 = AXIS2_PLACEMENT_3D ( 'NONE', #28, #110, #141 ) ;
#72 = APPLICATION_CONTEXT ( 'automotive_design' ) ;
#73 = FILL_AREA_STYLE ('',( #123 ) ) ;
#74 = DIRECTION ( 'NONE',  ( -1.000000000000000000, 0.000000000000000000, 0.000000000000000000 ) ) ;
#75 = ORIENTED_EDGE ( 'NONE', *, *, #56, .T. ) ;
#76 = PRESENTATION_STYLE_ASSIGNMENT (( #250 ) ) ;
#77 = SURFACE_STYLE_USAGE ( .BOTH. , #118 ) ;
#78 = ORIENTED_EDGE ( 'NONE', *, *, #180, .F. ) ;
#79 = ORIENTED_EDGE ( 'NONE', *, *, #40, .F. ) ;
#80 = EDGE_CURVE ( 'NONE', #160, #225, #299, .T. ) ;
#81 = DIRECTION ( 'NONE',  ( -6.997981709413450420E-17, -1.000000000000000000, 0.000000000000000000 ) ) ;
#82 = UNCERTAINTY_MEASURE_WITH_UNIT (LENGTH_MEASURE( 1.000000000000000082E-05 ), #280, 'distance_accuracy_value', 'NONE');
#83 = CARTESIAN_POINT ( 'NONE',  ( 0.1875000000000000278, 4.000000000000000000, 0.000000000000000000 ) ) ;
#84 = FILL_AREA_STYLE ('',( #255 ) ) ;
#85 = LENGTH_MEASURE_WITH_UNIT ( LENGTH_MEASURE( 0.02539999999999999897 ), #111 );
#86 = FACE_OUTER_BOUND ( 'NONE', #204, .T. ) ;
#87 =( NAMED_UNIT ( * ) PLANE_ANGLE_UNIT ( ) SI_UNIT ( $, .RADIAN. ) );
#88 = CIRCLE ( 'NONE', #276, 0.1875000000000000278 ) ;
#89 = FILL_AREA_STYLE ('',( #237 ) ) ;
#90 =( GEOMETRIC_REPRESENTATION_CONTEXT ( 3 ) GLOBAL_UNCERTAINTY_ASSIGNED_CONTEXT ( ( #82 ) ) GLOBAL_UNIT_ASSIGNED_CONTEXT ( ( #280, #244, #273 ) ) REPRESENTATION_CONTEXT ( 'NONE', 'WORKASPACE' ) );
#91 = ORIENTED_EDGE ( 'NONE', *, *, #265, .T. ) ;
#92 = CYLINDRICAL_SURFACE ( 'NONE', #42, 0.1875000000000000278 ) ;
#93 = CARTESIAN_POINT ( 'NONE',  ( -0.1874999999999995282, 4.000000000000000000, 0.000000000000000000 ) ) ;
#94 = CARTESIAN_POINT ( 'NONE',  ( 0.000000000000000000, 0.000000000000000000, 0.000000000000000000 ) ) ;
#95 = MECHANICAL_DESIGN_GEOMETRIC_PRESENTATION_REPRESENTATION (  '', ( #229 ), #18 ) ;
#96 = ORIENTED_EDGE ( 'NONE', *, *, #36, .T. ) ;
#97 = VERTEX_POINT ( 'NONE', #303 ) ;
#98 = DIMENSIONAL_EXPONENTS ( 1.000000000000000000, 0.000000000000000000, 0.000000000000000000, 0.000000000000000000, 0.000000000000000000, 0.000000000000000000, 0.000000000000000000 ) ;
#99 = CYLINDRICAL_SURFACE ( 'NONE', #200, 0.1874999999999999167 ) ;
#100 = EDGE_CURVE ( 'NONE', #166, #66, #60, .T. ) ;
#101 = AXIS2_PLACEMENT_3D ( 'NONE', #197, #307, #199 ) ;
#102 =( CONVERSION_BASED_UNIT ( 'INCH', #106 ) LENGTH_UNIT ( ) NAMED_UNIT ( #135 ) );
#103 = MANIFOLD_SOLID_BREP ( 'Revolve - Cutting Edge', #142 ) ;
#104 = PRESENTATION_LAYER_ASSIGNMENT (  '', '', ( #195 ) ) ;
#105 = PRESENTATION_STYLE_ASSIGNMENT (( #24 ) ) ;
#106 = LENGTH_MEASURE_WITH_UNIT ( LENGTH_MEASURE( 0.02539999999999999897 ), #23 );
#107 = CARTESIAN_POINT ( 'NONE',  ( 0.000000000000000000, 0.5000000000000000000, 0.000000000000000000 ) ) ;
#108 = FILL_AREA_STYLE_COLOUR ( '', #45 ) ;
#109 = PRODUCT_CONTEXT ( 'NONE', #183, 'mechanical' ) ;
#110 = DIRECTION ( 'NONE',  ( 0.000000000000000000, -1.000000000000000000, -0.000000000000000000 ) ) ;
#111 =( LENGTH_UNIT ( ) NAMED_UNIT ( * ) SI_UNIT ( $, .METRE. ) );
#112 = PRESENTATION_LAYER_ASSIGNMENT (  '', '', ( #283 ) ) ;
#113 = DIRECTION ( 'NONE',  ( -1.000000000000000000, 0.000000000000000000, 0.000000000000000000 ) ) ;
#114 = ADVANCED_FACE ( 'NONE', ( #145 ), #122, .F. ) ;
#115 = DIRECTION ( 'NONE',  ( 0.000000000000000000, 1.000000000000000000, 0.000000000000000000 ) ) ;
#116 = LINE ( 'NONE', #139, #188 ) ;
#117 = DIRECTION ( 'NONE',  ( -1.000000000000000000, 0.000000000000000000, 0.000000000000000000 ) ) ;
#118 = SURFACE_SIDE_STYLE ('',( #164 ) ) ;
#119 = AXIS2_PLACEMENT_3D ( 'NONE', #203, #16, #222 ) ;
#120 = CARTESIAN_POINT ( 'NONE',  ( 2.449293598294707400E-16, 4.000000000000000000, 0.000000000000000000 ) ) ;
#121 =( LENGTH_UNIT ( ) NAMED_UNIT ( * ) SI_UNIT ( $, .METRE. ) );
#122 = PLANE ( 'NONE',  #54 ) ;
#123 = FILL_AREA_STYLE_COLOUR ( '', #170 ) ;
#124 = EDGE_CURVE ( 'NONE', #202, #97, #116, .T. ) ;
#125 = VERTEX_POINT ( 'NONE', #35 ) ;
#126 =( NAMED_UNIT ( * ) PLANE_ANGLE_UNIT ( ) SI_UNIT ( $, .RADIAN. ) );
#127 = AXIS2_PLACEMENT_3D ( 'NONE', #83, #81, #209 ) ;
#128 = AXIS2_PLACEMENT_3D ( 'NONE', #221, #11, #294 ) ;
#129 = DIMENSIONAL_EXPONENTS ( 1.000000000000000000, 0.000000000000000000, 0.000000000000000000, 0.000000000000000000, 0.000000000000000000, 0.000000000000000000, 0.000000000000000000 ) ;
#130 = ORIENTED_EDGE ( 'NONE', *, *, #40, .T. ) ;
#131 = SURFACE_STYLE_FILL_AREA ( #84 ) ;
#132 = SHAPE_DEFINITION_REPRESENTATION ( #205, #55 ) ;
#133 = DIMENSIONAL_EXPONENTS ( 1.000000000000000000, 0.000000000000000000, 0.000000000000000000, 0.000000000000000000, 0.000000000000000000, 0.000000000000000000, 0.000000000000000000 ) ;
#134 = AXIS2_PLACEMENT_3D ( 'NONE', #94, #14, #300 ) ;
#135 = DIMENSIONAL_EXPONENTS ( 1.000000000000000000, 0.000000000000000000, 0.000000000000000000, 0.000000000000000000, 0.000000000000000000, 0.000000000000000000, 0.000000000000000000 ) ;
#136 = EDGE_CURVE ( 'NONE', #97, #66, #156, .T. ) ;
#137 = EDGE_LOOP ( 'NONE', ( #50, #96 ) ) ;
#138 = AXIS2_PLACEMENT_3D ( 'NONE', #147, #115, #196 ) ;
#139 = CARTESIAN_POINT ( 'NONE',  ( 0.000000000000000000, 0.000000000000000000, -0.1875000000000000278 ) ) ;
#140 = PRESENTATION_STYLE_ASSIGNMENT (( #70 ) ) ;
#141 = DIRECTION ( 'NONE',  ( 0.000000000000000000, 0.000000000000000000, -1.000000000000000000 ) ) ;
#142 = CLOSED_SHELL ( 'NONE', ( #227, #235, #288, #29 ) ) ;
#143 = AXIS2_PLACEMENT_3D ( 'NONE', #236, #287, #191 ) ;
#144 = DIRECTION ( 'NONE',  ( -0.000000000000000000, -1.000000000000000000, -0.000000000000000000 ) ) ;
#145 = FACE_OUTER_BOUND ( 'NONE', #58, .T. ) ;
#146 =( NAMED_UNIT ( * ) PLANE_ANGLE_UNIT ( ) SI_UNIT ( $, .RADIAN. ) );
#147 = CARTESIAN_POINT ( 'NONE',  ( 0.000000000000000000, 0.5000000000000000000, 0.000000000000000000 ) ) ;
#148 = CARTESIAN_POINT ( 'NONE',  ( 2.296212748401287726E-17, 0.000000000000000000, 0.1875000000000000278 ) ) ;
#149 = FILL_AREA_STYLE ('',( #295 ) ) ;
#150 = ORIENTED_EDGE ( 'NONE', *, *, #274, .F. ) ;
#151 = SURFACE_SIDE_STYLE ('',( #165 ) ) ;
#152 = ORIENTED_EDGE ( 'NONE', *, *, #124, .F. ) ;
#153 = MECHANICAL_DESIGN_GEOMETRIC_PRESENTATION_REPRESENTATION (  '', ( #283 ), #234 ) ;
#154 = DIMENSIONAL_EXPONENTS ( 1.000000000000000000, 0.000000000000000000, 0.000000000000000000, 0.000000000000000000, 0.000000000000000000, 0.000000000000000000, 0.000000000000000000 ) ;
#155 = ORIENTED_EDGE ( 'NONE', *, *, #80, .F. ) ;
#156 = CIRCLE ( 'NONE', #143, 0.1875000000000000278 ) ;
#157 = COLOUR_RGB ( '',1.000000000000000000, 0.000000000000000000, 0.000000000000000000 ) ;
#158 = SURFACE_STYLE_USAGE ( .BOTH. , #231 ) ;
#159 = UNCERTAINTY_MEASURE_WITH_UNIT (LENGTH_MEASURE( 1.000000000000000082E-05 ), #62, 'distance_accuracy_value', 'NONE');
#160 = VERTEX_POINT ( 'NONE', #67 ) ;
#161 = LENGTH_MEASURE_WITH_UNIT ( LENGTH_MEASURE( 0.02539999999999999897 ), #31 );
#162 = DIRECTION ( 'NONE',  ( 6.997981709413450420E-17, 1.000000000000000000, -0.000000000000000000 ) ) ;
#163 = CARTESIAN_POINT ( 'NONE',  ( 0.000000000000000000, 0.000000000000000000, 0.000000000000000000 ) ) ;
#164 = SURFACE_STYLE_FILL_AREA ( #149 ) ;
#165 = SURFACE_STYLE_FILL_AREA ( #73 ) ;
#166 = VERTEX_POINT ( 'NONE', #4 ) ;
#167 = UNCERTAINTY_MEASURE_WITH_UNIT (LENGTH_MEASURE( 1.000000000000000082E-05 ), #194, 'distance_accuracy_value', 'NONE');
#168 =( GEOMETRIC_REPRESENTATION_CONTEXT ( 3 ) GLOBAL_UNCERTAINTY_ASSIGNED_CONTEXT ( ( #305 ) ) GLOBAL_UNIT_ASSIGNED_CONTEXT ( ( #192, #267, #48 ) ) REPRESENTATION_CONTEXT ( 'NONE', 'WORKASPACE' ) );
#169 = LINE ( 'NONE', #201, #57 ) ;
#170 = COLOUR_RGB ( '',1.000000000000000000, 0.000000000000000000, 0.000000000000000000 ) ;
#171 = ORIENTED_EDGE ( 'NONE', *, *, #124, .T. ) ;
#172 = CARTESIAN_POINT ( 'NONE',  ( 2.449293598294707400E-16, 4.000000000000000000, 0.000000000000000000 ) ) ;
#173 = EDGE_LOOP ( 'NONE', ( #254, #91, #171, #78 ) ) ;
#174 = LENGTH_MEASURE_WITH_UNIT ( LENGTH_MEASURE( 0.02539999999999999897 ), #15 );
#175 = CIRCLE ( 'NONE', #49, 0.1875000000000000278 ) ;
#176 = ORIENTED_EDGE ( 'NONE', *, *, #258, .T. ) ;
#177 = UNCERTAINTY_MEASURE_WITH_UNIT (LENGTH_MEASURE( 1.000000000000000082E-05 ), #102, 'distance_accuracy_value', 'NONE');
#178 = ORIENTED_EDGE ( 'NONE', *, *, #180, .T. ) ;
#179 = DIMENSIONAL_EXPONENTS ( 1.000000000000000000, 0.000000000000000000, 0.000000000000000000, 0.000000000000000000, 0.000000000000000000, 0.000000000000000000, 0.000000000000000000 ) ;
#180 = EDGE_CURVE ( 'NONE', #66, #97, #88, .T. ) ;
#181 = CARTESIAN_POINT ( 'NONE',  ( 0.1875000000000000278, 4.000000000000000000, 2.296212748401286493E-17 ) ) ;
#182 = AXIS2_PLACEMENT_3D ( 'NONE', #107, #211, #2 ) ;
#183 = APPLICATION_CONTEXT ( 'automotive_design' ) ;
#184 = PLANE ( 'NONE',  #127 ) ;
#185 =( CONVERSION_BASED_UNIT ( 'INCH', #85 ) LENGTH_UNIT ( ) NAMED_UNIT ( #179 ) );
#186 = ORIENTED_EDGE ( 'NONE', *, *, #265, .F. ) ;
#187 =( NAMED_UNIT ( * ) SI_UNIT ( $, .STERADIAN. ) SOLID_ANGLE_UNIT ( ) );
#188 = VECTOR ( 'NONE', #264, 39.37007874015748143 ) ;
#189 =( GEOMETRIC_REPRESENTATION_CONTEXT ( 3 ) GLOBAL_UNCERTAINTY_ASSIGNED_CONTEXT ( ( #159 ) ) GLOBAL_UNIT_ASSIGNED_CONTEXT ( ( #62, #126, #245 ) ) REPRESENTATION_CONTEXT ( 'NONE', 'WORKASPACE' ) );
#190 = FILL_AREA_STYLE ('',( #108 ) ) ;
#191 = DIRECTION ( 'NONE',  ( 0.000000000000000000, 0.000000000000000000, -1.000000000000000000 ) ) ;
#192 =( CONVERSION_BASED_UNIT ( 'INCH', #161 ) LENGTH_UNIT ( ) NAMED_UNIT ( #133 ) );
#193 = ADVANCED_FACE ( 'NONE', ( #52 ), #32, .T. ) ;
#194 =( CONVERSION_BASED_UNIT ( 'INCH', #298 ) LENGTH_UNIT ( ) NAMED_UNIT ( #256 ) );
#195 = STYLED_ITEM ( 'NONE', ( #140 ), #227 ) ;
#196 = DIRECTION ( 'NONE',  ( 0.000000000000000000, -0.000000000000000000, 1.000000000000000000 ) ) ;
#197 = CARTESIAN_POINT ( 'NONE',  ( 2.449293598294707400E-16, 4.000000000000000000, 0.000000000000000000 ) ) ;
#198 =( LENGTH_UNIT ( ) NAMED_UNIT ( * ) SI_UNIT ( $, .METRE. ) );
#199 = DIRECTION ( 'NONE',  ( -1.000000000000000000, 0.000000000000000000, 0.000000000000000000 ) ) ;
#200 = AXIS2_PLACEMENT_3D ( 'NONE', #120, #220, #74 ) ;
#201 = CARTESIAN_POINT ( 'NONE',  ( -0.1874999999999996669, 4.000000000000000000, 0.000000000000000000 ) ) ;
#202 = VERTEX_POINT ( 'NONE', #290 ) ;
#203 = CARTESIAN_POINT ( 'NONE',  ( 0.000000000000000000, 0.5000000000000001110, 0.000000000000000000 ) ) ;
#204 = EDGE_LOOP ( 'NONE', ( #297, #178 ) ) ;
#205 = PRODUCT_DEFINITION_SHAPE ( 'NONE', 'NONE',  #207 ) ;
#206 = COLOUR_RGB ( '',0.7921568627450980005, 0.8196078431372548767, 0.9333333333333333481 ) ;
#207 = PRODUCT_DEFINITION ( 'UNKNOWN', '', #302, #47 ) ;
#208 =( NAMED_UNIT ( * ) PLANE_ANGLE_UNIT ( ) SI_UNIT ( $, .RADIAN. ) );
#209 = DIRECTION ( 'NONE',  ( 1.000000000000000000, -6.997981709413450420E-17, 0.000000000000000000 ) ) ;
#210 = COLOUR_RGB ( '',0.7921568627450980005, 0.8196078431372548767, 0.9333333333333333481 ) ;
#211 = DIRECTION ( 'NONE',  ( -0.000000000000000000, -1.000000000000000000, -0.000000000000000000 ) ) ;
#212 = DIRECTION ( 'NONE',  ( -0.000000000000000000, -1.000000000000000000, -0.000000000000000000 ) ) ;
#213 = CARTESIAN_POINT ( 'NONE',  ( 2.449293598294707400E-16, 4.000000000000000000, 0.000000000000000000 ) ) ;
#214 = CLOSED_SHELL ( 'NONE', ( #68, #114, #193, #21 ) ) ;
#215 = PRESENTATION_LAYER_ASSIGNMENT (  '', '', ( #238 ) ) ;
#216 = MANIFOLD_SOLID_BREP ( 'Revolve - Tool Body (Straight Shanked)', #214 ) ;
#217 =( LENGTH_UNIT ( ) NAMED_UNIT ( * ) SI_UNIT ( $, .METRE. ) );
#218 = DIRECTION ( 'NONE',  ( 0.000000000000000000, 0.000000000000000000, -1.000000000000000000 ) ) ;
#219 = CIRCLE ( 'NONE', #128, 0.1875000000000000278 ) ;
#220 = DIRECTION ( 'NONE',  ( 6.997981709413450420E-17, 1.000000000000000000, -0.000000000000000000 ) ) ;
#221 = CARTESIAN_POINT ( 'NONE',  ( 0.000000000000000000, 0.5000000000000000000, 0.000000000000000000 ) ) ;
#222 = DIRECTION ( 'NONE',  ( -1.000000000000000000, 0.000000000000000000, 0.000000000000000000 ) ) ;
#223 = EDGE_LOOP ( 'NONE', ( #279, #186 ) ) ;
#224 = CARTESIAN_POINT ( 'NONE',  ( 0.000000000000000000, 0.000000000000000000, 0.000000000000000000 ) ) ;
#225 = VERTEX_POINT ( 'NONE', #181 ) ;
#226 = CARTESIAN_POINT ( 'NONE',  ( 2.296212748401287726E-17, 0.000000000000000000, 0.1875000000000000278 ) ) ;
#227 = ADVANCED_FACE ( 'NONE', ( #53 ), #43, .T. ) ;
#228 = PRESENTATION_STYLE_ASSIGNMENT (( #232 ) ) ;
#229 = STYLED_ITEM ( 'NONE', ( #228 ), #103 ) ;
#230 = MECHANICAL_DESIGN_GEOMETRIC_PRESENTATION_REPRESENTATION (  '', ( #59 ), #189 ) ;
#231 = SURFACE_SIDE_STYLE ('',( #131 ) ) ;
#232 = SURFACE_STYLE_USAGE ( .BOTH. , #44 ) ;
#233 = PLANE ( 'NONE',  #138 ) ;
#234 =( GEOMETRIC_REPRESENTATION_CONTEXT ( 3 ) GLOBAL_UNCERTAINTY_ASSIGNED_CONTEXT ( ( #285 ) ) GLOBAL_UNIT_ASSIGNED_CONTEXT ( ( #185, #87, #263 ) ) REPRESENTATION_CONTEXT ( 'NONE', 'WORKASPACE' ) );
#235 = ADVANCED_FACE ( 'NONE', ( #51 ), #233, .T. ) ;
#236 = CARTESIAN_POINT ( 'NONE',  ( 0.000000000000000000, 0.000000000000000000, 0.000000000000000000 ) ) ;
#237 = FILL_AREA_STYLE_COLOUR ( '', #269 ) ;
#238 = STYLED_ITEM ( 'NONE', ( #271 ), #216 ) ;
#239 = PRESENTATION_LAYER_ASSIGNMENT (  '', '', ( #59 ) ) ;
#240 = SURFACE_SIDE_STYLE ('',( #26 ) ) ;
#241 = DIRECTION ( 'NONE',  ( -0.000000000000000000, -1.000000000000000000, -0.000000000000000000 ) ) ;
#242 = DIRECTION ( 'NONE',  ( -1.000000000000000000, 6.997981709413450420E-17, 0.000000000000000000 ) ) ;
#243 =( NAMED_UNIT ( * ) SI_UNIT ( $, .STERADIAN. ) SOLID_ANGLE_UNIT ( ) );
#244 =( NAMED_UNIT ( * ) PLANE_ANGLE_UNIT ( ) SI_UNIT ( $, .RADIAN. ) );
#245 =( NAMED_UNIT ( * ) SI_UNIT ( $, .STERADIAN. ) SOLID_ANGLE_UNIT ( ) );
#246 = AXIS2_PLACEMENT_3D ( 'NONE', #213, #5, #113 ) ;
#247 = DIRECTION ( 'NONE',  ( -0.000000000000000000, -1.000000000000000000, -0.000000000000000000 ) ) ;
#248 = APPLICATION_PROTOCOL_DEFINITION ( 'draft international standard', 'automotive_design', 1998, #183 ) ;
#249 = EDGE_LOOP ( 'NONE', ( #176, #39, #150, #61 ) ) ;
#250 = SURFACE_STYLE_USAGE ( .BOTH. , #151 ) ;
#251 = ORIENTED_EDGE ( 'NONE', *, *, #3, .T. ) ;
#252 = MECHANICAL_DESIGN_GEOMETRIC_PRESENTATION_REPRESENTATION (  '', ( #238 ), #90 ) ;
#253 = ORIENTED_EDGE ( 'NONE', *, *, #136, .F. ) ;
#254 = ORIENTED_EDGE ( 'NONE', *, *, #100, .F. ) ;
#255 = FILL_AREA_STYLE_COLOUR ( '', #157 ) ;
#256 = DIMENSIONAL_EXPONENTS ( 1.000000000000000000, 0.000000000000000000, 0.000000000000000000, 0.000000000000000000, 0.000000000000000000, 0.000000000000000000, 0.000000000000000000 ) ;
#257 = ORIENTED_EDGE ( 'NONE', *, *, #258, .F. ) ;
#258 = EDGE_CURVE ( 'NONE', #125, #160, #175, .T. ) ;
#259 = SURFACE_SIDE_STYLE ('',( #1 ) ) ;
#260 = PLANE ( 'NONE',  #71 ) ;
#261 = MECHANICAL_DESIGN_GEOMETRIC_PRESENTATION_REPRESENTATION (  '', ( #292 ), #25 ) ;
#262 = APPLICATION_PROTOCOL_DEFINITION ( 'draft international standard', 'automotive_design', 1998, #72 ) ;
#263 =( NAMED_UNIT ( * ) SI_UNIT ( $, .STERADIAN. ) SOLID_ANGLE_UNIT ( ) );
#264 = DIRECTION ( 'NONE',  ( -0.000000000000000000, -1.000000000000000000, -0.000000000000000000 ) ) ;
#265 = EDGE_CURVE ( 'NONE', #166, #202, #219, .T. ) ;
#266 = DIRECTION ( 'NONE',  ( 0.000000000000000000, 0.000000000000000000, -1.000000000000000000 ) ) ;
#267 =( NAMED_UNIT ( * ) PLANE_ANGLE_UNIT ( ) SI_UNIT ( $, .RADIAN. ) );
#268 = CARTESIAN_POINT ( 'NONE',  ( 0.000000000000000000, 0.000000000000000000, 0.000000000000000000 ) ) ;
#269 = COLOUR_RGB ( '',1.000000000000000000, 0.000000000000000000, 0.000000000000000000 ) ;
#270 = FACE_OUTER_BOUND ( 'NONE', #173, .T. ) ;
#271 = PRESENTATION_STYLE_ASSIGNMENT (( #77 ) ) ;
#272 = DIRECTION ( 'NONE',  ( 6.997981709413450420E-17, 1.000000000000000000, -0.000000000000000000 ) ) ;
#273 =( NAMED_UNIT ( * ) SI_UNIT ( $, .STERADIAN. ) SOLID_ANGLE_UNIT ( ) );
#274 = EDGE_CURVE ( 'NONE', #63, #225, #65, .T. ) ;
#275 = ORIENTED_EDGE ( 'NONE', *, *, #36, .F. ) ;
#276 = AXIS2_PLACEMENT_3D ( 'NONE', #268, #241, #27 ) ;
#277 =( GEOMETRIC_REPRESENTATION_CONTEXT ( 3 ) GLOBAL_UNCERTAINTY_ASSIGNED_CONTEXT ( ( #167 ) ) GLOBAL_UNIT_ASSIGNED_CONTEXT ( ( #194, #146, #243 ) ) REPRESENTATION_CONTEXT ( 'NONE', 'WORKASPACE' ) );
#278 = PRODUCT_RELATED_PRODUCT_CATEGORY ( 'part', '', ( #282 ) ) ;
#279 = ORIENTED_EDGE ( 'NONE', *, *, #3, .F. ) ;
#280 =( CONVERSION_BASED_UNIT ( 'INCH', #174 ) LENGTH_UNIT ( ) NAMED_UNIT ( #154 ) );
#281 = PRESENTATION_LAYER_ASSIGNMENT (  '', '', ( #292 ) ) ;
#282 = PRODUCT ( '82943', '82943', '', ( #109 ) ) ;
#283 = STYLED_ITEM ( 'NONE', ( #105 ), #235 ) ;
#284 = PRESENTATION_STYLE_ASSIGNMENT (( #158 ) ) ;
#285 = UNCERTAINTY_MEASURE_WITH_UNIT (LENGTH_MEASURE( 1.000000000000000082E-05 ), #185, 'distance_accuracy_value', 'NONE');
#286 = FACE_OUTER_BOUND ( 'NONE', #137, .T. ) ;
#287 = DIRECTION ( 'NONE',  ( -0.000000000000000000, -1.000000000000000000, -0.000000000000000000 ) ) ;
#288 = ADVANCED_FACE ( 'NONE', ( #270 ), #92, .T. ) ;
#289 = CIRCLE ( 'NONE', #119, 0.1875000000000000278 ) ;
#290 = CARTESIAN_POINT ( 'NONE',  ( 0.000000000000000000, 0.5000000000000000000, -0.1875000000000000278 ) ) ;
#291 =( NAMED_UNIT ( * ) PLANE_ANGLE_UNIT ( ) SI_UNIT ( $, .RADIAN. ) );
#292 = STYLED_ITEM ( 'NONE', ( #284 ), #29 ) ;
#293 =( CONVERSION_BASED_UNIT ( 'INCH', #69 ) LENGTH_UNIT ( ) NAMED_UNIT ( #98 ) );
#294 = DIRECTION ( 'NONE',  ( 0.000000000000000000, 0.000000000000000000, -1.000000000000000000 ) ) ;
#295 = FILL_AREA_STYLE_COLOUR ( '', #206 ) ;
#296 = CARTESIAN_POINT ( 'NONE',  ( 0.1875000000000001388, 4.000000000000000000, 2.296212748401286185E-17 ) ) ;
#297 = ORIENTED_EDGE ( 'NONE', *, *, #136, .T. ) ;
#298 = LENGTH_MEASURE_WITH_UNIT ( LENGTH_MEASURE( 0.02539999999999999897 ), #198 );
#299 = LINE ( 'NONE', #296, #22 ) ;
#300 = DIRECTION ( 'NONE',  ( 1.000000000000000000, 0.000000000000000000, 0.000000000000000000 ) ) ;
#301 = VECTOR ( 'NONE', #247, 39.37007874015748143 ) ;
#302 = PRODUCT_DEFINITION_FORMATION_WITH_SPECIFIED_SOURCE ( 'ANY', '', #282, .NOT_KNOWN. ) ;
#303 = CARTESIAN_POINT ( 'NONE',  ( 0.000000000000000000, 0.000000000000000000, -0.1875000000000000278 ) ) ;
#304 = EDGE_LOOP ( 'NONE', ( #155, #130, #75, #275 ) ) ;
#305 = UNCERTAINTY_MEASURE_WITH_UNIT (LENGTH_MEASURE( 1.000000000000000082E-05 ), #192, 'distance_accuracy_value', 'NONE');
#306 = CARTESIAN_POINT ( 'NONE',  ( 0.000000000000000000, 0.5000000000000001110, 0.000000000000000000 ) ) ;
#307 = DIRECTION ( 'NONE',  ( 6.997981709413450420E-17, 1.000000000000000000, -0.000000000000000000 ) ) ;
#308 = CIRCLE ( 'NONE', #101, 0.1874999999999997780 ) ;
#309 = SURFACE_STYLE_FILL_AREA ( #46 ) ;
ENDSEC;
END-ISO-10303-21;
