ISO-10303-21;
HEADER;
FILE_DESCRIPTION (( 'STEP AP214' ),
    '1' );
FILE_NAME ('Micro_BMR-024-2X.STEP',
    '2021-09-03T13:56:15',
    ( '' ),
    ( '' ),
    'SwSTEP 2.0',
    'SolidWorks 2020',
    '' );
FILE_SCHEMA (( 'AUTOMOTIVE_DESIGN' ));
ENDSEC;

DATA;
#1 = CARTESIAN_POINT ( 'NONE',  ( 0.0000000000000000000, 0.0000000000000000000, 1.500000000000000222 ) ) ;
#2 = EDGE_CURVE ( 'NONE', #190, #210, #162, .T. ) ;
#3 = PRODUCT_DEFINITION_SHAPE ( 'NONE', 'NONE',  #230 ) ;
#4 = CARTESIAN_POINT ( 'NONE',  ( -0.04750000000000064587, 0.0000000000000000000, 1.500000000000000222 ) ) ;
#5 = DIRECTION ( 'NONE',  ( -1.224646799147353454E-16, -0.0000000000000000000, -1.000000000000000000 ) ) ;
#6 = DIRECTION ( 'NONE',  ( 0.0000000000000000000, 0.0000000000000000000, 1.000000000000000000 ) ) ;
#7 = DIRECTION ( 'NONE',  ( 1.000000000000000000, 0.0000000000000000000, 0.0000000000000000000 ) ) ;
#8 = LINE ( 'NONE', #4, #289 ) ;
#9 = STYLED_ITEM ( 'NONE', ( #129 ), #260 ) ;
#10 = DIMENSIONAL_EXPONENTS ( 1.000000000000000000, 0.0000000000000000000, 0.0000000000000000000, 0.0000000000000000000, 0.0000000000000000000, 0.0000000000000000000, 0.0000000000000000000 ) ;
#11 = EDGE_CURVE ( 'NONE', #66, #312, #79, .T. ) ;
#12 = EDGE_LOOP ( 'NONE', ( #298, #168, #83 ) ) ;
#13 = APPLICATION_CONTEXT ( 'automotive_design' ) ;
#14 = LENGTH_MEASURE_WITH_UNIT ( LENGTH_MEASURE( 0.02539999999999999897 ), #264 );
#15 = CARTESIAN_POINT ( 'NONE',  ( 0.0000000000000000000, 0.0000000000000000000, 1.500000000000000222 ) ) ;
#16 = ORIENTED_EDGE ( 'NONE', *, *, #163, .T. ) ;
#17 = ORIENTED_EDGE ( 'NONE', *, *, #11, .T. ) ;
#18 = EDGE_CURVE ( 'NONE', #190, #140, #126, .T. ) ;
#19 = ORIENTED_EDGE ( 'NONE', *, *, #191, .T. ) ;
#20 = CARTESIAN_POINT ( 'NONE',  ( -0.04750000000000064587, 0.0000000000000000000, 1.500000000000000222 ) ) ;
#21 = DIRECTION ( 'NONE',  ( 0.0000000000000000000, 0.0000000000000000000, -1.000000000000000000 ) ) ;
#22 = DIRECTION ( 'NONE',  ( 1.000000000000000000, 0.0000000000000000000, 0.0000000000000000000 ) ) ;
#23 = PRODUCT_DEFINITION_FORMATION_WITH_SPECIFIED_SOURCE ( 'ANY', '', #274, .NOT_KNOWN. ) ;
#24 = DIRECTION ( 'NONE',  ( 1.000000000000000000, 0.0000000000000000000, 0.0000000000000000000 ) ) ;
#25 = CARTESIAN_POINT ( 'NONE',  ( 2.202159874226770964E-18, 0.0000000000000000000, 0.0000000000000000000 ) ) ;
#26 = DIRECTION ( 'NONE',  ( -1.000000000000000000, 0.0000000000000000000, 0.0000000000000000000 ) ) ;
#27 = CIRCLE ( 'NONE', #49, 0.01198800000000000039 ) ;
#28 = DIRECTION ( 'NONE',  ( -1.000000000000000000, 1.224646799147353207E-16, 0.0000000000000000000 ) ) ;
#29 = AXIS2_PLACEMENT_3D ( 'NONE', #15, #178, #280 ) ;
#30 = CARTESIAN_POINT ( 'NONE',  ( -0.01198799999999999866, 0.0000000000000000000, 1.468106582817847053E-18 ) ) ;
#31 = ORIENTED_EDGE ( 'NONE', *, *, #218, .T. ) ;
#32 = DIRECTION ( 'NONE',  ( 1.000000000000000000, 0.0000000000000000000, 0.0000000000000000000 ) ) ;
#33 = CARTESIAN_POINT ( 'NONE',  ( 0.04750000000000064587, 6.735557395310483192E-18, 1.500000000000000222 ) ) ;
#34 = MECHANICAL_DESIGN_GEOMETRIC_PRESENTATION_REPRESENTATION (  '', ( #45 ), #112 ) ;
#35 = PRODUCT_CONTEXT ( 'NONE', #13, 'mechanical' ) ;
#36 = DIRECTION ( 'NONE',  ( 1.000000000000000000, 0.0000000000000000000, 0.0000000000000000000 ) ) ;
#37 = DIRECTION ( 'NONE',  ( -0.0000000000000000000, -0.0000000000000000000, -1.000000000000000000 ) ) ;
#38 = SURFACE_SIDE_STYLE ('',( #211 ) ) ;
#39 = ORIENTED_EDGE ( 'NONE', *, *, #157, .T. ) ;
#40 = CONICAL_SURFACE ( 'NONE', #85, 0.01198799999999999866, 0.1745329251994338915 ) ;
#41 = CARTESIAN_POINT ( 'NONE',  ( 0.06250000000000002776, 7.654042494670959086E-18, 1.500000000000000222 ) ) ;
#42 = EDGE_CURVE ( 'NONE', #269, #190, #294, .T. ) ;
#43 = ORIENTED_EDGE ( 'NONE', *, *, #299, .T. ) ;
#44 = CARTESIAN_POINT ( 'NONE',  ( 1.468106582817847438E-18, 0.0000000000000000000, 0.01198800000000000039 ) ) ;
#45 = STYLED_ITEM ( 'NONE', ( #293 ), #297 ) ;
#46 = CARTESIAN_POINT ( 'NONE',  ( 0.01198800000000000733, 0.0000000000000000000, 0.07199999999999999456 ) ) ;
#47 = FACE_OUTER_BOUND ( 'NONE', #286, .T. ) ;
#48 = DIRECTION ( 'NONE',  ( -1.000000000000000000, 0.0000000000000000000, 0.0000000000000000000 ) ) ;
#49 = AXIS2_PLACEMENT_3D ( 'NONE', #86, #197, #28 ) ;
#50 = CARTESIAN_POINT ( 'NONE',  ( 1.468106582817847438E-18, 0.0000000000000000000, 0.01198800000000000039 ) ) ;
#51 = CARTESIAN_POINT ( 'NONE',  ( 4.389964282807362285E-17, 0.0000000000000000000, 0.3584677872725283154 ) ) ;
#52 = DIRECTION ( 'NONE',  ( 0.0000000000000000000, 0.0000000000000000000, -1.000000000000000000 ) ) ;
#53 = ORIENTED_EDGE ( 'NONE', *, *, #132, .T. ) ;
#54 = AXIS2_PLACEMENT_3D ( 'NONE', #118, #5, #277 ) ;
#55 = ORIENTED_EDGE ( 'NONE', *, *, #309, .T. ) ;
#56 =( CONVERSION_BASED_UNIT ( 'INCH', #14 ) LENGTH_UNIT ( ) NAMED_UNIT ( #10 ) );
#57 =( NAMED_UNIT ( * ) PLANE_ANGLE_UNIT ( ) SI_UNIT ( $, .RADIAN. ) );
#58 = VERTEX_POINT ( 'NONE', #20 ) ;
#59 = APPLICATION_PROTOCOL_DEFINITION ( 'draft international standard', 'automotive_design', 1998, #13 ) ;
#60 = VECTOR ( 'NONE', #322, 39.37007874015748854 ) ;
#61 = ORIENTED_EDGE ( 'NONE', *, *, #255, .T. ) ;
#62 = ORIENTED_EDGE ( 'NONE', *, *, #309, .F. ) ;
#63 = ORIENTED_EDGE ( 'NONE', *, *, #225, .F. ) ;
#64 = ORIENTED_EDGE ( 'NONE', *, *, #119, .F. ) ;
#65 = AXIS2_PLACEMENT_3D ( 'NONE', #323, #21, #22 ) ;
#66 = VERTEX_POINT ( 'NONE', #113 ) ;
#67 = DIRECTION ( 'NONE',  ( -0.7071067811865462405, 0.0000000000000000000, -0.7071067811865486830 ) ) ;
#68 = CARTESIAN_POINT ( 'NONE',  ( 8.817456953860943597E-18, 0.0000000000000000000, 0.07199999999999999456 ) ) ;
#69 = AXIS2_PLACEMENT_3D ( 'NONE', #51, #310, #102 ) ;
#70 = CARTESIAN_POINT ( 'NONE',  ( 0.0000000000000000000, 0.0000000000000000000, 1.500000000000000222 ) ) ;
#71 = DIRECTION ( 'NONE',  ( 0.0000000000000000000, 0.0000000000000000000, -1.000000000000000000 ) ) ;
#72 = ADVANCED_FACE ( 'NONE', ( #212 ), #267, .T. ) ;
#73 = DIRECTION ( 'NONE',  ( 1.000000000000000000, 0.0000000000000000000, 0.0000000000000000000 ) ) ;
#74 = AXIS2_PLACEMENT_3D ( 'NONE', #171, #202, #93 ) ;
#75 = DIRECTION ( 'NONE',  ( 1.000000000000000000, 0.0000000000000000000, 0.0000000000000000000 ) ) ;
#76 = CARTESIAN_POINT ( 'NONE',  ( -0.06250000000000002776, 0.0000000000000000000, 1.500000000000000222 ) ) ;
#77 = CARTESIAN_POINT ( 'NONE',  ( 0.0000000000000000000, 0.0000000000000000000, 1.500000000000000222 ) ) ;
#78 = EDGE_CURVE ( 'NONE', #156, #210, #216, .T. ) ;
#79 = CIRCLE ( 'NONE', #148, 0.01198799999999999866 ) ;
#80 = AXIS2_PLACEMENT_3D ( 'NONE', #279, #301, #48 ) ;
#81 = CARTESIAN_POINT ( 'NONE',  ( 0.0000000000000000000, 0.0000000000000000000, 1.485000000000000764 ) ) ;
#82 = LENGTH_MEASURE_WITH_UNIT ( LENGTH_MEASURE( 0.02539999999999999897 ), #203 );
#83 = ORIENTED_EDGE ( 'NONE', *, *, #11, .F. ) ;
#84 = APPLICATION_PROTOCOL_DEFINITION ( 'draft international standard', 'automotive_design', 1998, #204 ) ;
#85 = AXIS2_PLACEMENT_3D ( 'NONE', #68, #222, #24 ) ;
#86 = CARTESIAN_POINT ( 'NONE',  ( 1.468106582817847438E-18, 0.0000000000000000000, 0.01198800000000000039 ) ) ;
#87 = FILL_AREA_STYLE ('',( #161 ) ) ;
#88 = CARTESIAN_POINT ( 'NONE',  ( 1.468106582817847438E-18, 0.0000000000000000000, 0.01198800000000000039 ) ) ;
#89 = ORIENTED_EDGE ( 'NONE', *, *, #119, .T. ) ;
#90 = ORIENTED_EDGE ( 'NONE', *, *, #163, .F. ) ;
#91 = MECHANICAL_DESIGN_GEOMETRIC_PRESENTATION_REPRESENTATION (  '', ( #9 ), #306 ) ;
#92 = EDGE_LOOP ( 'NONE', ( #153, #53, #63 ) ) ;
#93 = DIRECTION ( 'NONE',  ( 1.000000000000000000, 0.0000000000000000000, 0.0000000000000000000 ) ) ;
#94 = DIRECTION ( 'NONE',  ( 1.000000000000000000, 0.0000000000000000000, 0.0000000000000000000 ) ) ;
#95 = AXIS2_PLACEMENT_3D ( 'NONE', #50, #251, #300 ) ;
#96 = DIRECTION ( 'NONE',  ( -1.000000000000000000, 0.0000000000000000000, 1.780327198073244800E-16 ) ) ;
#97 = CARTESIAN_POINT ( 'NONE',  ( 0.06250000000000002776, 7.654042494670959086E-18, 1.485000000000000764 ) ) ;
#98 = EDGE_CURVE ( 'NONE', #58, #269, #284, .T. ) ;
#99 = FACE_OUTER_BOUND ( 'NONE', #116, .T. ) ;
#100 = CIRCLE ( 'NONE', #54, 0.01198799999999999866 ) ;
#101 = DIRECTION ( 'NONE',  ( -1.000000000000000000, 0.0000000000000000000, 1.224646799147353454E-16 ) ) ;
#102 = DIRECTION ( 'NONE',  ( 1.000000000000000000, 0.0000000000000000000, 0.0000000000000000000 ) ) ;
#103 = ORIENTED_EDGE ( 'NONE', *, *, #166, .F. ) ;
#104 = AXIS2_PLACEMENT_3D ( 'NONE', #228, #254, #7 ) ;
#105 = COLOUR_RGB ( '',0.7921568627450980005, 0.8196078431372548767, 0.9333333333333333481 ) ;
#106 = PRODUCT_RELATED_PRODUCT_CATEGORY ( 'part', '', ( #274 ) ) ;
#107 = CARTESIAN_POINT ( 'NONE',  ( 0.0000000000000000000, 0.0000000000000000000, 0.0000000000000000000 ) ) ;
#108 = VERTEX_POINT ( 'NONE', #318 ) ;
#109 = CLOSED_SHELL ( 'NONE', ( #186, #263, #194, #141, #278, #223, #72, #252, #146, #208, #234 ) ) ;
#110 = AXIS2_PLACEMENT_3D ( 'NONE', #1, #240, #271 ) ;
#111 = ORIENTED_EDGE ( 'NONE', *, *, #42, .T. ) ;
#112 =( GEOMETRIC_REPRESENTATION_CONTEXT ( 3 ) GLOBAL_UNCERTAINTY_ASSIGNED_CONTEXT ( ( #215 ) ) GLOBAL_UNIT_ASSIGNED_CONTEXT ( ( #316, #184, #320 ) ) REPRESENTATION_CONTEXT ( 'NONE', 'WORKASPACE' ) );
#113 = CARTESIAN_POINT ( 'NONE',  ( 0.01198800000000000039, 1.468106582817846860E-18, 0.01198799999999999866 ) ) ;
#114 = EDGE_CURVE ( 'NONE', #130, #312, #27, .T. ) ;
#115 = ORIENTED_EDGE ( 'NONE', *, *, #218, .F. ) ;
#116 = EDGE_LOOP ( 'NONE', ( #90, #89, #61, #321 ) ) ;
#117 = DIRECTION ( 'NONE',  ( 0.0000000000000000000, 1.000000000000000000, 0.0000000000000000000 ) ) ;
#118 = CARTESIAN_POINT ( 'NONE',  ( 8.817456953860943597E-18, 0.0000000000000000000, 0.07199999999999999456 ) ) ;
#119 = EDGE_CURVE ( 'NONE', #156, #282, #154, .T. ) ;
#120 = CARTESIAN_POINT ( 'NONE',  ( 1.468106582817847438E-18, 0.0000000000000000000, 0.01198800000000000039 ) ) ;
#121 = AXIS2_PLACEMENT_3D ( 'NONE', #120, #226, #96 ) ;
#122 = AXIS2_PLACEMENT_3D ( 'NONE', #201, #304, #26 ) ;
#123 = CYLINDRICAL_SURFACE ( 'NONE', #270, 0.01198799999999999866 ) ;
#124 = FACE_OUTER_BOUND ( 'NONE', #159, .T. ) ;
#125 = CARTESIAN_POINT ( 'NONE',  ( 1.468106582817847438E-18, 0.0000000000000000000, 0.01198800000000000039 ) ) ;
#126 = CIRCLE ( 'NONE', #65, 0.06250000000000002776 ) ;
#127 = LINE ( 'NONE', #76, #262 ) ;
#128 = ORIENTED_EDGE ( 'NONE', *, *, #78, .F. ) ;
#129 = PRESENTATION_STYLE_ASSIGNMENT (( #158 ) ) ;
#130 = VERTEX_POINT ( 'NONE', #25 ) ;
#131 = DIRECTION ( 'NONE',  ( -1.224646799147353454E-16, -0.0000000000000000000, -1.000000000000000000 ) ) ;
#132 = EDGE_CURVE ( 'NONE', #130, #66, #248, .T. ) ;
#133 =( NAMED_UNIT ( * ) PLANE_ANGLE_UNIT ( ) SI_UNIT ( $, .RADIAN. ) );
#134 = ORIENTED_EDGE ( 'NONE', *, *, #315, .T. ) ;
#135 = EDGE_LOOP ( 'NONE', ( #31, #16, #17, #272 ) ) ;
#136 = UNCERTAINTY_MEASURE_WITH_UNIT (LENGTH_MEASURE( 1.000000000000000082E-05 ), #307, 'distance_accuracy_value', 'NONE');
#137 = ORIENTED_EDGE ( 'NONE', *, *, #315, .F. ) ;
#138 = AXIS2_PLACEMENT_3D ( 'NONE', #107, #287, #245 ) ;
#139 = CARTESIAN_POINT ( 'NONE',  ( 0.01198800000000000733, 0.0000000000000000000, 0.07199999999999999456 ) ) ;
#140 = VERTEX_POINT ( 'NONE', #303 ) ;
#141 = ADVANCED_FACE ( 'NONE', ( #124 ), #213, .T. ) ;
#142 = LINE ( 'NONE', #173, #192 ) ;
#143 = AXIS2_PLACEMENT_3D ( 'NONE', #125, #151, #75 ) ;
#144 = DIRECTION ( 'NONE',  ( -1.000000000000000000, 0.0000000000000000000, 1.224646799147353454E-16 ) ) ;
#145 = CYLINDRICAL_SURFACE ( 'NONE', #122, 0.06250000000000002776 ) ;
#146 = ADVANCED_FACE ( 'NONE', ( #147 ), #220, .T. ) ;
#147 = FACE_OUTER_BOUND ( 'NONE', #258, .T. ) ;
#148 = AXIS2_PLACEMENT_3D ( 'NONE', #88, #247, #165 ) ;
#149 = AXIS2_PLACEMENT_3D ( 'NONE', #81, #52, #32 ) ;
#150 = CARTESIAN_POINT ( 'NONE',  ( -0.01198799999999998998, 1.468106582817846860E-18, 0.07199999999999999456 ) ) ;
#151 = DIRECTION ( 'NONE',  ( 0.0000000000000000000, 1.000000000000000000, 0.0000000000000000000 ) ) ;
#152 = ORIENTED_EDGE ( 'NONE', *, *, #157, .F. ) ;
#153 = ORIENTED_EDGE ( 'NONE', *, *, #114, .F. ) ;
#154 = CIRCLE ( 'NONE', #80, 0.01198799999999999866 ) ;
#155 = CYLINDRICAL_SURFACE ( 'NONE', #185, 0.01198799999999999866 ) ;
#156 = VERTEX_POINT ( 'NONE', #46 ) ;
#157 = EDGE_CURVE ( 'NONE', #108, #210, #319, .T. ) ;
#158 = SURFACE_STYLE_USAGE ( .BOTH. , #179 ) ;
#159 = EDGE_LOOP ( 'NONE', ( #193, #111, #137, #236 ) ) ;
#160 = AXIS2_PLACEMENT_3D ( 'NONE', #219, #195, #36 ) ;
#161 = FILL_AREA_STYLE_COLOUR ( '', #105 ) ;
#162 = LINE ( 'NONE', #41, #324 ) ;
#163 = EDGE_CURVE ( 'NONE', #156, #66, #142, .T. ) ;
#164 = ORIENTED_EDGE ( 'NONE', *, *, #98, .T. ) ;
#165 = DIRECTION ( 'NONE',  ( -1.000000000000000000, 0.0000000000000000000, 1.780327198073244800E-16 ) ) ;
#166 = EDGE_CURVE ( 'NONE', #282, #108, #175, .T. ) ;
#167 = VECTOR ( 'NONE', #246, 39.37007874015748143 ) ;
#168 = ORIENTED_EDGE ( 'NONE', *, *, #114, .T. ) ;
#169 = EDGE_LOOP ( 'NONE', ( #164, #19 ) ) ;
#170 = CARTESIAN_POINT ( 'NONE',  ( 0.06250000000000006939, 7.654042494670963708E-18, 0.3584677872725283154 ) ) ;
#171 = CARTESIAN_POINT ( 'NONE',  ( 8.817456953860943597E-18, 0.0000000000000000000, 0.07199999999999999456 ) ) ;
#172 = CIRCLE ( 'NONE', #181, 0.04750000000000064587 ) ;
#173 = CARTESIAN_POINT ( 'NONE',  ( 0.01198799999999999866, 1.468106582817846860E-18, -1.468106582817847053E-18 ) ) ;
#174 = FACE_OUTER_BOUND ( 'NONE', #92, .T. ) ;
#175 = LINE ( 'NONE', #150, #314 ) ;
#176 = COLOUR_RGB ( '',0.7921568627450980005, 0.8196078431372548767, 0.9333333333333333481 ) ;
#177 = PRESENTATION_LAYER_ASSIGNMENT (  '', '', ( #45 ) ) ;
#178 = DIRECTION ( 'NONE',  ( -0.0000000000000000000, -0.0000000000000000000, -1.000000000000000000 ) ) ;
#179 = SURFACE_SIDE_STYLE ('',( #311 ) ) ;
#180 = FILL_AREA_STYLE ('',( #231 ) ) ;
#181 = AXIS2_PLACEMENT_3D ( 'NONE', #305, #6, #73 ) ;
#182 = DIRECTION ( 'NONE',  ( -1.224646799147353454E-16, -0.0000000000000000000, -1.000000000000000000 ) ) ;
#183 = EDGE_LOOP ( 'NONE', ( #115, #292, #39, #128 ) ) ;
#184 =( NAMED_UNIT ( * ) PLANE_ANGLE_UNIT ( ) SI_UNIT ( $, .RADIAN. ) );
#185 = AXIS2_PLACEMENT_3D ( 'NONE', #266, #182, #101 ) ;
#186 = ADVANCED_FACE ( 'NONE', ( #273 ), #229, .T. ) ;
#187 = SHAPE_DEFINITION_REPRESENTATION ( #3, #297 ) ;
#188 = ORIENTED_EDGE ( 'NONE', *, *, #299, .F. ) ;
#189 = ORIENTED_EDGE ( 'NONE', *, *, #2, .T. ) ;
#190 = VERTEX_POINT ( 'NONE', #97 ) ;
#191 = EDGE_CURVE ( 'NONE', #269, #58, #172, .T. ) ;
#192 = VECTOR ( 'NONE', #249, 39.37007874015748143 ) ;
#193 = ORIENTED_EDGE ( 'NONE', *, *, #191, .F. ) ;
#194 = ADVANCED_FACE ( 'NONE', ( #250 ), #40, .T. ) ;
#195 = DIRECTION ( 'NONE',  ( 0.0000000000000000000, 0.0000000000000000000, 1.000000000000000000 ) ) ;
#196 = UNCERTAINTY_MEASURE_WITH_UNIT (LENGTH_MEASURE( 1.000000000000000082E-05 ), #56, 'distance_accuracy_value', 'NONE');
#197 = DIRECTION ( 'NONE',  ( 1.224646799147353207E-16, 1.000000000000000000, -0.0000000000000000000 ) ) ;
#198 = EDGE_CURVE ( 'NONE', #58, #140, #8, .T. ) ;
#199 = DIRECTION ( 'NONE',  ( -1.224646799147353454E-16, -0.0000000000000000000, -1.000000000000000000 ) ) ;
#200 = AXIS2_PLACEMENT_3D ( 'NONE', #77, #257, #233 ) ;
#201 = CARTESIAN_POINT ( 'NONE',  ( 0.0000000000000000000, 0.0000000000000000000, 1.500000000000000222 ) ) ;
#202 = DIRECTION ( 'NONE',  ( 1.224646799147353454E-16, 0.0000000000000000000, 1.000000000000000000 ) ) ;
#203 =( LENGTH_UNIT ( ) NAMED_UNIT ( * ) SI_UNIT ( $, .METRE. ) );
#204 = APPLICATION_CONTEXT ( 'automotive_design' ) ;
#205 = SPHERICAL_SURFACE ( 'NONE', #143, 0.01198800000000000039 ) ;
#206 =( NAMED_UNIT ( * ) SI_UNIT ( $, .STERADIAN. ) SOLID_ANGLE_UNIT ( ) );
#207 = FACE_OUTER_BOUND ( 'NONE', #288, .T. ) ;
#208 = ADVANCED_FACE ( 'NONE', ( #99 ), #123, .T. ) ;
#209 = CYLINDRICAL_SURFACE ( 'NONE', #29, 0.06250000000000002776 ) ;
#210 = VERTEX_POINT ( 'NONE', #170 ) ;
#211 = SURFACE_STYLE_FILL_AREA ( #87 ) ;
#212 = FACE_OUTER_BOUND ( 'NONE', #169, .T. ) ;
#213 = CONICAL_SURFACE ( 'NONE', #253, 0.04750000000000064587, 0.7853981633974466137 ) ;
#214 = ORIENTED_EDGE ( 'NONE', *, *, #18, .T. ) ;
#215 = UNCERTAINTY_MEASURE_WITH_UNIT (LENGTH_MEASURE( 1.000000000000000082E-05 ), #316, 'distance_accuracy_value', 'NONE');
#216 = LINE ( 'NONE', #139, #167 ) ;
#217 = SURFACE_STYLE_USAGE ( .BOTH. , #38 ) ;
#218 = EDGE_CURVE ( 'NONE', #282, #156, #100, .T. ) ;
#219 = CARTESIAN_POINT ( 'NONE',  ( 0.0000000000000000000, 0.0000000000000000000, 1.500000000000000222 ) ) ;
#220 = CONICAL_SURFACE ( 'NONE', #74, 0.01198799999999999866, 0.1745329251994338915 ) ;
#221 = ORIENTED_EDGE ( 'NONE', *, *, #42, .F. ) ;
#222 = DIRECTION ( 'NONE',  ( 1.224646799147353454E-16, 0.0000000000000000000, 1.000000000000000000 ) ) ;
#223 = ADVANCED_FACE ( 'NONE', ( #47 ), #145, .T. ) ;
#224 = CARTESIAN_POINT ( 'NONE',  ( 0.0000000000000000000, 0.0000000000000000000, 0.0000000000000000000 ) ) ;
#225 = EDGE_CURVE ( 'NONE', #312, #66, #227, .T. ) ;
#226 = DIRECTION ( 'NONE',  ( 1.224646799147353454E-16, 0.0000000000000000000, 1.000000000000000000 ) ) ;
#227 = CIRCLE ( 'NONE', #121, 0.01198799999999999866 ) ;
#228 = CARTESIAN_POINT ( 'NONE',  ( 4.389964282807362285E-17, 0.0000000000000000000, 0.3584677872725283154 ) ) ;
#229 = SPHERICAL_SURFACE ( 'NONE', #275, 0.01198800000000000039 ) ;
#230 = PRODUCT_DEFINITION ( 'UNKNOWN', '', #23, #241 ) ;
#231 = FILL_AREA_STYLE_COLOUR ( '', #176 ) ;
#232 = CIRCLE ( 'NONE', #69, 0.06250000000000002776 ) ;
#233 = DIRECTION ( 'NONE',  ( -1.000000000000000000, 0.0000000000000000000, 0.0000000000000000000 ) ) ;
#234 = ADVANCED_FACE ( 'NONE', ( #174 ), #205, .T. ) ;
#235 = CARTESIAN_POINT ( 'NONE',  ( -0.01198799999999999692, 0.0000000000000000000, 0.01198800000000000386 ) ) ;
#236 = ORIENTED_EDGE ( 'NONE', *, *, #198, .F. ) ;
#237 = PRESENTATION_LAYER_ASSIGNMENT (  '', '', ( #9 ) ) ;
#238 = FACE_OUTER_BOUND ( 'NONE', #135, .T. ) ;
#239 =( LENGTH_UNIT ( ) NAMED_UNIT ( * ) SI_UNIT ( $, .METRE. ) );
#240 = DIRECTION ( 'NONE',  ( 0.0000000000000000000, 0.0000000000000000000, 1.000000000000000000 ) ) ;
#241 = PRODUCT_DEFINITION_CONTEXT ( 'detailed design', #204, 'design' ) ;
#242 =( NAMED_UNIT ( * ) SI_UNIT ( $, .STERADIAN. ) SOLID_ANGLE_UNIT ( ) );
#243 = ORIENTED_EDGE ( 'NONE', *, *, #18, .F. ) ;
#244 = CARTESIAN_POINT ( 'NONE',  ( 0.04750000000000064587, 5.817072295950006528E-18, 1.500000000000000222 ) ) ;
#245 = DIRECTION ( 'NONE',  ( 1.000000000000000000, 0.0000000000000000000, 0.0000000000000000000 ) ) ;
#246 = DIRECTION ( 'NONE',  ( 0.1736481776669313859, 0.0000000000000000000, 0.9848077530122077983 ) ) ;
#247 = DIRECTION ( 'NONE',  ( 1.224646799147353454E-16, 0.0000000000000000000, 1.000000000000000000 ) ) ;
#248 = CIRCLE ( 'NONE', #95, 0.01198800000000000039 ) ;
#249 = DIRECTION ( 'NONE',  ( -1.224646799147353454E-16, -0.0000000000000000000, -1.000000000000000000 ) ) ;
#250 = FACE_OUTER_BOUND ( 'NONE', #183, .T. ) ;
#251 = DIRECTION ( 'NONE',  ( 0.0000000000000000000, -1.000000000000000000, 0.0000000000000000000 ) ) ;
#252 = ADVANCED_FACE ( 'NONE', ( #207 ), #296, .T. ) ;
#253 = AXIS2_PLACEMENT_3D ( 'NONE', #70, #71, #276 ) ;
#254 = DIRECTION ( 'NONE',  ( -1.224646799147353454E-16, -0.0000000000000000000, -1.000000000000000000 ) ) ;
#255 = EDGE_CURVE ( 'NONE', #282, #312, #259, .T. ) ;
#256 = DIRECTION ( 'NONE',  ( -0.1736481776669311916, 2.126576849575783316E-17, 0.9848077530122080203 ) ) ;
#257 = DIRECTION ( 'NONE',  ( 0.0000000000000000000, 0.0000000000000000000, -1.000000000000000000 ) ) ;
#258 = EDGE_LOOP ( 'NONE', ( #103, #64, #265, #43 ) ) ;
#259 = LINE ( 'NONE', #30, #302 ) ;
#260 = MANIFOLD_SOLID_BREP ( 'Fillet1', #109 ) ;
#261 = ORIENTED_EDGE ( 'NONE', *, *, #98, .F. ) ;
#262 = VECTOR ( 'NONE', #281, 39.37007874015748143 ) ;
#263 = ADVANCED_FACE ( 'NONE', ( #238 ), #155, .T. ) ;
#264 =( LENGTH_UNIT ( ) NAMED_UNIT ( * ) SI_UNIT ( $, .METRE. ) );
#265 = ORIENTED_EDGE ( 'NONE', *, *, #78, .T. ) ;
#266 = CARTESIAN_POINT ( 'NONE',  ( 0.0000000000000000000, 0.0000000000000000000, 0.0000000000000000000 ) ) ;
#267 = PLANE ( 'NONE',  #110 ) ;
#268 = ORIENTED_EDGE ( 'NONE', *, *, #2, .F. ) ;
#269 = VERTEX_POINT ( 'NONE', #33 ) ;
#270 = AXIS2_PLACEMENT_3D ( 'NONE', #224, #199, #144 ) ;
#271 = DIRECTION ( 'NONE',  ( 1.000000000000000000, 0.0000000000000000000, -0.0000000000000000000 ) ) ;
#272 = ORIENTED_EDGE ( 'NONE', *, *, #255, .F. ) ;
#273 = FACE_OUTER_BOUND ( 'NONE', #12, .T. ) ;
#274 = PRODUCT ( 'Micro_BMR-024-2X', 'Micro_BMR-024-2X', '', ( #35 ) ) ;
#275 = AXIS2_PLACEMENT_3D ( 'NONE', #44, #117, #94 ) ;
#276 = DIRECTION ( 'NONE',  ( -1.000000000000000000, 0.0000000000000000000, 0.0000000000000000000 ) ) ;
#277 = DIRECTION ( 'NONE',  ( -1.000000000000000000, 0.0000000000000000000, 0.0000000000000000000 ) ) ;
#278 = ADVANCED_FACE ( 'NONE', ( #285 ), #209, .T. ) ;
#279 = CARTESIAN_POINT ( 'NONE',  ( 8.817456953860943597E-18, 0.0000000000000000000, 0.07199999999999999456 ) ) ;
#280 = DIRECTION ( 'NONE',  ( -1.000000000000000000, 0.0000000000000000000, 0.0000000000000000000 ) ) ;
#281 = DIRECTION ( 'NONE',  ( -0.0000000000000000000, -0.0000000000000000000, -1.000000000000000000 ) ) ;
#282 = VERTEX_POINT ( 'NONE', #313 ) ;
#283 = EDGE_LOOP ( 'NONE', ( #134, #189, #152, #62 ) ) ;
#284 = CIRCLE ( 'NONE', #160, 0.04750000000000064587 ) ;
#285 = FACE_OUTER_BOUND ( 'NONE', #283, .T. ) ;
#286 = EDGE_LOOP ( 'NONE', ( #268, #214, #55, #188 ) ) ;
#287 = DIRECTION ( 'NONE',  ( 0.0000000000000000000, 0.0000000000000000000, 1.000000000000000000 ) ) ;
#288 = EDGE_LOOP ( 'NONE', ( #221, #261, #295, #243 ) ) ;
#289 = VECTOR ( 'NONE', #67, 39.37007874015748854 ) ;
#290 = DIMENSIONAL_EXPONENTS ( 1.000000000000000000, 0.0000000000000000000, 0.0000000000000000000, 0.0000000000000000000, 0.0000000000000000000, 0.0000000000000000000, 0.0000000000000000000 ) ;
#291 = LENGTH_MEASURE_WITH_UNIT ( LENGTH_MEASURE( 0.02539999999999999897 ), #239 );
#292 = ORIENTED_EDGE ( 'NONE', *, *, #166, .T. ) ;
#293 = PRESENTATION_STYLE_ASSIGNMENT (( #217 ) ) ;
#294 = LINE ( 'NONE', #244, #60 ) ;
#295 = ORIENTED_EDGE ( 'NONE', *, *, #198, .T. ) ;
#296 = CONICAL_SURFACE ( 'NONE', #200, 0.04750000000000064587, 0.7853981633974466137 ) ;
#297 = ADVANCED_BREP_SHAPE_REPRESENTATION ( 'Micro_BMR-024-2X', ( #260, #138 ), #308 ) ;
#298 = ORIENTED_EDGE ( 'NONE', *, *, #132, .F. ) ;
#299 = EDGE_CURVE ( 'NONE', #210, #108, #232, .T. ) ;
#300 = DIRECTION ( 'NONE',  ( 0.0000000000000000000, 0.0000000000000000000, -1.000000000000000000 ) ) ;
#301 = DIRECTION ( 'NONE',  ( -1.224646799147353454E-16, -0.0000000000000000000, -1.000000000000000000 ) ) ;
#302 = VECTOR ( 'NONE', #131, 39.37007874015748143 ) ;
#303 = CARTESIAN_POINT ( 'NONE',  ( -0.06250000000000002776, 0.0000000000000000000, 1.485000000000000764 ) ) ;
#304 = DIRECTION ( 'NONE',  ( -0.0000000000000000000, -0.0000000000000000000, -1.000000000000000000 ) ) ;
#305 = CARTESIAN_POINT ( 'NONE',  ( 0.0000000000000000000, 0.0000000000000000000, 1.500000000000000222 ) ) ;
#306 =( GEOMETRIC_REPRESENTATION_CONTEXT ( 3 ) GLOBAL_UNCERTAINTY_ASSIGNED_CONTEXT ( ( #136 ) ) GLOBAL_UNIT_ASSIGNED_CONTEXT ( ( #307, #57, #206 ) ) REPRESENTATION_CONTEXT ( 'NONE', 'WORKASPACE' ) );
#307 =( CONVERSION_BASED_UNIT ( 'INCH', #82 ) LENGTH_UNIT ( ) NAMED_UNIT ( #290 ) );
#308 =( GEOMETRIC_REPRESENTATION_CONTEXT ( 3 ) GLOBAL_UNCERTAINTY_ASSIGNED_CONTEXT ( ( #196 ) ) GLOBAL_UNIT_ASSIGNED_CONTEXT ( ( #56, #133, #242 ) ) REPRESENTATION_CONTEXT ( 'NONE', 'WORKASPACE' ) );
#309 = EDGE_CURVE ( 'NONE', #140, #108, #127, .T. ) ;
#310 = DIRECTION ( 'NONE',  ( -1.224646799147353454E-16, -0.0000000000000000000, -1.000000000000000000 ) ) ;
#311 = SURFACE_STYLE_FILL_AREA ( #180 ) ;
#312 = VERTEX_POINT ( 'NONE', #235 ) ;
#313 = CARTESIAN_POINT ( 'NONE',  ( -0.01198799999999998998, 4.561074538744403069E-18, 0.07199999999999999456 ) ) ;
#314 = VECTOR ( 'NONE', #256, 39.37007874015747433 ) ;
#315 = EDGE_CURVE ( 'NONE', #140, #190, #325, .T. ) ;
#316 =( CONVERSION_BASED_UNIT ( 'INCH', #291 ) LENGTH_UNIT ( ) NAMED_UNIT ( #317 ) );
#317 = DIMENSIONAL_EXPONENTS ( 1.000000000000000000, 0.0000000000000000000, 0.0000000000000000000, 0.0000000000000000000, 0.0000000000000000000, 0.0000000000000000000, 0.0000000000000000000 ) ;
#318 = CARTESIAN_POINT ( 'NONE',  ( -0.06249999999999997918, 0.0000000000000000000, 0.3584677872725283154 ) ) ;
#319 = CIRCLE ( 'NONE', #104, 0.06250000000000002776 ) ;
#320 =( NAMED_UNIT ( * ) SI_UNIT ( $, .STERADIAN. ) SOLID_ANGLE_UNIT ( ) );
#321 = ORIENTED_EDGE ( 'NONE', *, *, #225, .T. ) ;
#322 = DIRECTION ( 'NONE',  ( 0.7071067811865462405, 8.659560562354916834E-17, -0.7071067811865486830 ) ) ;
#323 = CARTESIAN_POINT ( 'NONE',  ( 0.0000000000000000000, 0.0000000000000000000, 1.485000000000000764 ) ) ;
#324 = VECTOR ( 'NONE', #37, 39.37007874015748143 ) ;
#325 = CIRCLE ( 'NONE', #149, 0.06250000000000002776 ) ;
ENDSEC;
END-ISO-10303-21;
