ISO-10303-21;
HEADER;
FILE_DESCRIPTION (( 'STEP AP214' ),
    '1' );
FILE_NAME ('Micro_GEMM-050-2.STEP',
    '2021-09-01T21:35:43',
    ( '' ),
    ( '' ),
    'SwSTEP 2.0',
    'SolidWorks 2020',
    '' );
FILE_SCHEMA (( 'AUTOMOTIVE_DESIGN' ));
ENDSEC;

DATA;
#1 =( NAMED_UNIT ( * ) PLANE_ANGLE_UNIT ( ) SI_UNIT ( $, .RADIAN. ) );
#2 = PRODUCT_DEFINITION_SHAPE ( 'NONE', 'NONE',  #16 ) ;
#3 = DIRECTION ( 'NONE',  ( -1.224646799147353207E-16, -0.0000000000000000000, -1.000000000000000000 ) ) ;
#4 = COLOUR_RGB ( '',0.7921568627450980005, 0.8196078431372548767, 0.9333333333333333481 ) ;
#5 = AXIS2_PLACEMENT_3D ( 'NONE', #291, #32, #164 ) ;
#6 = FILL_AREA_STYLE_COLOUR ( '', #4 ) ;
#7 = ORIENTED_EDGE ( 'NONE', *, *, #254, .T. ) ;
#8 = FACE_OUTER_BOUND ( 'NONE', #146, .T. ) ;
#9 =( LENGTH_UNIT ( ) NAMED_UNIT ( * ) SI_UNIT ( $, .METRE. ) );
#10 = DIRECTION ( 'NONE',  ( 1.000000000000000000, 0.0000000000000000000, 0.0000000000000000000 ) ) ;
#11 = CONICAL_SURFACE ( 'NONE', #19, 0.09832657499999998552, 0.1745329251994338915 ) ;
#12 = STYLED_ITEM ( 'NONE', ( #258 ), #268 ) ;
#13 = DIRECTION ( 'NONE',  ( -1.000000000000000000, 0.0000000000000000000, 1.224646799147353207E-16 ) ) ;
#14 = CARTESIAN_POINT ( 'NONE',  ( -0.1181099999999999373, 0.0000000000000000000, 0.5058983785322699323 ) ) ;
#15 = FACE_OUTER_BOUND ( 'NONE', #41, .T. ) ;
#16 = PRODUCT_DEFINITION ( 'UNKNOWN', '', #23, #98 ) ;
#17 = CARTESIAN_POINT ( 'NONE',  ( -0.1031100000000002570, 0.0000000000000000000, 2.244094000000000033 ) ) ;
#18 = VERTEX_POINT ( 'NONE', #106 ) ;
#19 = AXIS2_PLACEMENT_3D ( 'NONE', #202, #203, #186 ) ;
#20 = SURFACE_STYLE_FILL_AREA ( #72 ) ;
#21 = MANIFOLD_SOLID_BREP ( 'Cut-Revolve1', #142 ) ;
#22 = VECTOR ( 'NONE', #116, 39.37007874015748143 ) ;
#23 = PRODUCT_DEFINITION_FORMATION_WITH_SPECIFIED_SOURCE ( 'ANY', '', #47, .NOT_KNOWN. ) ;
#24 = EDGE_LOOP ( 'NONE', ( #185, #126, #144, #103 ) ) ;
#25 = ORIENTED_EDGE ( 'NONE', *, *, #158, .F. ) ;
#26 = AXIS2_PLACEMENT_3D ( 'NONE', #294, #192, #65 ) ;
#27 = SURFACE_STYLE_USAGE ( .BOTH. , #226 ) ;
#28 = ADVANCED_FACE ( 'NONE', ( #80 ), #11, .T. ) ;
#29 = PLANE ( 'NONE',  #112 ) ;
#30 = UNCERTAINTY_MEASURE_WITH_UNIT (LENGTH_MEASURE( 1.000000000000000082E-05 ), #243, 'distance_accuracy_value', 'NONE');
#31 = FACE_OUTER_BOUND ( 'NONE', #155, .T. ) ;
#32 = DIRECTION ( 'NONE',  ( -1.224646799147353207E-16, -0.0000000000000000000, -1.000000000000000000 ) ) ;
#33 = DIRECTION ( 'NONE',  ( -1.224646799147353207E-16, -0.0000000000000000000, -1.000000000000000000 ) ) ;
#34 = LINE ( 'NONE', #249, #184 ) ;
#35 = CONICAL_SURFACE ( 'NONE', #160, 0.1031100000000002570, 0.7853981633974318477 ) ;
#36 = CARTESIAN_POINT ( 'NONE',  ( 4.821446694711121291E-17, 0.0000000000000000000, 0.3937009999999999676 ) ) ;
#37 = EDGE_CURVE ( 'NONE', #18, #102, #235, .T. ) ;
#38 = VERTEX_POINT ( 'NONE', #82 ) ;
#39 = CIRCLE ( 'NONE', #193, 0.09832657499999998552 ) ;
#40 = APPLICATION_CONTEXT ( 'automotive_design' ) ;
#41 = EDGE_LOOP ( 'NONE', ( #178, #130, #220, #198 ) ) ;
#42 =( LENGTH_UNIT ( ) NAMED_UNIT ( * ) SI_UNIT ( $, .METRE. ) );
#43 = ORIENTED_EDGE ( 'NONE', *, *, #44, .T. ) ;
#44 = EDGE_CURVE ( 'NONE', #68, #153, #253, .T. ) ;
#45 = SURFACE_SIDE_STYLE ('',( #20 ) ) ;
#46 = AXIS2_PLACEMENT_3D ( 'NONE', #173, #120, #194 ) ;
#47 = PRODUCT ( 'Micro_GEMM-050-2', 'Micro_GEMM-050-2', '', ( #101 ) ) ;
#48 = ADVANCED_FACE ( 'NONE', ( #189 ), #115, .T. ) ;
#49 = ORIENTED_EDGE ( 'NONE', *, *, #54, .F. ) ;
#50 =( NAMED_UNIT ( * ) PLANE_ANGLE_UNIT ( ) SI_UNIT ( $, .RADIAN. ) );
#51 = AXIS2_PLACEMENT_3D ( 'NONE', #111, #274, #13 ) ;
#52 = PRESENTATION_LAYER_ASSIGNMENT (  '', '', ( #12 ) ) ;
#53 = VERTEX_POINT ( 'NONE', #14 ) ;
#54 = EDGE_CURVE ( 'NONE', #102, #239, #87, .T. ) ;
#55 = DIRECTION ( 'NONE',  ( 0.0000000000000000000, 0.0000000000000000000, -1.000000000000000000 ) ) ;
#56 = DIRECTION ( 'NONE',  ( 1.000000000000000000, 0.0000000000000000000, 0.0000000000000000000 ) ) ;
#57 = LINE ( 'NONE', #84, #105 ) ;
#58 = CARTESIAN_POINT ( 'NONE',  ( 0.0000000000000000000, 0.0000000000000000000, 2.229093999999999465 ) ) ;
#59 = AXIS2_PLACEMENT_3D ( 'NONE', #134, #95, #70 ) ;
#60 = DIRECTION ( 'NONE',  ( 1.224646799147353207E-16, 0.0000000000000000000, 1.000000000000000000 ) ) ;
#61 = DIRECTION ( 'NONE',  ( -0.0000000000000000000, -0.0000000000000000000, -1.000000000000000000 ) ) ;
#62 = EDGE_CURVE ( 'NONE', #286, #38, #96, .T. ) ;
#63 = DIRECTION ( 'NONE',  ( 0.0000000000000000000, 0.0000000000000000000, 1.000000000000000000 ) ) ;
#64 = DIRECTION ( 'NONE',  ( 1.000000000000000000, 0.0000000000000000000, -0.0000000000000000000 ) ) ;
#65 = DIRECTION ( 'NONE',  ( 1.000000000000000000, 0.0000000000000000000, 0.0000000000000000000 ) ) ;
#66 = DIRECTION ( 'NONE',  ( -1.000000000000000000, 0.0000000000000000000, 0.0000000000000000000 ) ) ;
#67 = SHAPE_DEFINITION_REPRESENTATION ( #2, #268 ) ;
#68 = VERTEX_POINT ( 'NONE', #108 ) ;
#69 = VECTOR ( 'NONE', #214, 39.37007874015748143 ) ;
#70 = DIRECTION ( 'NONE',  ( 1.000000000000000000, 0.0000000000000000000, 0.0000000000000000000 ) ) ;
#71 = EDGE_LOOP ( 'NONE', ( #201, #265, #241, #129 ) ) ;
#72 = FILL_AREA_STYLE ('',( #147 ) ) ;
#73 = EDGE_CURVE ( 'NONE', #38, #68, #34, .T. ) ;
#74 = EDGE_LOOP ( 'NONE', ( #228, #152, #25, #240 ) ) ;
#75 = AXIS2_PLACEMENT_3D ( 'NONE', #230, #63, #10 ) ;
#76 = ORIENTED_EDGE ( 'NONE', *, *, #114, .F. ) ;
#77 = ORIENTED_EDGE ( 'NONE', *, *, #109, .T. ) ;
#78 = ORIENTED_EDGE ( 'NONE', *, *, #149, .F. ) ;
#79 = MECHANICAL_DESIGN_GEOMETRIC_PRESENTATION_REPRESENTATION (  '', ( #252 ), #246 ) ;
#80 = FACE_OUTER_BOUND ( 'NONE', #180, .T. ) ;
#81 = FACE_OUTER_BOUND ( 'NONE', #281, .T. ) ;
#82 = CARTESIAN_POINT ( 'NONE',  ( 0.09832657500000004103, 0.0000000000000000000, 0.3937009999999999676 ) ) ;
#83 = DIRECTION ( 'NONE',  ( 1.000000000000000000, 0.0000000000000000000, -0.0000000000000000000 ) ) ;
#84 = CARTESIAN_POINT ( 'NONE',  ( -0.1031100000000002570, 0.0000000000000000000, 2.244094000000000033 ) ) ;
#85 = CONICAL_SURFACE ( 'NONE', #256, 0.1031100000000002570, 0.7853981633974318477 ) ;
#86 = DIRECTION ( 'NONE',  ( -1.224646799147353207E-16, -0.0000000000000000000, -1.000000000000000000 ) ) ;
#87 = LINE ( 'NONE', #165, #154 ) ;
#88 = DIRECTION ( 'NONE',  ( -1.000000000000000000, 0.0000000000000000000, 0.0000000000000000000 ) ) ;
#89 = PRODUCT_RELATED_PRODUCT_CATEGORY ( 'part', '', ( #47 ) ) ;
#90 = ORIENTED_EDGE ( 'NONE', *, *, #119, .T. ) ;
#91 = DIRECTION ( 'NONE',  ( -0.1736481776669311916, 2.126576849575783316E-17, 0.9848077530122080203 ) ) ;
#92 = ORIENTED_EDGE ( 'NONE', *, *, #149, .T. ) ;
#93 = DIRECTION ( 'NONE',  ( 0.0000000000000000000, 0.0000000000000000000, 1.000000000000000000 ) ) ;
#94 =( CONVERSION_BASED_UNIT ( 'INCH', #299 ) LENGTH_UNIT ( ) NAMED_UNIT ( #260 ) );
#95 = DIRECTION ( 'NONE',  ( 0.0000000000000000000, 0.0000000000000000000, 1.000000000000000000 ) ) ;
#96 = CIRCLE ( 'NONE', #287, 0.09832657499999998552 ) ;
#97 = ORIENTED_EDGE ( 'NONE', *, *, #295, .F. ) ;
#98 = PRODUCT_DEFINITION_CONTEXT ( 'detailed design', #40, 'design' ) ;
#99 = EDGE_CURVE ( 'NONE', #239, #53, #219, .T. ) ;
#100 = FILL_AREA_STYLE ('',( #6 ) ) ;
#101 = PRODUCT_CONTEXT ( 'NONE', #278, 'mechanical' ) ;
#102 = VERTEX_POINT ( 'NONE', #169 ) ;
#103 = ORIENTED_EDGE ( 'NONE', *, *, #44, .F. ) ;
#104 = VERTEX_POINT ( 'NONE', #17 ) ;
#105 = VECTOR ( 'NONE', #245, 39.37007874015748854 ) ;
#106 = CARTESIAN_POINT ( 'NONE',  ( -0.1181100000000000066, 0.0000000000000000000, 2.229093999999999465 ) ) ;
#107 = DIRECTION ( 'NONE',  ( 0.0000000000000000000, 0.0000000000000000000, 1.000000000000000000 ) ) ;
#108 = CARTESIAN_POINT ( 'NONE',  ( 0.09832657499999998552, 1.204153253448721512E-17, 0.0000000000000000000 ) ) ;
#109 = EDGE_CURVE ( 'NONE', #18, #53, #117, .T. ) ;
#110 = LINE ( 'NONE', #269, #277 ) ;
#111 = CARTESIAN_POINT ( 'NONE',  ( 0.0000000000000000000, 0.0000000000000000000, 0.0000000000000000000 ) ) ;
#112 = AXIS2_PLACEMENT_3D ( 'NONE', #131, #107, #83 ) ;
#113 = DIRECTION ( 'NONE',  ( -1.000000000000000000, 0.0000000000000000000, 0.0000000000000000000 ) ) ;
#114 = EDGE_CURVE ( 'NONE', #104, #18, #57, .T. ) ;
#115 = CYLINDRICAL_SURFACE ( 'NONE', #216, 0.1181100000000000066 ) ;
#116 = DIRECTION ( 'NONE',  ( 0.1736481776669313859, 0.0000000000000000000, 0.9848077530122077983 ) ) ;
#117 = LINE ( 'NONE', #159, #69 ) ;
#118 = AXIS2_PLACEMENT_3D ( 'NONE', #273, #270, #64 ) ;
#119 = EDGE_CURVE ( 'NONE', #262, #104, #137, .T. ) ;
#120 = DIRECTION ( 'NONE',  ( -1.224646799147353207E-16, -0.0000000000000000000, -1.000000000000000000 ) ) ;
#121 = CYLINDRICAL_SURFACE ( 'NONE', #46, 0.09832657499999998552 ) ;
#122 = EDGE_LOOP ( 'NONE', ( #49, #206, #77, #279 ) ) ;
#123 =( GEOMETRIC_REPRESENTATION_CONTEXT ( 3 ) GLOBAL_UNCERTAINTY_ASSIGNED_CONTEXT ( ( #176 ) ) GLOBAL_UNIT_ASSIGNED_CONTEXT ( ( #94, #280, #197 ) ) REPRESENTATION_CONTEXT ( 'NONE', 'WORKASPACE' ) );
#124 = ORIENTED_EDGE ( 'NONE', *, *, #298, .T. ) ;
#125 = DIMENSIONAL_EXPONENTS ( 1.000000000000000000, 0.0000000000000000000, 0.0000000000000000000, 0.0000000000000000000, 0.0000000000000000000, 0.0000000000000000000, 0.0000000000000000000 ) ;
#126 = ORIENTED_EDGE ( 'NONE', *, *, #275, .T. ) ;
#127 = CIRCLE ( 'NONE', #283, 0.09832657499999998552 ) ;
#128 = ADVANCED_FACE ( 'NONE', ( #8 ), #290, .F. ) ;
#129 = ORIENTED_EDGE ( 'NONE', *, *, #166, .F. ) ;
#130 = ORIENTED_EDGE ( 'NONE', *, *, #275, .F. ) ;
#131 = CARTESIAN_POINT ( 'NONE',  ( 0.0000000000000000000, 0.0000000000000000000, 2.244094000000000033 ) ) ;
#132 = CARTESIAN_POINT ( 'NONE',  ( 0.0000000000000000000, 0.0000000000000000000, 2.244094000000000033 ) ) ;
#133 = CYLINDRICAL_SURFACE ( 'NONE', #51, 0.09832657499999998552 ) ;
#134 = CARTESIAN_POINT ( 'NONE',  ( 0.0000000000000000000, 0.0000000000000000000, 2.244094000000000033 ) ) ;
#135 = CARTESIAN_POINT ( 'NONE',  ( 1.474662427518848307E-33, 0.0000000000000000000, 1.204153253448721512E-17 ) ) ;
#136 = CARTESIAN_POINT ( 'NONE',  ( 0.1181100000000000899, 1.446430334472940009E-17, 0.5058983785322699323 ) ) ;
#137 = CIRCLE ( 'NONE', #59, 0.1031100000000002570 ) ;
#138 = COLOUR_RGB ( '',0.7921568627450980005, 0.8196078431372548767, 0.9333333333333333481 ) ;
#139 = MECHANICAL_DESIGN_GEOMETRIC_PRESENTATION_REPRESENTATION (  '', ( #12 ), #266 ) ;
#140 = CARTESIAN_POINT ( 'NONE',  ( 0.0000000000000000000, 0.0000000000000000000, 2.244094000000000033 ) ) ;
#141 = CARTESIAN_POINT ( 'NONE',  ( 0.09832657500000004103, 0.0000000000000000000, 0.3937009999999999676 ) ) ;
#142 = CLOSED_SHELL ( 'NONE', ( #285, #28, #177, #223, #48, #271, #259, #172, #211, #128 ) ) ;
#143 = CIRCLE ( 'NONE', #5, 0.1181100000000000066 ) ;
#144 = ORIENTED_EDGE ( 'NONE', *, *, #236, .T. ) ;
#145 = LINE ( 'NONE', #171, #204 ) ;
#146 = EDGE_LOOP ( 'NONE', ( #196, #43 ) ) ;
#147 = FILL_AREA_STYLE_COLOUR ( '', #138 ) ;
#148 = ORIENTED_EDGE ( 'NONE', *, *, #37, .T. ) ;
#149 = EDGE_CURVE ( 'NONE', #53, #239, #143, .T. ) ;
#150 =( NAMED_UNIT ( * ) SI_UNIT ( $, .STERADIAN. ) SOLID_ANGLE_UNIT ( ) );
#151 =( NAMED_UNIT ( * ) SI_UNIT ( $, .STERADIAN. ) SOLID_ANGLE_UNIT ( ) );
#152 = ORIENTED_EDGE ( 'NONE', *, *, #73, .T. ) ;
#153 = VERTEX_POINT ( 'NONE', #167 ) ;
#154 = VECTOR ( 'NONE', #61, 39.37007874015748143 ) ;
#155 = EDGE_LOOP ( 'NONE', ( #148, #217, #78, #284 ) ) ;
#156 = DIRECTION ( 'NONE',  ( 1.000000000000000000, 0.0000000000000000000, 0.0000000000000000000 ) ) ;
#157 = CARTESIAN_POINT ( 'NONE',  ( 0.1031100000000002570, 1.262733314600838667E-17, 2.244094000000000033 ) ) ;
#158 = EDGE_CURVE ( 'NONE', #153, #68, #39, .T. ) ;
#159 = CARTESIAN_POINT ( 'NONE',  ( -0.1181100000000000066, 0.0000000000000000000, 2.244094000000000033 ) ) ;
#160 = AXIS2_PLACEMENT_3D ( 'NONE', #232, #247, #288 ) ;
#161 = FACE_OUTER_BOUND ( 'NONE', #24, .T. ) ;
#162 = DIRECTION ( 'NONE',  ( -1.000000000000000000, 0.0000000000000000000, 0.0000000000000000000 ) ) ;
#163 = DIRECTION ( 'NONE',  ( -1.224646799147353207E-16, -0.0000000000000000000, -1.000000000000000000 ) ) ;
#164 = DIRECTION ( 'NONE',  ( 1.000000000000000000, 0.0000000000000000000, 0.0000000000000000000 ) ) ;
#165 = CARTESIAN_POINT ( 'NONE',  ( 0.1181100000000000066, 1.446430334472939084E-17, 2.244094000000000033 ) ) ;
#166 = EDGE_CURVE ( 'NONE', #102, #18, #242, .T. ) ;
#167 = CARTESIAN_POINT ( 'NONE',  ( -0.09832657499999998552, 0.0000000000000000000, 2.408306506897443024E-17 ) ) ;
#168 = AXIS2_PLACEMENT_3D ( 'NONE', #36, #60, #56 ) ;
#169 = CARTESIAN_POINT ( 'NONE',  ( 0.1181100000000000066, 1.446430334472939084E-17, 2.229093999999999465 ) ) ;
#170 = CARTESIAN_POINT ( 'NONE',  ( -0.09832657499999994388, 1.325291793960830375E-17, 0.3937009999999999676 ) ) ;
#171 = CARTESIAN_POINT ( 'NONE',  ( -0.09832657499999994388, 1.204153253448721512E-17, 0.3937009999999999676 ) ) ;
#172 = ADVANCED_FACE ( 'NONE', ( #15 ), #195, .T. ) ;
#173 = CARTESIAN_POINT ( 'NONE',  ( 0.0000000000000000000, 0.0000000000000000000, 0.0000000000000000000 ) ) ;
#174 = AXIS2_PLACEMENT_3D ( 'NONE', #267, #55, #156 ) ;
#175 = CARTESIAN_POINT ( 'NONE',  ( 0.0000000000000000000, 0.0000000000000000000, 0.0000000000000000000 ) ) ;
#176 = UNCERTAINTY_MEASURE_WITH_UNIT (LENGTH_MEASURE( 1.000000000000000082E-05 ), #94, 'distance_accuracy_value', 'NONE');
#177 = ADVANCED_FACE ( 'NONE', ( #190 ), #35, .T. ) ;
#178 = ORIENTED_EDGE ( 'NONE', *, *, #298, .F. ) ;
#179 = DIRECTION ( 'NONE',  ( 1.000000000000000000, 0.0000000000000000000, 0.0000000000000000000 ) ) ;
#180 = EDGE_LOOP ( 'NONE', ( #263, #124, #92, #97 ) ) ;
#181 = ORIENTED_EDGE ( 'NONE', *, *, #231, .T. ) ;
#182 = DIMENSIONAL_EXPONENTS ( 1.000000000000000000, 0.0000000000000000000, 0.0000000000000000000, 0.0000000000000000000, 0.0000000000000000000, 0.0000000000000000000, 0.0000000000000000000 ) ;
#183 = ORIENTED_EDGE ( 'NONE', *, *, #119, .F. ) ;
#184 = VECTOR ( 'NONE', #213, 39.37007874015748143 ) ;
#185 = ORIENTED_EDGE ( 'NONE', *, *, #73, .F. ) ;
#186 = DIRECTION ( 'NONE',  ( 1.000000000000000000, 0.0000000000000000000, 0.0000000000000000000 ) ) ;
#187 = DIRECTION ( 'NONE',  ( -1.224646799147353207E-16, -0.0000000000000000000, -1.000000000000000000 ) ) ;
#188 = AXIS2_PLACEMENT_3D ( 'NONE', #222, #3, #276 ) ;
#189 = FACE_OUTER_BOUND ( 'NONE', #122, .T. ) ;
#190 = FACE_OUTER_BOUND ( 'NONE', #200, .T. ) ;
#191 = CARTESIAN_POINT ( 'NONE',  ( 0.1031100000000002570, 1.354581824536888722E-17, 2.244094000000000033 ) ) ;
#192 = DIRECTION ( 'NONE',  ( -1.224646799147353207E-16, -0.0000000000000000000, -1.000000000000000000 ) ) ;
#193 = AXIS2_PLACEMENT_3D ( 'NONE', #135, #86, #255 ) ;
#194 = DIRECTION ( 'NONE',  ( -1.000000000000000000, 0.0000000000000000000, 1.224646799147353207E-16 ) ) ;
#195 = CONICAL_SURFACE ( 'NONE', #168, 0.09832657499999998552, 0.1745329251994338915 ) ;
#196 = ORIENTED_EDGE ( 'NONE', *, *, #158, .T. ) ;
#197 =( NAMED_UNIT ( * ) SI_UNIT ( $, .STERADIAN. ) SOLID_ANGLE_UNIT ( ) );
#198 = ORIENTED_EDGE ( 'NONE', *, *, #99, .T. ) ;
#199 = LENGTH_MEASURE_WITH_UNIT ( LENGTH_MEASURE( 0.02539999999999999897 ), #221 );
#200 = EDGE_LOOP ( 'NONE', ( #183, #7, #233, #76 ) ) ;
#201 = ORIENTED_EDGE ( 'NONE', *, *, #254, .F. ) ;
#202 = CARTESIAN_POINT ( 'NONE',  ( 4.821446694711121291E-17, 0.0000000000000000000, 0.3937009999999999676 ) ) ;
#203 = DIRECTION ( 'NONE',  ( 1.224646799147353207E-16, 0.0000000000000000000, 1.000000000000000000 ) ) ;
#204 = VECTOR ( 'NONE', #91, 39.37007874015747433 ) ;
#205 = DIRECTION ( 'NONE',  ( 0.0000000000000000000, 0.0000000000000000000, -1.000000000000000000 ) ) ;
#206 = ORIENTED_EDGE ( 'NONE', *, *, #166, .T. ) ;
#207 = DIRECTION ( 'NONE',  ( 0.0000000000000000000, 0.0000000000000000000, -1.000000000000000000 ) ) ;
#208 = CARTESIAN_POINT ( 'NONE',  ( 4.821446694711121291E-17, 0.0000000000000000000, 0.3937009999999999676 ) ) ;
#209 = DIRECTION ( 'NONE',  ( -1.000000000000000000, 0.0000000000000000000, 0.0000000000000000000 ) ) ;
#210 = PRESENTATION_LAYER_ASSIGNMENT (  '', '', ( #252 ) ) ;
#211 = ADVANCED_FACE ( 'NONE', ( #161 ), #133, .T. ) ;
#212 = LINE ( 'NONE', #157, #297 ) ;
#213 = DIRECTION ( 'NONE',  ( -1.224646799147353207E-16, -0.0000000000000000000, -1.000000000000000000 ) ) ;
#214 = DIRECTION ( 'NONE',  ( -0.0000000000000000000, -0.0000000000000000000, -1.000000000000000000 ) ) ;
#215 = FACE_OUTER_BOUND ( 'NONE', #74, .T. ) ;
#216 = AXIS2_PLACEMENT_3D ( 'NONE', #132, #292, #209 ) ;
#217 = ORIENTED_EDGE ( 'NONE', *, *, #54, .T. ) ;
#218 = LINE ( 'NONE', #141, #22 ) ;
#219 = CIRCLE ( 'NONE', #26, 0.1181100000000000066 ) ;
#220 = ORIENTED_EDGE ( 'NONE', *, *, #295, .T. ) ;
#221 =( LENGTH_UNIT ( ) NAMED_UNIT ( * ) SI_UNIT ( $, .METRE. ) );
#222 = CARTESIAN_POINT ( 'NONE',  ( 1.474662427518848307E-33, 0.0000000000000000000, 1.204153253448721512E-17 ) ) ;
#223 = ADVANCED_FACE ( 'NONE', ( #31 ), #229, .T. ) ;
#224 = PRESENTATION_STYLE_ASSIGNMENT (( #27 ) ) ;
#225 = CIRCLE ( 'NONE', #75, 0.1031100000000002570 ) ;
#226 = SURFACE_SIDE_STYLE ('',( #227 ) ) ;
#227 = SURFACE_STYLE_FILL_AREA ( #100 ) ;
#228 = ORIENTED_EDGE ( 'NONE', *, *, #62, .T. ) ;
#229 = CYLINDRICAL_SURFACE ( 'NONE', #272, 0.1181100000000000066 ) ;
#230 = CARTESIAN_POINT ( 'NONE',  ( 0.0000000000000000000, 0.0000000000000000000, 2.244094000000000033 ) ) ;
#231 = EDGE_CURVE ( 'NONE', #104, #262, #225, .T. ) ;
#232 = CARTESIAN_POINT ( 'NONE',  ( 0.0000000000000000000, 0.0000000000000000000, 2.244094000000000033 ) ) ;
#233 = ORIENTED_EDGE ( 'NONE', *, *, #37, .F. ) ;
#234 = UNCERTAINTY_MEASURE_WITH_UNIT (LENGTH_MEASURE( 1.000000000000000082E-05 ), #257, 'distance_accuracy_value', 'NONE');
#235 = CIRCLE ( 'NONE', #174, 0.1181100000000000066 ) ;
#236 = EDGE_CURVE ( 'NONE', #286, #153, #110, .T. ) ;
#237 = SURFACE_STYLE_USAGE ( .BOTH. , #45 ) ;
#238 = AXIS2_PLACEMENT_3D ( 'NONE', #58, #207, #248 ) ;
#239 = VERTEX_POINT ( 'NONE', #136 ) ;
#240 = ORIENTED_EDGE ( 'NONE', *, *, #236, .F. ) ;
#241 = ORIENTED_EDGE ( 'NONE', *, *, #114, .T. ) ;
#242 = CIRCLE ( 'NONE', #238, 0.1181100000000000066 ) ;
#243 =( CONVERSION_BASED_UNIT ( 'INCH', #264 ) LENGTH_UNIT ( ) NAMED_UNIT ( #182 ) );
#244 = FACE_OUTER_BOUND ( 'NONE', #71, .T. ) ;
#245 = DIRECTION ( 'NONE',  ( -0.7071067811865358044, 0.0000000000000000000, -0.7071067811865590080 ) ) ;
#246 =( GEOMETRIC_REPRESENTATION_CONTEXT ( 3 ) GLOBAL_UNCERTAINTY_ASSIGNED_CONTEXT ( ( #30 ) ) GLOBAL_UNIT_ASSIGNED_CONTEXT ( ( #243, #50, #150 ) ) REPRESENTATION_CONTEXT ( 'NONE', 'WORKASPACE' ) );
#247 = DIRECTION ( 'NONE',  ( 0.0000000000000000000, 0.0000000000000000000, -1.000000000000000000 ) ) ;
#248 = DIRECTION ( 'NONE',  ( 1.000000000000000000, 0.0000000000000000000, 0.0000000000000000000 ) ) ;
#249 = CARTESIAN_POINT ( 'NONE',  ( 0.09832657499999998552, 1.204153253448721512E-17, -1.204153253448721512E-17 ) ) ;
#250 = DIRECTION ( 'NONE',  ( -0.0000000000000000000, -0.0000000000000000000, -1.000000000000000000 ) ) ;
#251 = CARTESIAN_POINT ( 'NONE',  ( 4.821446694711121291E-17, 0.0000000000000000000, 0.3937009999999999676 ) ) ;
#252 = STYLED_ITEM ( 'NONE', ( #224 ), #21 ) ;
#253 = CIRCLE ( 'NONE', #188, 0.09832657499999998552 ) ;
#254 = EDGE_CURVE ( 'NONE', #262, #102, #212, .T. ) ;
#255 = DIRECTION ( 'NONE',  ( -1.000000000000000000, 0.0000000000000000000, 1.224646799147353207E-16 ) ) ;
#256 = AXIS2_PLACEMENT_3D ( 'NONE', #293, #205, #88 ) ;
#257 =( CONVERSION_BASED_UNIT ( 'INCH', #199 ) LENGTH_UNIT ( ) NAMED_UNIT ( #125 ) );
#258 = PRESENTATION_STYLE_ASSIGNMENT (( #237 ) ) ;
#259 = ADVANCED_FACE ( 'NONE', ( #244 ), #85, .T. ) ;
#260 = DIMENSIONAL_EXPONENTS ( 1.000000000000000000, 0.0000000000000000000, 0.0000000000000000000, 0.0000000000000000000, 0.0000000000000000000, 0.0000000000000000000, 0.0000000000000000000 ) ;
#261 = AXIS2_PLACEMENT_3D ( 'NONE', #175, #93, #179 ) ;
#262 = VERTEX_POINT ( 'NONE', #191 ) ;
#263 = ORIENTED_EDGE ( 'NONE', *, *, #62, .F. ) ;
#264 = LENGTH_MEASURE_WITH_UNIT ( LENGTH_MEASURE( 0.02539999999999999897 ), #9 );
#265 = ORIENTED_EDGE ( 'NONE', *, *, #231, .F. ) ;
#266 =( GEOMETRIC_REPRESENTATION_CONTEXT ( 3 ) GLOBAL_UNCERTAINTY_ASSIGNED_CONTEXT ( ( #234 ) ) GLOBAL_UNIT_ASSIGNED_CONTEXT ( ( #257, #1, #151 ) ) REPRESENTATION_CONTEXT ( 'NONE', 'WORKASPACE' ) );
#267 = CARTESIAN_POINT ( 'NONE',  ( 0.0000000000000000000, 0.0000000000000000000, 2.229093999999999465 ) ) ;
#268 = ADVANCED_BREP_SHAPE_REPRESENTATION ( 'Micro_GEMM-050-2', ( #21, #261 ), #123 ) ;
#269 = CARTESIAN_POINT ( 'NONE',  ( -0.09832657499999998552, 0.0000000000000000000, 1.204153253448721512E-17 ) ) ;
#270 = DIRECTION ( 'NONE',  ( 0.0000000000000000000, 0.0000000000000000000, 1.000000000000000000 ) ) ;
#271 = ADVANCED_FACE ( 'NONE', ( #81 ), #29, .T. ) ;
#272 = AXIS2_PLACEMENT_3D ( 'NONE', #140, #250, #113 ) ;
#273 = CARTESIAN_POINT ( 'NONE',  ( 0.0000000000000000000, 0.0000000000000000000, 0.0000000000000000000 ) ) ;
#274 = DIRECTION ( 'NONE',  ( -1.224646799147353207E-16, -0.0000000000000000000, -1.000000000000000000 ) ) ;
#275 = EDGE_CURVE ( 'NONE', #38, #286, #127, .T. ) ;
#276 = DIRECTION ( 'NONE',  ( -1.000000000000000000, 0.0000000000000000000, 1.224646799147353207E-16 ) ) ;
#277 = VECTOR ( 'NONE', #33, 39.37007874015748143 ) ;
#278 = APPLICATION_CONTEXT ( 'automotive_design' ) ;
#279 = ORIENTED_EDGE ( 'NONE', *, *, #99, .F. ) ;
#280 =( NAMED_UNIT ( * ) PLANE_ANGLE_UNIT ( ) SI_UNIT ( $, .RADIAN. ) );
#281 = EDGE_LOOP ( 'NONE', ( #181, #90 ) ) ;
#282 = APPLICATION_PROTOCOL_DEFINITION ( 'draft international standard', 'automotive_design', 1998, #40 ) ;
#283 = AXIS2_PLACEMENT_3D ( 'NONE', #208, #187, #66 ) ;
#284 = ORIENTED_EDGE ( 'NONE', *, *, #109, .F. ) ;
#285 = ADVANCED_FACE ( 'NONE', ( #215 ), #121, .T. ) ;
#286 = VERTEX_POINT ( 'NONE', #170 ) ;
#287 = AXIS2_PLACEMENT_3D ( 'NONE', #251, #163, #162 ) ;
#288 = DIRECTION ( 'NONE',  ( -1.000000000000000000, 0.0000000000000000000, 0.0000000000000000000 ) ) ;
#289 = DIRECTION ( 'NONE',  ( 0.7071067811865358044, 8.659560562354788645E-17, -0.7071067811865590080 ) ) ;
#290 = PLANE ( 'NONE',  #118 ) ;
#291 = CARTESIAN_POINT ( 'NONE',  ( 6.195468299633803946E-17, 0.0000000000000000000, 0.5058983785322699323 ) ) ;
#292 = DIRECTION ( 'NONE',  ( -0.0000000000000000000, -0.0000000000000000000, -1.000000000000000000 ) ) ;
#293 = CARTESIAN_POINT ( 'NONE',  ( 0.0000000000000000000, 0.0000000000000000000, 2.244094000000000033 ) ) ;
#294 = CARTESIAN_POINT ( 'NONE',  ( 6.195468299633803946E-17, 0.0000000000000000000, 0.5058983785322699323 ) ) ;
#295 = EDGE_CURVE ( 'NONE', #38, #239, #218, .T. ) ;
#296 = APPLICATION_PROTOCOL_DEFINITION ( 'draft international standard', 'automotive_design', 1998, #278 ) ;
#297 = VECTOR ( 'NONE', #289, 39.37007874015748854 ) ;
#298 = EDGE_CURVE ( 'NONE', #286, #53, #145, .T. ) ;
#299 = LENGTH_MEASURE_WITH_UNIT ( LENGTH_MEASURE( 0.02539999999999999897 ), #42 );
ENDSEC;
END-ISO-10303-21;
